  0
SECTION
  2
HEADER
  9
$ACADVER
  1
AC1014
  9
$ACADMAINTVER
 70
     0
  9
$DWGCODEPAGE
  3
ANSI_1252
  9
$INSBASE
 10
0.0
 20
0.0
 30
0.0
  9
$EXTMIN
 10
-1.190945
 20
-0.59254
 30
0.0
  9
$EXTMAX
 10
0.4921
 20
4.232228
 30
0.0
  9
$LIMMIN
 10
0.0
 20
0.0
  9
$LIMMAX
 10
0.0
 20
0.0
  9
$ORTHOMODE
 70
     0
  9
$REGENMODE
 70
     1
  9
$FILLMODE
 70
     1
  9
$QTEXTMODE
 70
     0
  9
$MIRRTEXT
 70
     1
  9
$DRAGMODE
 70
     2
  9
$LTSCALE
 40
1.0
  9
$OSMODE
 70
     0
  9
$ATTMODE
 70
     1
  9
$TEXTSIZE
 40
0.2
  9
$TRACEWID
 40
0.05
  9
$TEXTSTYLE
  7
STANDARD
  9
$CLAYER
  8
0
  9
$CELTYPE
  6
CONTINUOUS
  9
$CECOLOR
 62
   256
  9
$CELTSCALE
 40
1.0
  9
$DELOBJ
 70
     1
  9
$DISPSILH
 70
     0
  9
$DIMSCALE
 40
1.0
  9
$DIMASZ
 40
0.18
  9
$DIMEXO
 40
0.0625
  9
$DIMDLI
 40
0.38
  9
$DIMRND
 40
0.0
  9
$DIMDLE
 40
0.0
  9
$DIMEXE
 40
0.18
  9
$DIMTP
 40
0.0
  9
$DIMTM
 40
0.0
  9
$DIMTXT
 40
0.18
  9
$DIMCEN
 40
0.09
  9
$DIMTSZ
 40
0.0
  9
$DIMTOL
 70
     0
  9
$DIMLIM
 70
     0
  9
$DIMTIH
 70
     1
  9
$DIMTOH
 70
     1
  9
$DIMSE1
 70
     0
  9
$DIMSE2
 70
     0
  9
$DIMTAD
 70
     0
  9
$DIMZIN
 70
     0
  9
$DIMBLK
  1

  9
$DIMASO
 70
     1
  9
$DIMSHO
 70
     1
  9
$DIMPOST
  1

  9
$DIMAPOST
  1

  9
$DIMALT
 70
     0
  9
$DIMALTD
 70
     2
  9
$DIMALTF
 40
25.4
  9
$DIMLFAC
 40
1.0
  9
$DIMTOFL
 70
     0
  9
$DIMTVP
 40
0.0
  9
$DIMTIX
 70
     0
  9
$DIMSOXD
 70
     0
  9
$DIMSAH
 70
     0
  9
$DIMBLK1
  1

  9
$DIMBLK2
  1

  9
$DIMSTYLE
  2
STANDARD
  9
$DIMCLRD
 70
     0
  9
$DIMCLRE
 70
     0
  9
$DIMCLRT
 70
     0
  9
$DIMTFAC
 40
1.0
  9
$DIMGAP
 40
0.09
  9
$DIMJUST
 70
     0
  9
$DIMSD1
 70
     0
  9
$DIMSD2
 70
     0
  9
$DIMTOLJ
 70
     1
  9
$DIMTZIN
 70
     0
  9
$DIMALTZ
 70
     0
  9
$DIMALTTZ
 70
     0
  9
$DIMFIT
 70
     3
  9
$DIMUPT
 70
     0
  9
$DIMUNIT
 70
     2
  9
$DIMDEC
 70
     4
  9
$DIMTDEC
 70
     4
  9
$DIMALTU
 70
     2
  9
$DIMALTTD
 70
     2
  9
$DIMTXSTY
  7
STANDARD
  9
$DIMAUNIT
 70
     0
  9
$LUNITS
 70
     2
  9
$LUPREC
 70
     4
  9
$SKETCHINC
 40
0.1
  9
$FILLETRAD
 40
0.0
  9
$AUNITS
 70
     0
  9
$AUPREC
 70
     0
  9
$MENU
  1
acad
  9
$ELEVATION
 40
0.0
  9
$PELEVATION
 40
0.0
  9
$THICKNESS
 40
0.0
  9
$LIMCHECK
 70
     0
  9
$BLIPMODE
 70
     1
  9
$CHAMFERA
 40
0.0
  9
$CHAMFERB
 40
0.0
  9
$CHAMFERC
 40
0.0
  9
$CHAMFERD
 40
0.0
  9
$SKPOLY
 70
     0
  9
$TDCREATE
 40
0.000000000
  9
$TDUPDATE
 40
0.000000000
  9
$TDINDWG
 40
0.0000000000
  9
$TDUSRTIMER
 40
0.0000000000
  9
$USRTIMER
 70
     1
  9
$ANGBASE
 50
0.0
  9
$ANGDIR
 70
     0
  9
$PDMODE
 70
     0
  9
$PDSIZE
 40
0.0
  9
$PLINEWID
 40
0.0
  9
$COORDS
 70
     0
  9
$SPLFRAME
 70
     0
  9
$SPLINETYPE
 70
     6
  9
$SPLINESEGS
 70
     8
  9
$ATTDIA
 70
     0
  9
$ATTREQ
 70
     1
  9
$HANDLING
 70
     1
  9
$HANDSEED
  5
262
  9
$SURFTAB1
 70
     6
  9
$SURFTAB2
 70
     6
  9
$SURFTYPE
 70
     6
  9
$SURFU
 70
     6
  9
$SURFV
 70
     6
  9
$UCSNAME
  2

  9
$UCSORG
 10
0.0
 20
0.0
 30
0.0
  9
$UCSXDIR
 10
1.0
 20
0.0
 30
0.0
  9
$UCSYDIR
 10
0.0
 20
1.0
 30
0.0
  9
$PUCSNAME
  2

  9
$PUCSORG
 10
0.0
 20
0.0
 30
0.0
  9
$PUCSXDIR
 10
1.0
 20
0.0
 30
0.0
  9
$PUCSYDIR
 10
0.0
 20
1.0
 30
0.0
  9
$USERI1
 70
     0
  9
$USERI2
 70
     0
  9
$USERI3
 70
     0
  9
$USERI4
 70
     0
  9
$USERI5
 70
     0
  9
$USERR1
 40
0.0
  9
$USERR2
 40
0.0
  9
$USERR3
 40
0.0
  9
$USERR4
 40
0.0
  9
$USERR5
 40
0.0
  9
$WORLDVIEW
 70
     1
  9
$SHADEDGE
 70
     3
  9
$SHADEDIF
 70
    70
  9
$TILEMODE
 70
     1
  9
$MAXACTVP
 70
    16
  9
$PINSBASE
 10
0.0
 20
0.0
 30
0.0
  9
$PLIMCHECK
 70
     0
  9
$PEXTMIN
 10
1.000000E+20
 20
1.000000E+20
 30
1.000000E+20
  9
$PEXTMAX
 10
-1.000000E+20
 20
-1.000000E+20
 30
-1.000000E+20
  9
$PLIMMIN
 10
0.0
 20
0.0
  9
$PLIMMAX
 10
12.0
 20
9.0
  9
$UNITMODE
 70
     0
  9
$VISRETAIN
 70
     0
  9
$PLINEGEN
 70
     1
  9
$PSLTSCALE
 70
     0
  9
$TREEDEPTH
 70
  3020
  9
$PICKSTYLE
 70
     1
  9
$CMLSTYLE
  2
STANDARD
  9
$CMLJUST
 70
     0
  9
$CMLSCALE
 40
1.0
  9
$PROXYGRAPHICS
 70
     0
  9
$MEASUREMENT
 70
     0
  0
ENDSEC
  0
SECTION
  2
CLASSES
  0
CLASS
  1
LWPOLYLINE
  2
AcDbPolyline
  3
"AutoCAD"
 90
        0
280
     0
281
     1
  0
CLASS
  1
IMAGE
  2
AcDbRasterImage
  3
ISM
 90
      127
280
     0
281
     1
  0
CLASS
  1
OLE2FRAME
  2
AcDbOle2Frame
  3
""
 90
        0
280
     0
281
     1
  0
CLASS
  1
HATCH
  2
AcDbHatch
  3
"ACAD_SEDONA"
 90
        0
280
     0
281
     1
  0
CLASS
  1
DICTIONARYVAR
  2
AcDbDictionaryVar
  3
"AutoCAD"
 90
        0
280
     0
281
     0
  0
CLASS
  1
RASTERVARIABLES
  2
AcDbRasterVariables
  3
ISM
 90
        0
280
     0
281
     0
  0
CLASS
  1
IMAGEDEF
  2
AcDbRasterImageDef
  3
ISM
 90
        0
280
     0
281
     0
  0
CLASS
  1
IMAGEDEF_REACTOR
  2
AcDbRasterImageDefReactor
  3
ISM
 90
        1
280
     0
281
     0
  0
CLASS
  1
IDBUFFER
  2
AcDbIdBuffer
  3
"Acad"
 90
        0
280
     0
281
     0
  0
CLASS
  1
SPATIAL_FILTER
  2
AcDbSpatialFilter
  3
"Acad"
 90
        0
280
     0
281
     0
  0
CLASS
  1
XRECORD
  2
AcDbXrecord
  3
"<Built In>"
 90
        0
280
     0
281
     0
  0
CLASS
  1
SORTENTSTABLE
  2
AcDbSortentsTable
  3
"AutoCAD"
 90
        0
280
     0
281
     0
  0
CLASS
  1
LAYER_INDEX
  2
AcDbLayerIndex
  3
"Acad"
 90
        0
280
     0
281
     0
  0
CLASS
  1
SPATIAL_INDEX
  2
AcDbSpatialIndex
  3
"Acad"
 90
        0
280
     0
281
     0
  0
CLASS
  1
OBJECT_PTR
  2
CAseDLPNTableRecord
  3
"ASE-LPNTableRecord"
 90
        1
280
     0
281
     0
  0
CLASS
  1
LAYOUT
  2
AcDbLayout
  3
"AutoCAD 2000"
 90
        0
280
     0
281
     0
  0
CLASS
  1
PLOTSETTINGS
  2
AcDbPlotSettings
  3
"AutoCAD 2000"
 90
        0
280
     0
281
     0
  0
CLASS
  1
ACDBDICTIONARYWDFLT
  2
AcDbDictionaryWithDefault
  3
"AutoCAD 2000"
 90
        0
280
     0
281
     0
  0
CLASS
  1
ACDBPLACEHOLDER
  2
AcDbPlaceHolder
  3
"AutoCAD 2000"
 90
        0
280
     0
281
     0
  0
CLASS
  1
VBA_PROJECT
  2
AcDbVbaProject
  3
"acadvba"
 90
        0
280
     0
281
     0
  0
CLASS
  1
WIPEOUT
  2
AcDbWipeout
  3
WipeOut|AutoCAD Express Tool|expresstools@autodesk.com
 90
      127
280
     0
281
     1
  0
CLASS
  1
WIPEOUTVARIABLES
  2
AcDbWipeoutVariables
  3
WipeOut|AutoCAD Express Tool|expresstools@autodesk.com
 90
        0
280
     0
281
     0
  0
CLASS
  1
RTEXT
  2
RText
  3
RText|AutoCAD Express Tool|expresstools@autodesk.com
 90
        0
280
     0
281
     1
  0
CLASS
  1
ARCALIGNEDTEXT
  2
AcDbArcAlignedText
  3
ATEXT|AutoCAD Express Tool|expresstools@autodesk.com
 90
        0
280
     0
281
     1
  0
ENDSEC
  0
SECTION
  2
TABLES
  0
TABLE
  2
VPORT
  5
7
100
AcDbSymbolTable
 70
     1
  0
VPORT
  5
15
100
AcDbSymbolTableRecord
100
AcDbViewportTableRecord
  2
*ACTIVE
 70
     0
 10
0.0
 20
0.0
 11
1.0
 21
1.0
 12
6.591288
 22
4.579184
 13
0.0
 23
0.0
 14
1.0
 24
1.0
 15
0.0
 25
0.0
 16
0.0
 26
0.0
 36
1.0
 17
0.0
 27
0.0
 37
0.0
 40
9.158369
 41
0.688564
 42
50.0
 43
0.0
 44
0.0
 50
0.0
 51
0.0
 71
     0
 72
   100
 73
     1
 74
     1
 75
     0
 76
     0
 77
     0
 78
     0
  0
ENDTAB
  0
TABLE
  2
LTYPE
  5
4
100
AcDbSymbolTable
 70
     7
  0
LTYPE
  5
11
100
AcDbSymbolTableRecord
100
AcDbLinetypeTableRecord
  2
BYBLOCK
 70
    64
  3

 72
    65
 73
     0
 40
0.0
  0
LTYPE
  5
12
100
AcDbSymbolTableRecord
100
AcDbLinetypeTableRecord
  2
BYLAYER
 70
    64
  3

 72
    65
 73
     0
 40
0.0
  0
LTYPE
  5
13
100
AcDbSymbolTableRecord
100
AcDbLinetypeTableRecord
  2
CONTINUOUS
 70
    64
  3
Solid line
 72
    65
 73
     0
 40
0.0
  0
LTYPE
  5
1F
100
AcDbSymbolTableRecord
100
AcDbLinetypeTableRecord
  2
CENTER
 70
    64
  3
Center ____ _ ____ _ ____ _ ____ _ ____ _ ____
 72
    65
 73
     4
 40
50.8
 49
31.75
 74
     0
 49
-6.35
 74
     0
 49
6.35
 74
     0
 49
-6.35
 74
     0
  0
LTYPE
  5
20
100
AcDbSymbolTableRecord
100
AcDbLinetypeTableRecord
  2
HIDDEN
 70
    64
  3
Hidden __ __ __ __ __ __ __ __ __ __ __ __ __ __
 72
    65
 73
     2
 40
9.525
 49
6.35
 74
     0
 49
-3.175
 74
     0
  0
LTYPE
  5
21
100
AcDbSymbolTableRecord
100
AcDbLinetypeTableRecord
  2
CENTER2
 70
    64
  3
Center (.5x) ___ _ ___ _ ___ _ ___ _ ___ _ ___
 72
    65
 73
     4
 40
28.575
 49
19.05
 74
     0
 49
-3.175
 74
     0
 49
3.175
 74
     0
 49
-3.175
 74
     0
  0
LTYPE
  5
22
100
AcDbSymbolTableRecord
100
AcDbLinetypeTableRecord
  2
HIDDEN2
 70
    64
  3
Hidden (.5x) _ _ _ _ _ _ _ _ _ _ _ _ _ _ _ _ _
 72
    65
 73
     2
 40
4.7625
 49
3.175
 74
     0
 49
-1.5875
 74
     0
  0
ENDTAB
  0
TABLE
  2
LAYER
  5
2
100
AcDbSymbolTable
 70
     7
  0
LAYER
  5
14
100
AcDbSymbolTableRecord
100
AcDbLayerTableRecord
  2
0
 70
     0
 62
     7
  6
CONTINUOUS
  0
LAYER
  5
23
100
AcDbSymbolTableRecord
100
AcDbLayerTableRecord
  2
TRMODEL1
 70
     0
 62
     7
  6
CONTINUOUS
  0
LAYER
  5
24
100
AcDbSymbolTableRecord
100
AcDbLayerTableRecord
  2
TRMODEL3
 70
     0
 62
     7
  6
CONTINUOUS
  0
LAYER
  5
25
100
AcDbSymbolTableRecord
100
AcDbLayerTableRecord
  2
TRDETAIL2
 70
     0
 62
     7
  6
CONTINUOUS
  0
LAYER
  5
26
100
AcDbSymbolTableRecord
100
AcDbLayerTableRecord
  2
TRDETAIL3
 70
     0
 62
     7
  6
CONTINUOUS
  0
LAYER
  5
27
100
AcDbSymbolTableRecord
100
AcDbLayerTableRecord
  2
TRDETAIL4
 70
     0
 62
     7
  6
CONTINUOUS
  0
LAYER
  5
28
100
AcDbSymbolTableRecord
100
AcDbLayerTableRecord
  2
TRDETAIL5
 70
     0
 62
     7
  6
CONTINUOUS
  0
ENDTAB
  0
TABLE
  2
STYLE
  5
3
100
AcDbSymbolTable
 70
     1
  0
STYLE
  5
17
100
AcDbSymbolTableRecord
100
AcDbTextStyleTableRecord
  2
STANDARD
 70
     0
 40
0.0
 41
1.0
 50
0.0
 71
     0
 42
0.0
  3
txt
  4

  0
ENDTAB
  0
TABLE
  2
VIEW
  5
5
100
AcDbSymbolTable
 70
     0
  0
ENDTAB
  0
TABLE
  2
UCS
  5
6
100
AcDbSymbolTable
 70
     0
  0
ENDTAB
  0
TABLE
  2
APPID
  5
8
100
AcDbSymbolTable
 70
     1
  0
APPID
  5
16
100
AcDbSymbolTableRecord
100
AcDbRegAppTableRecord
  2
ACAD
 70
     0
  0
ENDTAB
  0
TABLE
  2
DIMSTYLE
  5
9
100
AcDbSymbolTable
 70
     1
  0
DIMSTYLE
105
18
100
AcDbSymbolTableRecord
100
AcDbDimStyleTableRecord
  2
STANDARD
 70
     0
  3

  4

  5

  6

  7

 40
1.0
 41
0.18
 42
0.0625
 43
0.38
 44
0.18
 45
0.0
 46
0.0
 47
0.0
 48
0.0
 71
     0
 72
     0
 73
     1
 74
     1
 75
     0
 76
     0
 77
     0
 78
     0
140
0.18
141
0.09
142
0.0
143
25.4
144
1.0
145
0.0
146
1.0
147
0.09
170
     0
171
     2
172
     0
173
     0
174
     0
175
     0
176
     0
177
     0
178
     0
270
     2
271
     4
272
     4
273
     2
274
     2
275
     0
280
     0
281
     0
282
     0
283
     1
284
     0
285
     0
286
     0
287
     3
288
     0
340
17
  0
ENDTAB
  0
TABLE
  2
BLOCK_RECORD
  5
1
100
AcDbSymbolTable
 70
     0
  0
BLOCK_RECORD
  5
A
100
AcDbSymbolTableRecord
100
AcDbBlockTableRecord
  2
*MODEL_SPACE
  0
BLOCK_RECORD
  5
B
100
AcDbSymbolTableRecord
100
AcDbBlockTableRecord
  2
*PAPER_SPACE
  0
ENDTAB
  0
ENDSEC
  0
SECTION
  2
BLOCKS
  0
BLOCK
  5
D
100
AcDbEntity
  8
0
100
AcDbBlockBegin
  2
*MODEL_SPACE
 70
     0
 10
0.0
 20
0.0
 30
0.0
  3
*MODEL_SPACE
  1

  0
ENDBLK
  5
E
100
AcDbEntity
  8
0
100
AcDbBlockEnd
  0
BLOCK
  5
F
100
AcDbEntity
 67
     1
  8
0
100
AcDbBlockBegin
  2
*PAPER_SPACE
 70
     0
 10
0.0
 20
0.0
 30
0.0
  3
*PAPER_SPACE
  1

  0
ENDBLK
  5
10
100
AcDbEntity
 67
     1
  8
0
100
AcDbBlockEnd
  0
ENDSEC
  0
SECTION
  2
ENTITIES
  0
LINE
  5
169
100
AcDbEntity
  8
TRMODEL1
  6
CONTINUOUS
 62
     7
100
AcDbLine
 10
-0.5708
 20
2.559
 30
0.0
 11
-0.5708
 21
2.50782
 31
0.0
  0
LINE
  5
16A
100
AcDbEntity
  8
TRMODEL1
  6
CONTINUOUS
 62
     7
100
AcDbLine
 10
-0.5708
 20
2.50782
 30
0.0
 11
0.4921
 21
2.50782
 31
0.0
  0
LINE
  5
16B
100
AcDbEntity
  8
TRMODEL1
  6
CONTINUOUS
 62
     7
100
AcDbLine
 10
0.4921
 20
2.50782
 30
0.0
 11
0.4921
 21
2.559
 31
0.0
  0
LINE
  5
16C
100
AcDbEntity
  8
TRMODEL1
  6
CONTINUOUS
 62
     7
100
AcDbLine
 10
-0.295276
 20
2.559
 30
0.0
 11
-0.294998
 21
2.558976
 31
0.0
  0
LINE
  5
16D
100
AcDbEntity
  8
TRMODEL1
  6
CONTINUOUS
 62
     7
100
AcDbLine
 10
-0.294998
 20
2.558976
 30
0.0
 11
-0.29415
 21
2.558904
 31
0.0
  0
LINE
  5
16E
100
AcDbEntity
  8
TRMODEL1
  6
CONTINUOUS
 62
     7
100
AcDbLine
 10
-0.29415
 20
2.558904
 30
0.0
 11
-0.292715
 21
2.558782
 31
0.0
  0
LINE
  5
16F
100
AcDbEntity
  8
TRMODEL1
  6
CONTINUOUS
 62
     7
100
AcDbLine
 10
-0.292715
 20
2.558782
 30
0.0
 11
-0.29068
 21
2.55861
 31
0.0
  0
LINE
  5
170
100
AcDbEntity
  8
TRMODEL1
  6
CONTINUOUS
 62
     7
100
AcDbLine
 10
-0.29068
 20
2.55861
 30
0.0
 11
-0.28804
 21
2.558389
 31
0.0
  0
LINE
  5
171
100
AcDbEntity
  8
TRMODEL1
  6
CONTINUOUS
 62
     7
100
AcDbLine
 10
-0.28804
 20
2.558389
 30
0.0
 11
-0.284794
 21
2.558119
 31
0.0
  0
LINE
  5
172
100
AcDbEntity
  8
TRMODEL1
  6
CONTINUOUS
 62
     7
100
AcDbLine
 10
-0.284794
 20
2.558119
 30
0.0
 11
-0.280945
 21
2.557804
 31
0.0
  0
LINE
  5
173
100
AcDbEntity
  8
TRMODEL1
  6
CONTINUOUS
 62
     7
100
AcDbLine
 10
-0.280945
 20
2.557804
 30
0.0
 11
-0.276502
 21
2.557445
 31
0.0
  0
LINE
  5
174
100
AcDbEntity
  8
TRMODEL1
  6
CONTINUOUS
 62
     7
100
AcDbLine
 10
-0.276502
 20
2.557445
 30
0.0
 11
-0.271479
 21
2.557046
 31
0.0
  0
LINE
  5
175
100
AcDbEntity
  8
TRMODEL1
  6
CONTINUOUS
 62
     7
100
AcDbLine
 10
-0.271479
 20
2.557046
 30
0.0
 11
-0.265891
 21
2.55661
 31
0.0
  0
LINE
  5
176
100
AcDbEntity
  8
TRMODEL1
  6
CONTINUOUS
 62
     7
100
AcDbLine
 10
-0.265891
 20
2.55661
 30
0.0
 11
-0.259757
 21
2.556143
 31
0.0
  0
LINE
  5
177
100
AcDbEntity
  8
TRMODEL1
  6
CONTINUOUS
 62
     7
100
AcDbLine
 10
-0.259757
 20
2.556143
 30
0.0
 11
-0.253102
 21
2.555648
 31
0.0
  0
LINE
  5
178
100
AcDbEntity
  8
TRMODEL1
  6
CONTINUOUS
 62
     7
100
AcDbLine
 10
-0.253102
 20
2.555648
 30
0.0
 11
-0.245958
 21
2.555131
 31
0.0
  0
LINE
  5
179
100
AcDbEntity
  8
TRMODEL1
  6
CONTINUOUS
 62
     7
100
AcDbLine
 10
-0.245958
 20
2.555131
 30
0.0
 11
-0.238358
 21
2.554597
 31
0.0
  0
LINE
  5
17A
100
AcDbEntity
  8
TRMODEL1
  6
CONTINUOUS
 62
     7
100
AcDbLine
 10
-0.238358
 20
2.554597
 30
0.0
 11
-0.230345
 21
2.554052
 31
0.0
  0
LINE
  5
17B
100
AcDbEntity
  8
TRMODEL1
  6
CONTINUOUS
 62
     7
100
AcDbLine
 10
-0.230345
 20
2.554052
 30
0.0
 11
-0.22196
 21
2.553502
 31
0.0
  0
LINE
  5
17C
100
AcDbEntity
  8
TRMODEL1
  6
CONTINUOUS
 62
     7
100
AcDbLine
 10
-0.22196
 20
2.553502
 30
0.0
 11
-0.213251
 21
2.552952
 31
0.0
  0
LINE
  5
17D
100
AcDbEntity
  8
TRMODEL1
  6
CONTINUOUS
 62
     7
100
AcDbLine
 10
-0.213251
 20
2.552952
 30
0.0
 11
-0.204234
 21
2.552406
 31
0.0
  0
LINE
  5
17E
100
AcDbEntity
  8
TRMODEL1
  6
CONTINUOUS
 62
     7
100
AcDbLine
 10
-0.204234
 20
2.552406
 30
0.0
 11
-0.194734
 21
2.551856
 31
0.0
  0
LINE
  5
17F
100
AcDbEntity
  8
TRMODEL1
  6
CONTINUOUS
 62
     7
100
AcDbLine
 10
-0.194734
 20
2.551856
 30
0.0
 11
-0.18474
 21
2.551305
 31
0.0
  0
LINE
  5
180
100
AcDbEntity
  8
TRMODEL1
  6
CONTINUOUS
 62
     7
100
AcDbLine
 10
-0.18474
 20
2.551305
 30
0.0
 11
-0.174278
 21
2.55076
 31
0.0
  0
LINE
  5
181
100
AcDbEntity
  8
TRMODEL1
  6
CONTINUOUS
 62
     7
100
AcDbLine
 10
-0.174278
 20
2.55076
 30
0.0
 11
-0.163378
 21
2.550225
 31
0.0
  0
LINE
  5
182
100
AcDbEntity
  8
TRMODEL1
  6
CONTINUOUS
 62
     7
100
AcDbLine
 10
-0.163378
 20
2.550225
 30
0.0
 11
-0.152075
 21
2.549708
 31
0.0
  0
LINE
  5
183
100
AcDbEntity
  8
TRMODEL1
  6
CONTINUOUS
 62
     7
100
AcDbLine
 10
-0.152075
 20
2.549708
 30
0.0
 11
-0.140407
 21
2.549212
 31
0.0
  0
LINE
  5
184
100
AcDbEntity
  8
TRMODEL1
  6
CONTINUOUS
 62
     7
100
AcDbLine
 10
-0.140407
 20
2.549212
 30
0.0
 11
-0.128413
 21
2.548743
 31
0.0
  0
LINE
  5
185
100
AcDbEntity
  8
TRMODEL1
  6
CONTINUOUS
 62
     7
100
AcDbLine
 10
-0.128413
 20
2.548743
 30
0.0
 11
-0.116132
 21
2.548307
 31
0.0
  0
LINE
  5
186
100
AcDbEntity
  8
TRMODEL1
  6
CONTINUOUS
 62
     7
100
AcDbLine
 10
-0.116132
 20
2.548307
 30
0.0
 11
-0.103605
 21
2.547907
 31
0.0
  0
LINE
  5
187
100
AcDbEntity
  8
TRMODEL1
  6
CONTINUOUS
 62
     7
100
AcDbLine
 10
-0.103605
 20
2.547907
 30
0.0
 11
-0.090872
 21
2.547547
 31
0.0
  0
LINE
  5
188
100
AcDbEntity
  8
TRMODEL1
  6
CONTINUOUS
 62
     7
100
AcDbLine
 10
-0.090872
 20
2.547547
 30
0.0
 11
-0.077976
 21
2.547231
 31
0.0
  0
LINE
  5
189
100
AcDbEntity
  8
TRMODEL1
  6
CONTINUOUS
 62
     7
100
AcDbLine
 10
-0.077976
 20
2.547231
 30
0.0
 11
-0.064965
 21
2.54696
 31
0.0
  0
LINE
  5
18A
100
AcDbEntity
  8
TRMODEL1
  6
CONTINUOUS
 62
     7
100
AcDbLine
 10
-0.064965
 20
2.54696
 30
0.0
 11
-0.05189
 21
2.546738
 31
0.0
  0
LINE
  5
18B
100
AcDbEntity
  8
TRMODEL1
  6
CONTINUOUS
 62
     7
100
AcDbLine
 10
-0.05189
 20
2.546738
 30
0.0
 11
-0.038804
 21
2.546566
 31
0.0
  0
LINE
  5
18C
100
AcDbEntity
  8
TRMODEL1
  6
CONTINUOUS
 62
     7
100
AcDbLine
 10
-0.038804
 20
2.546566
 30
0.0
 11
-0.025758
 21
2.546443
 31
0.0
  0
LINE
  5
18D
100
AcDbEntity
  8
TRMODEL1
  6
CONTINUOUS
 62
     7
100
AcDbLine
 10
-0.025758
 20
2.546443
 30
0.0
 11
-0.012807
 21
2.54637
 31
0.0
  0
LINE
  5
18E
100
AcDbEntity
  8
TRMODEL1
  6
CONTINUOUS
 62
     7
100
AcDbLine
 10
-0.012807
 20
2.54637
 30
0.0
 11
0.0
 21
2.546347
 31
0.0
  0
LINE
  5
18F
100
AcDbEntity
  8
TRMODEL1
  6
CONTINUOUS
 62
     7
100
AcDbLine
 10
0.0
 20
2.546347
 30
0.0
 11
0.012807
 21
2.54637
 31
0.0
  0
LINE
  5
190
100
AcDbEntity
  8
TRMODEL1
  6
CONTINUOUS
 62
     7
100
AcDbLine
 10
0.012807
 20
2.54637
 30
0.0
 11
0.025758
 21
2.546443
 31
0.0
  0
LINE
  5
191
100
AcDbEntity
  8
TRMODEL1
  6
CONTINUOUS
 62
     7
100
AcDbLine
 10
0.025758
 20
2.546443
 30
0.0
 11
0.038804
 21
2.546566
 31
0.0
  0
LINE
  5
192
100
AcDbEntity
  8
TRMODEL1
  6
CONTINUOUS
 62
     7
100
AcDbLine
 10
0.038804
 20
2.546566
 30
0.0
 11
0.05189
 21
2.546738
 31
0.0
  0
LINE
  5
193
100
AcDbEntity
  8
TRMODEL1
  6
CONTINUOUS
 62
     7
100
AcDbLine
 10
0.05189
 20
2.546738
 30
0.0
 11
0.064965
 21
2.54696
 31
0.0
  0
LINE
  5
194
100
AcDbEntity
  8
TRMODEL1
  6
CONTINUOUS
 62
     7
100
AcDbLine
 10
0.064965
 20
2.54696
 30
0.0
 11
0.077976
 21
2.547231
 31
0.0
  0
LINE
  5
195
100
AcDbEntity
  8
TRMODEL1
  6
CONTINUOUS
 62
     7
100
AcDbLine
 10
0.077976
 20
2.547231
 30
0.0
 11
0.090872
 21
2.547547
 31
0.0
  0
LINE
  5
196
100
AcDbEntity
  8
TRMODEL1
  6
CONTINUOUS
 62
     7
100
AcDbLine
 10
0.090872
 20
2.547547
 30
0.0
 11
0.103605
 21
2.547907
 31
0.0
  0
LINE
  5
197
100
AcDbEntity
  8
TRMODEL1
  6
CONTINUOUS
 62
     7
100
AcDbLine
 10
0.103605
 20
2.547907
 30
0.0
 11
0.116132
 21
2.548307
 31
0.0
  0
LINE
  5
198
100
AcDbEntity
  8
TRMODEL1
  6
CONTINUOUS
 62
     7
100
AcDbLine
 10
0.116132
 20
2.548307
 30
0.0
 11
0.128413
 21
2.548743
 31
0.0
  0
LINE
  5
199
100
AcDbEntity
  8
TRMODEL1
  6
CONTINUOUS
 62
     7
100
AcDbLine
 10
0.128413
 20
2.548743
 30
0.0
 11
0.140407
 21
2.549212
 31
0.0
  0
LINE
  5
19A
100
AcDbEntity
  8
TRMODEL1
  6
CONTINUOUS
 62
     7
100
AcDbLine
 10
0.140407
 20
2.549212
 30
0.0
 11
0.152075
 21
2.549708
 31
0.0
  0
LINE
  5
19B
100
AcDbEntity
  8
TRMODEL1
  6
CONTINUOUS
 62
     7
100
AcDbLine
 10
0.152075
 20
2.549708
 30
0.0
 11
0.163378
 21
2.550225
 31
0.0
  0
LINE
  5
19C
100
AcDbEntity
  8
TRMODEL1
  6
CONTINUOUS
 62
     7
100
AcDbLine
 10
0.163378
 20
2.550225
 30
0.0
 11
0.174278
 21
2.55076
 31
0.0
  0
LINE
  5
19D
100
AcDbEntity
  8
TRMODEL1
  6
CONTINUOUS
 62
     7
100
AcDbLine
 10
0.174278
 20
2.55076
 30
0.0
 11
0.18474
 21
2.551305
 31
0.0
  0
LINE
  5
19E
100
AcDbEntity
  8
TRMODEL1
  6
CONTINUOUS
 62
     7
100
AcDbLine
 10
0.18474
 20
2.551305
 30
0.0
 11
0.194734
 21
2.551856
 31
0.0
  0
LINE
  5
19F
100
AcDbEntity
  8
TRMODEL1
  6
CONTINUOUS
 62
     7
100
AcDbLine
 10
0.194734
 20
2.551856
 30
0.0
 11
0.204234
 21
2.552406
 31
0.0
  0
LINE
  5
1A0
100
AcDbEntity
  8
TRMODEL1
  6
CONTINUOUS
 62
     7
100
AcDbLine
 10
0.204234
 20
2.552406
 30
0.0
 11
0.213251
 21
2.552952
 31
0.0
  0
LINE
  5
1A1
100
AcDbEntity
  8
TRMODEL1
  6
CONTINUOUS
 62
     7
100
AcDbLine
 10
0.213251
 20
2.552952
 30
0.0
 11
0.22196
 21
2.553502
 31
0.0
  0
LINE
  5
1A2
100
AcDbEntity
  8
TRMODEL1
  6
CONTINUOUS
 62
     7
100
AcDbLine
 10
0.22196
 20
2.553502
 30
0.0
 11
0.230345
 21
2.554052
 31
0.0
  0
LINE
  5
1A3
100
AcDbEntity
  8
TRMODEL1
  6
CONTINUOUS
 62
     7
100
AcDbLine
 10
0.230345
 20
2.554052
 30
0.0
 11
0.238358
 21
2.554597
 31
0.0
  0
LINE
  5
1A4
100
AcDbEntity
  8
TRMODEL1
  6
CONTINUOUS
 62
     7
100
AcDbLine
 10
0.238358
 20
2.554597
 30
0.0
 11
0.245958
 21
2.555131
 31
0.0
  0
LINE
  5
1A5
100
AcDbEntity
  8
TRMODEL1
  6
CONTINUOUS
 62
     7
100
AcDbLine
 10
0.245958
 20
2.555131
 30
0.0
 11
0.253102
 21
2.555648
 31
0.0
  0
LINE
  5
1A6
100
AcDbEntity
  8
TRMODEL1
  6
CONTINUOUS
 62
     7
100
AcDbLine
 10
0.253102
 20
2.555648
 30
0.0
 11
0.259757
 21
2.556143
 31
0.0
  0
LINE
  5
1A7
100
AcDbEntity
  8
TRMODEL1
  6
CONTINUOUS
 62
     7
100
AcDbLine
 10
0.259757
 20
2.556143
 30
0.0
 11
0.265891
 21
2.55661
 31
0.0
  0
LINE
  5
1A8
100
AcDbEntity
  8
TRMODEL1
  6
CONTINUOUS
 62
     7
100
AcDbLine
 10
0.265891
 20
2.55661
 30
0.0
 11
0.271479
 21
2.557046
 31
0.0
  0
LINE
  5
1A9
100
AcDbEntity
  8
TRMODEL1
  6
CONTINUOUS
 62
     7
100
AcDbLine
 10
0.271479
 20
2.557046
 30
0.0
 11
0.276502
 21
2.557445
 31
0.0
  0
LINE
  5
1AA
100
AcDbEntity
  8
TRMODEL1
  6
CONTINUOUS
 62
     7
100
AcDbLine
 10
0.276502
 20
2.557445
 30
0.0
 11
0.280945
 21
2.557804
 31
0.0
  0
LINE
  5
1AB
100
AcDbEntity
  8
TRMODEL1
  6
CONTINUOUS
 62
     7
100
AcDbLine
 10
0.280945
 20
2.557804
 30
0.0
 11
0.284794
 21
2.558119
 31
0.0
  0
LINE
  5
1AC
100
AcDbEntity
  8
TRMODEL1
  6
CONTINUOUS
 62
     7
100
AcDbLine
 10
0.284794
 20
2.558119
 30
0.0
 11
0.28804
 21
2.558389
 31
0.0
  0
LINE
  5
1AD
100
AcDbEntity
  8
TRMODEL1
  6
CONTINUOUS
 62
     7
100
AcDbLine
 10
0.28804
 20
2.558389
 30
0.0
 11
0.29068
 21
2.55861
 31
0.0
  0
LINE
  5
1AE
100
AcDbEntity
  8
TRMODEL1
  6
CONTINUOUS
 62
     7
100
AcDbLine
 10
0.29068
 20
2.55861
 30
0.0
 11
0.292715
 21
2.558782
 31
0.0
  0
LINE
  5
1AF
100
AcDbEntity
  8
TRMODEL1
  6
CONTINUOUS
 62
     7
100
AcDbLine
 10
0.292715
 20
2.558782
 30
0.0
 11
0.29415
 21
2.558904
 31
0.0
  0
LINE
  5
1B0
100
AcDbEntity
  8
TRMODEL1
  6
CONTINUOUS
 62
     7
100
AcDbLine
 10
0.29415
 20
2.558904
 30
0.0
 11
0.294998
 21
2.558976
 31
0.0
  0
LINE
  5
1B1
100
AcDbEntity
  8
TRMODEL1
  6
CONTINUOUS
 62
     7
100
AcDbLine
 10
0.294998
 20
2.558976
 30
0.0
 11
0.295276
 21
2.559
 31
0.0
  0
LINE
  5
1B2
100
AcDbEntity
  8
TRMODEL1
  6
CONTINUOUS
 62
     7
100
AcDbLine
 10
-0.165703
 20
0.0
 30
0.0
 11
-0.6889
 21
0.0
 31
0.0
  0
LINE
  5
1B3
100
AcDbEntity
  8
TRMODEL1
  6
CONTINUOUS
 62
     7
100
AcDbLine
 10
0.4921
 20
0.0
 30
0.0
 11
-0.165703
 21
0.0
 31
0.0
  0
LINE
  5
1B4
100
AcDbEntity
  8
TRMODEL1
  6
CONTINUOUS
 62
     7
100
AcDbLine
 10
-0.5708
 20
2.50782
 30
0.0
 11
-0.5708
 21
1.939711
 31
0.0
  0
LINE
  5
1B5
100
AcDbEntity
  8
TRMODEL1
  6
CONTINUOUS
 62
     7
100
AcDbLine
 10
0.4921
 20
2.50782
 30
0.0
 11
0.4921
 21
0.0
 31
0.0
  0
LINE
  5
1B6
100
AcDbEntity
  8
TRMODEL1
  6
CONTINUOUS
 62
     7
100
AcDbLine
 10
-0.705733
 20
2.239914
 30
0.0
 11
-0.705733
 21
2.164914
 31
0.0
  0
LINE
  5
1B7
100
AcDbEntity
  8
TRMODEL1
  6
CONTINUOUS
 62
     7
100
AcDbLine
 10
-0.705733
 20
2.164914
 30
0.0
 11
-0.705733
 21
2.089914
 31
0.0
  0
LINE
  5
1B8
100
AcDbEntity
  8
TRMODEL1
  6
CONTINUOUS
 62
     7
100
AcDbLine
 10
-0.668233
 20
1.98819
 30
0.0
 11
-0.668233
 21
2.34127
 31
0.0
  0
LINE
  5
1B9
100
AcDbEntity
  8
TRMODEL1
  6
CONTINUOUS
 62
     7
100
AcDbLine
 10
-0.668233
 20
2.34127
 30
0.0
 11
-0.668233
 21
2.386523
 31
0.0
  0
LINE
  5
1BA
100
AcDbEntity
  8
TRMODEL1
  6
CONTINUOUS
 62
     7
100
AcDbLine
 10
-0.5708
 20
1.98819
 30
0.0
 11
-0.668233
 21
1.98819
 31
0.0
  0
LINE
  5
1BB
100
AcDbEntity
  8
TRMODEL1
  6
CONTINUOUS
 62
     7
100
AcDbLine
 10
-0.668233
 20
2.386523
 30
0.0
 11
-0.5708
 21
2.386523
 31
0.0
  0
LINE
  5
1BC
100
AcDbEntity
  8
TRMODEL1
  6
CONTINUOUS
 62
     7
100
AcDbLine
 10
-0.507726
 20
1.939711
 30
0.0
 11
-0.5708
 21
1.939711
 31
0.0
  0
LINE
  5
1BD
100
AcDbEntity
  8
TRMODEL1
  6
CONTINUOUS
 62
     7
100
AcDbLine
 10
-0.6889
 20
1.936139
 30
0.0
 11
-0.6889
 21
1.99602
 31
0.0
  0
LINE
  5
1BE
100
AcDbEntity
  8
TRMODEL1
  6
CONTINUOUS
 62
     7
100
AcDbLine
 10
-0.6889
 20
1.936139
 30
0.0
 11
-0.507096
 21
1.936139
 31
0.0
  0
LINE
  5
1BF
100
AcDbEntity
  8
TRMODEL1
  6
CONTINUOUS
 62
     7
100
AcDbLine
 10
-0.507096
 20
1.936139
 30
0.0
 11
-0.507726
 21
1.939711
 31
0.0
  0
LINE
  5
1C0
100
AcDbEntity
  8
TRMODEL1
  6
CONTINUOUS
 62
     7
100
AcDbLine
 10
-0.165703
 20
0.0
 30
0.0
 11
-0.507096
 21
1.936139
 31
0.0
  0
LINE
  5
1C1
100
AcDbEntity
  8
TRMODEL1
  6
CONTINUOUS
 62
     7
100
AcDbLine
 10
-0.6889
 20
1.936139
 30
0.0
 11
-0.6889
 21
0.0
 31
0.0
  0
LINE
  5
1C2
100
AcDbEntity
  8
TRMODEL1
  6
CONTINUOUS
 62
     7
100
AcDbLine
 10
-0.826
 20
3.333016
 30
0.0
 11
-0.826
 21
2.933016
 31
0.0
  0
LINE
  5
1C3
100
AcDbEntity
  8
TRMODEL1
  6
CONTINUOUS
 62
     7
100
AcDbLine
 10
-0.826
 20
2.933016
 30
0.0
 11
-0.826
 21
2.823414
 31
0.0
  0
LINE
  5
1C4
100
AcDbEntity
  8
TRMODEL1
  6
CONTINUOUS
 62
     7
100
AcDbLine
 10
-0.826
 20
2.673016
 30
0.0
 11
-0.826
 21
2.618055
 31
0.0
  0
LINE
  5
1C5
100
AcDbEntity
  8
TRMODEL1
  6
CONTINUOUS
 62
     7
100
AcDbLine
 10
-0.876
 20
2.618055
 30
0.0
 11
-0.876
 21
2.933016
 31
0.0
  0
LINE
  5
1C6
100
AcDbEntity
  8
TRMODEL1
  6
CONTINUOUS
 62
     7
100
AcDbLine
 10
-0.876
 20
3.317251
 30
0.0
 11
-0.876
 21
2.933016
 31
0.0
  0
LINE
  5
1C7
100
AcDbEntity
  8
TRMODEL1
  6
CONTINUOUS
 62
     7
100
AcDbLine
 10
-0.974409
 20
4.232228
 30
0.0
 11
-0.974409
 21
3.656501
 31
0.0
  0
LINE
  5
1C8
100
AcDbEntity
  8
TRMODEL1
  6
CONTINUOUS
 62
     7
100
AcDbLine
 10
-1.190945
 20
3.484197
 30
0.0
 11
-1.190945
 21
3.858213
 31
0.0
  0
LINE
  5
1C9
100
AcDbEntity
  8
TRMODEL1
  6
CONTINUOUS
 62
     7
100
AcDbLine
 10
-1.190945
 20
3.858213
 30
0.0
 11
-1.190945
 21
4.232228
 31
0.0
  0
LINE
  5
1CA
100
AcDbEntity
  8
TRMODEL1
  6
CONTINUOUS
 62
     7
100
AcDbLine
 10
-0.974409
 20
3.656501
 30
0.0
 11
-0.974409
 21
3.457794
 31
0.0
  0
LINE
  5
1CB
100
AcDbEntity
  8
TRMODEL1
  6
CONTINUOUS
 62
     7
100
AcDbLine
 10
-0.974409
 20
3.457794
 30
0.0
 11
-0.876
 21
3.317251
 31
0.0
  0
LINE
  5
1CC
100
AcDbEntity
  8
TRMODEL1
  6
CONTINUOUS
 62
     7
100
AcDbLine
 10
-0.924409
 20
3.473559
 30
0.0
 11
-0.826
 21
3.333016
 31
0.0
  0
LINE
  5
1CD
100
AcDbEntity
  8
TRMODEL1
  6
CONTINUOUS
 62
     7
100
AcDbLine
 10
-0.924409
 20
3.858213
 30
0.0
 11
-0.924409
 21
3.473559
 31
0.0
  0
LINE
  5
1CE
100
AcDbEntity
  8
TRMODEL1
  6
CONTINUOUS
 62
     7
100
AcDbLine
 10
-0.924409
 20
4.173173
 30
0.0
 11
-0.924409
 21
3.858213
 31
0.0
  0
LINE
  5
1CF
100
AcDbEntity
  8
TRMODEL1
  6
CONTINUOUS
 62
     7
100
AcDbLine
 10
-0.826
 20
2.723016
 30
0.0
 11
-0.826
 21
2.673016
 31
0.0
  0
LINE
  5
1D0
100
AcDbEntity
  8
TRMODEL1
  6
CONTINUOUS
 62
     7
100
AcDbLine
 10
-0.826
 20
2.823414
 30
0.0
 11
-0.826
 21
2.723016
 31
0.0
  0
LINE
  5
1D1
100
AcDbEntity
  8
TRMODEL1
  6
CONTINUOUS
 62
     7
100
AcDbLine
 10
-0.164401
 20
2.673016
 30
0.0
 11
-0.826
 21
2.673016
 31
0.0
  0
LINE
  5
1D2
100
AcDbEntity
  8
TRMODEL1
  6
CONTINUOUS
 62
     7
100
AcDbLine
 10
0.0
 20
2.723016
 30
0.0
 11
-0.004586
 21
2.721129
 31
0.0
  0
LINE
  5
1D3
100
AcDbEntity
  8
TRMODEL1
  6
CONTINUOUS
 62
     7
100
AcDbLine
 10
-0.004586
 20
2.721129
 30
0.0
 11
-0.009252
 21
2.719211
 31
0.0
  0
LINE
  5
1D4
100
AcDbEntity
  8
TRMODEL1
  6
CONTINUOUS
 62
     7
100
AcDbLine
 10
-0.009252
 20
2.719211
 30
0.0
 11
-0.013989
 21
2.717267
 31
0.0
  0
LINE
  5
1D5
100
AcDbEntity
  8
TRMODEL1
  6
CONTINUOUS
 62
     7
100
AcDbLine
 10
-0.013989
 20
2.717267
 30
0.0
 11
-0.018786
 21
2.715305
 31
0.0
  0
LINE
  5
1D6
100
AcDbEntity
  8
TRMODEL1
  6
CONTINUOUS
 62
     7
100
AcDbLine
 10
-0.018786
 20
2.715305
 30
0.0
 11
-0.023634
 21
2.713329
 31
0.0
  0
LINE
  5
1D7
100
AcDbEntity
  8
TRMODEL1
  6
CONTINUOUS
 62
     7
100
AcDbLine
 10
-0.023634
 20
2.713329
 30
0.0
 11
-0.028523
 21
2.711346
 31
0.0
  0
LINE
  5
1D8
100
AcDbEntity
  8
TRMODEL1
  6
CONTINUOUS
 62
     7
100
AcDbLine
 10
-0.028523
 20
2.711346
 30
0.0
 11
-0.033443
 21
2.709363
 31
0.0
  0
LINE
  5
1D9
100
AcDbEntity
  8
TRMODEL1
  6
CONTINUOUS
 62
     7
100
AcDbLine
 10
-0.033443
 20
2.709363
 30
0.0
 11
-0.038383
 21
2.707387
 31
0.0
  0
LINE
  5
1DA
100
AcDbEntity
  8
TRMODEL1
  6
CONTINUOUS
 62
     7
100
AcDbLine
 10
-0.038383
 20
2.707387
 30
0.0
 11
-0.043334
 21
2.705423
 31
0.0
  0
LINE
  5
1DB
100
AcDbEntity
  8
TRMODEL1
  6
CONTINUOUS
 62
     7
100
AcDbLine
 10
-0.043334
 20
2.705423
 30
0.0
 11
-0.048286
 21
2.703479
 31
0.0
  0
LINE
  5
1DC
100
AcDbEntity
  8
TRMODEL1
  6
CONTINUOUS
 62
     7
100
AcDbLine
 10
-0.048286
 20
2.703479
 30
0.0
 11
-0.053228
 21
2.701561
 31
0.0
  0
LINE
  5
1DD
100
AcDbEntity
  8
TRMODEL1
  6
CONTINUOUS
 62
     7
100
AcDbLine
 10
-0.053228
 20
2.701561
 30
0.0
 11
-0.05815
 21
2.699674
 31
0.0
  0
LINE
  5
1DE
100
AcDbEntity
  8
TRMODEL1
  6
CONTINUOUS
 62
     7
100
AcDbLine
 10
-0.05815
 20
2.699674
 30
0.0
 11
-0.063044
 21
2.697826
 31
0.0
  0
LINE
  5
1DF
100
AcDbEntity
  8
TRMODEL1
  6
CONTINUOUS
 62
     7
100
AcDbLine
 10
-0.063044
 20
2.697826
 30
0.0
 11
-0.067897
 21
2.696023
 31
0.0
  0
LINE
  5
1E0
100
AcDbEntity
  8
TRMODEL1
  6
CONTINUOUS
 62
     7
100
AcDbLine
 10
-0.067897
 20
2.696023
 30
0.0
 11
-0.072702
 21
2.694269
 31
0.0
  0
LINE
  5
1E1
100
AcDbEntity
  8
TRMODEL1
  6
CONTINUOUS
 62
     7
100
AcDbLine
 10
-0.072702
 20
2.694269
 30
0.0
 11
-0.077448
 21
2.69257
 31
0.0
  0
LINE
  5
1E2
100
AcDbEntity
  8
TRMODEL1
  6
CONTINUOUS
 62
     7
100
AcDbLine
 10
-0.077448
 20
2.69257
 30
0.0
 11
-0.082127
 21
2.690932
 31
0.0
  0
LINE
  5
1E3
100
AcDbEntity
  8
TRMODEL1
  6
CONTINUOUS
 62
     7
100
AcDbLine
 10
-0.082127
 20
2.690932
 30
0.0
 11
-0.086728
 21
2.689359
 31
0.0
  0
LINE
  5
1E4
100
AcDbEntity
  8
TRMODEL1
  6
CONTINUOUS
 62
     7
100
AcDbLine
 10
-0.086728
 20
2.689359
 30
0.0
 11
-0.091244
 21
2.687855
 31
0.0
  0
LINE
  5
1E5
100
AcDbEntity
  8
TRMODEL1
  6
CONTINUOUS
 62
     7
100
AcDbLine
 10
-0.091244
 20
2.687855
 30
0.0
 11
-0.095738
 21
2.6864
 31
0.0
  0
LINE
  5
1E6
100
AcDbEntity
  8
TRMODEL1
  6
CONTINUOUS
 62
     7
100
AcDbLine
 10
-0.095738
 20
2.6864
 30
0.0
 11
-0.100312
 21
2.684967
 31
0.0
  0
LINE
  5
1E7
100
AcDbEntity
  8
TRMODEL1
  6
CONTINUOUS
 62
     7
100
AcDbLine
 10
-0.100312
 20
2.684967
 30
0.0
 11
-0.104952
 21
2.683565
 31
0.0
  0
LINE
  5
1E8
100
AcDbEntity
  8
TRMODEL1
  6
CONTINUOUS
 62
     7
100
AcDbLine
 10
-0.104952
 20
2.683565
 30
0.0
 11
-0.109644
 21
2.682206
 31
0.0
  0
LINE
  5
1E9
100
AcDbEntity
  8
TRMODEL1
  6
CONTINUOUS
 62
     7
100
AcDbLine
 10
-0.109644
 20
2.682206
 30
0.0
 11
-0.114371
 21
2.680901
 31
0.0
  0
LINE
  5
1EA
100
AcDbEntity
  8
TRMODEL1
  6
CONTINUOUS
 62
     7
100
AcDbLine
 10
-0.114371
 20
2.680901
 30
0.0
 11
-0.119118
 21
2.679661
 31
0.0
  0
LINE
  5
1EB
100
AcDbEntity
  8
TRMODEL1
  6
CONTINUOUS
 62
     7
100
AcDbLine
 10
-0.119118
 20
2.679661
 30
0.0
 11
-0.12387
 21
2.678497
 31
0.0
  0
LINE
  5
1EC
100
AcDbEntity
  8
TRMODEL1
  6
CONTINUOUS
 62
     7
100
AcDbLine
 10
-0.12387
 20
2.678497
 30
0.0
 11
-0.128611
 21
2.67742
 31
0.0
  0
LINE
  5
1ED
100
AcDbEntity
  8
TRMODEL1
  6
CONTINUOUS
 62
     7
100
AcDbLine
 10
-0.128611
 20
2.67742
 30
0.0
 11
-0.133325
 21
2.67644
 31
0.0
  0
LINE
  5
1EE
100
AcDbEntity
  8
TRMODEL1
  6
CONTINUOUS
 62
     7
100
AcDbLine
 10
-0.133325
 20
2.67644
 30
0.0
 11
-0.137999
 21
2.675567
 31
0.0
  0
LINE
  5
1EF
100
AcDbEntity
  8
TRMODEL1
  6
CONTINUOUS
 62
     7
100
AcDbLine
 10
-0.137999
 20
2.675567
 30
0.0
 11
-0.142616
 21
2.67481
 31
0.0
  0
LINE
  5
1F0
100
AcDbEntity
  8
TRMODEL1
  6
CONTINUOUS
 62
     7
100
AcDbLine
 10
-0.142616
 20
2.67481
 30
0.0
 11
-0.147164
 21
2.674177
 31
0.0
  0
LINE
  5
1F1
100
AcDbEntity
  8
TRMODEL1
  6
CONTINUOUS
 62
     7
100
AcDbLine
 10
-0.147164
 20
2.674177
 30
0.0
 11
-0.151628
 21
2.673675
 31
0.0
  0
LINE
  5
1F2
100
AcDbEntity
  8
TRMODEL1
  6
CONTINUOUS
 62
     7
100
AcDbLine
 10
-0.151628
 20
2.673675
 30
0.0
 11
-0.155997
 21
2.673311
 31
0.0
  0
LINE
  5
1F3
100
AcDbEntity
  8
TRMODEL1
  6
CONTINUOUS
 62
     7
100
AcDbLine
 10
-0.155997
 20
2.673311
 30
0.0
 11
-0.160258
 21
2.67309
 31
0.0
  0
LINE
  5
1F4
100
AcDbEntity
  8
TRMODEL1
  6
CONTINUOUS
 62
     7
100
AcDbLine
 10
-0.160258
 20
2.67309
 30
0.0
 11
-0.164401
 21
2.673016
 31
0.0
  0
LINE
  5
1F5
100
AcDbEntity
  8
TRMODEL1
  6
CONTINUOUS
 62
     7
100
AcDbLine
 10
0.0
 20
3.193016
 30
0.0
 11
-0.826
 21
3.193016
 31
0.0
  0
LINE
  5
1F6
100
AcDbEntity
  8
TRMODEL1
  6
CONTINUOUS
 62
     7
100
AcDbLine
 10
0.245276
 20
3.193016
 30
0.0
 11
0.0
 21
3.193016
 31
0.0
  0
LINE
  5
1F7
100
AcDbEntity
  8
TRMODEL1
  6
CONTINUOUS
 62
     7
100
AcDbLine
 10
-1.026
 20
2.808016
 30
0.0
 11
-1.026
 21
2.933016
 31
0.0
  0
LINE
  5
1F8
100
AcDbEntity
  8
TRMODEL1
  6
CONTINUOUS
 62
     7
100
AcDbLine
 10
-1.026
 20
2.933016
 30
0.0
 11
-1.026
 21
3.058016
 31
0.0
  0
LINE
  5
1F9
100
AcDbEntity
  8
TRMODEL1
  6
CONTINUOUS
 62
     7
100
AcDbLine
 10
-0.926
 20
2.733016
 30
0.0
 11
-0.926
 21
2.933016
 31
0.0
  0
LINE
  5
1FA
100
AcDbEntity
  8
TRMODEL1
  6
CONTINUOUS
 62
     7
100
AcDbLine
 10
-0.926
 20
2.933016
 30
0.0
 11
-0.926
 21
3.133016
 31
0.0
  0
LINE
  5
1FB
100
AcDbEntity
  8
TRMODEL1
  6
CONTINUOUS
 62
     7
100
AcDbLine
 10
-0.45756
 20
-0.17224
 30
0.0
 11
-0.45756
 21
-0.5512
 31
0.0
  0
LINE
  5
1FC
100
AcDbEntity
  8
TRMODEL1
  6
CONTINUOUS
 62
     7
100
AcDbLine
 10
-0.45756
 20
-0.1378
 30
0.0
 11
-0.45756
 21
-0.17224
 31
0.0
  0
LINE
  5
1FD
100
AcDbEntity
  8
TRMODEL1
  6
CONTINUOUS
 62
     7
100
AcDbLine
 10
0.45756
 20
-0.5512
 30
0.0
 11
0.180839
 21
-0.5512
 31
0.0
  0
LINE
  5
1FE
100
AcDbEntity
  8
TRMODEL1
  6
CONTINUOUS
 62
     7
100
AcDbLine
 10
0.180839
 20
-0.5512
 30
0.0
 11
-0.180839
 21
-0.5512
 31
0.0
  0
LINE
  5
1FF
100
AcDbEntity
  8
TRMODEL1
  6
CONTINUOUS
 62
     7
100
AcDbLine
 10
-0.180839
 20
-0.5512
 30
0.0
 11
-0.45756
 21
-0.5512
 31
0.0
  0
LINE
  5
200
100
AcDbEntity
  8
TRMODEL1
  6
CONTINUOUS
 62
     7
100
AcDbLine
 10
0.45756
 20
-0.17224
 30
0.0
 11
0.45756
 21
-0.1378
 31
0.0
  0
LINE
  5
201
100
AcDbEntity
  8
TRMODEL1
  6
CONTINUOUS
 62
     7
100
AcDbLine
 10
0.45756
 20
-0.5512
 30
0.0
 11
0.45756
 21
-0.17224
 31
0.0
  0
LINE
  5
202
100
AcDbEntity
  8
TRMODEL1
  6
CONTINUOUS
 62
     7
100
AcDbLine
 10
0.45756
 20
-0.17224
 30
0.0
 11
0.180839
 21
-0.17224
 31
0.0
  0
LINE
  5
203
100
AcDbEntity
  8
TRMODEL1
  6
CONTINUOUS
 62
     7
100
AcDbLine
 10
0.180839
 20
-0.17224
 30
0.0
 11
0.180839
 21
-0.5512
 31
0.0
  0
LINE
  5
204
100
AcDbEntity
  8
TRMODEL1
  6
CONTINUOUS
 62
     7
100
AcDbLine
 10
0.45756
 20
-0.1378
 30
0.0
 11
0.0
 21
-0.1378
 31
0.0
  0
LINE
  5
205
100
AcDbEntity
  8
TRMODEL1
  6
CONTINUOUS
 62
     7
100
AcDbLine
 10
0.0
 20
-0.1378
 30
0.0
 11
0.00507
 21
-0.137828
 31
0.0
  0
LINE
  5
206
100
AcDbEntity
  8
TRMODEL1
  6
CONTINUOUS
 62
     7
100
AcDbLine
 10
0.00507
 20
-0.137828
 30
0.0
 11
0.010135
 21
-0.137912
 31
0.0
  0
LINE
  5
207
100
AcDbEntity
  8
TRMODEL1
  6
CONTINUOUS
 62
     7
100
AcDbLine
 10
0.010135
 20
-0.137912
 30
0.0
 11
0.015197
 21
-0.138052
 31
0.0
  0
LINE
  5
208
100
AcDbEntity
  8
TRMODEL1
  6
CONTINUOUS
 62
     7
100
AcDbLine
 10
0.015197
 20
-0.138052
 30
0.0
 11
0.020256
 21
-0.138248
 31
0.0
  0
LINE
  5
209
100
AcDbEntity
  8
TRMODEL1
  6
CONTINUOUS
 62
     7
100
AcDbLine
 10
0.020256
 20
-0.138248
 30
0.0
 11
0.025313
 21
-0.1385
 31
0.0
  0
LINE
  5
20A
100
AcDbEntity
  8
TRMODEL1
  6
CONTINUOUS
 62
     7
100
AcDbLine
 10
0.025313
 20
-0.1385
 30
0.0
 11
0.03037
 21
-0.138807
 31
0.0
  0
LINE
  5
20B
100
AcDbEntity
  8
TRMODEL1
  6
CONTINUOUS
 62
     7
100
AcDbLine
 10
0.03037
 20
-0.138807
 30
0.0
 11
0.035427
 21
-0.139169
 31
0.0
  0
LINE
  5
20C
100
AcDbEntity
  8
TRMODEL1
  6
CONTINUOUS
 62
     7
100
AcDbLine
 10
0.035427
 20
-0.139169
 30
0.0
 11
0.040485
 21
-0.139588
 31
0.0
  0
LINE
  5
20D
100
AcDbEntity
  8
TRMODEL1
  6
CONTINUOUS
 62
     7
100
AcDbLine
 10
0.040485
 20
-0.139588
 30
0.0
 11
0.045545
 21
-0.140061
 31
0.0
  0
LINE
  5
20E
100
AcDbEntity
  8
TRMODEL1
  6
CONTINUOUS
 62
     7
100
AcDbLine
 10
0.045545
 20
-0.140061
 30
0.0
 11
0.050608
 21
-0.14059
 31
0.0
  0
LINE
  5
20F
100
AcDbEntity
  8
TRMODEL1
  6
CONTINUOUS
 62
     7
100
AcDbLine
 10
0.050608
 20
-0.14059
 30
0.0
 11
0.055675
 21
-0.141175
 31
0.0
  0
LINE
  5
210
100
AcDbEntity
  8
TRMODEL1
  6
CONTINUOUS
 62
     7
100
AcDbLine
 10
0.055675
 20
-0.141175
 30
0.0
 11
0.060746
 21
-0.141815
 31
0.0
  0
LINE
  5
211
100
AcDbEntity
  8
TRMODEL1
  6
CONTINUOUS
 62
     7
100
AcDbLine
 10
0.060746
 20
-0.141815
 30
0.0
 11
0.065823
 21
-0.14251
 31
0.0
  0
LINE
  5
212
100
AcDbEntity
  8
TRMODEL1
  6
CONTINUOUS
 62
     7
100
AcDbLine
 10
0.065823
 20
-0.14251
 30
0.0
 11
0.070907
 21
-0.143262
 31
0.0
  0
LINE
  5
213
100
AcDbEntity
  8
TRMODEL1
  6
CONTINUOUS
 62
     7
100
AcDbLine
 10
0.070907
 20
-0.143262
 30
0.0
 11
0.075998
 21
-0.144068
 31
0.0
  0
LINE
  5
214
100
AcDbEntity
  8
TRMODEL1
  6
CONTINUOUS
 62
     7
100
AcDbLine
 10
0.075998
 20
-0.144068
 30
0.0
 11
0.081098
 21
-0.144931
 31
0.0
  0
LINE
  5
215
100
AcDbEntity
  8
TRMODEL1
  6
CONTINUOUS
 62
     7
100
AcDbLine
 10
0.081098
 20
-0.144931
 30
0.0
 11
0.086207
 21
-0.14585
 31
0.0
  0
LINE
  5
216
100
AcDbEntity
  8
TRMODEL1
  6
CONTINUOUS
 62
     7
100
AcDbLine
 10
0.086207
 20
-0.14585
 30
0.0
 11
0.091326
 21
-0.146825
 31
0.0
  0
LINE
  5
217
100
AcDbEntity
  8
TRMODEL1
  6
CONTINUOUS
 62
     7
100
AcDbLine
 10
0.091326
 20
-0.146825
 30
0.0
 11
0.096456
 21
-0.147856
 31
0.0
  0
LINE
  5
218
100
AcDbEntity
  8
TRMODEL1
  6
CONTINUOUS
 62
     7
100
AcDbLine
 10
0.096456
 20
-0.147856
 30
0.0
 11
0.101598
 21
-0.148944
 31
0.0
  0
LINE
  5
219
100
AcDbEntity
  8
TRMODEL1
  6
CONTINUOUS
 62
     7
100
AcDbLine
 10
0.101598
 20
-0.148944
 30
0.0
 11
0.106754
 21
-0.150088
 31
0.0
  0
LINE
  5
21A
100
AcDbEntity
  8
TRMODEL1
  6
CONTINUOUS
 62
     7
100
AcDbLine
 10
0.106754
 20
-0.150088
 30
0.0
 11
0.111923
 21
-0.15129
 31
0.0
  0
LINE
  5
21B
100
AcDbEntity
  8
TRMODEL1
  6
CONTINUOUS
 62
     7
100
AcDbLine
 10
0.111923
 20
-0.15129
 30
0.0
 11
0.117108
 21
-0.152549
 31
0.0
  0
LINE
  5
21C
100
AcDbEntity
  8
TRMODEL1
  6
CONTINUOUS
 62
     7
100
AcDbLine
 10
0.117108
 20
-0.152549
 30
0.0
 11
0.122308
 21
-0.153865
 31
0.0
  0
LINE
  5
21D
100
AcDbEntity
  8
TRMODEL1
  6
CONTINUOUS
 62
     7
100
AcDbLine
 10
0.122308
 20
-0.153865
 30
0.0
 11
0.127525
 21
-0.155239
 31
0.0
  0
LINE
  5
21E
100
AcDbEntity
  8
TRMODEL1
  6
CONTINUOUS
 62
     7
100
AcDbLine
 10
0.127525
 20
-0.155239
 30
0.0
 11
0.13276
 21
-0.156671
 31
0.0
  0
LINE
  5
21F
100
AcDbEntity
  8
TRMODEL1
  6
CONTINUOUS
 62
     7
100
AcDbLine
 10
0.13276
 20
-0.156671
 30
0.0
 11
0.138014
 21
-0.158161
 31
0.0
  0
LINE
  5
220
100
AcDbEntity
  8
TRMODEL1
  6
CONTINUOUS
 62
     7
100
AcDbLine
 10
0.138014
 20
-0.158161
 30
0.0
 11
0.143287
 21
-0.159711
 31
0.0
  0
LINE
  5
221
100
AcDbEntity
  8
TRMODEL1
  6
CONTINUOUS
 62
     7
100
AcDbLine
 10
0.143287
 20
-0.159711
 30
0.0
 11
0.148581
 21
-0.16132
 31
0.0
  0
LINE
  5
222
100
AcDbEntity
  8
TRMODEL1
  6
CONTINUOUS
 62
     7
100
AcDbLine
 10
0.148581
 20
-0.16132
 30
0.0
 11
0.153897
 21
-0.162988
 31
0.0
  0
LINE
  5
223
100
AcDbEntity
  8
TRMODEL1
  6
CONTINUOUS
 62
     7
100
AcDbLine
 10
0.153897
 20
-0.162988
 30
0.0
 11
0.159236
 21
-0.164716
 31
0.0
  0
LINE
  5
224
100
AcDbEntity
  8
TRMODEL1
  6
CONTINUOUS
 62
     7
100
AcDbLine
 10
0.159236
 20
-0.164716
 30
0.0
 11
0.164598
 21
-0.166505
 31
0.0
  0
LINE
  5
225
100
AcDbEntity
  8
TRMODEL1
  6
CONTINUOUS
 62
     7
100
AcDbLine
 10
0.164598
 20
-0.166505
 30
0.0
 11
0.169986
 21
-0.168355
 31
0.0
  0
LINE
  5
226
100
AcDbEntity
  8
TRMODEL1
  6
CONTINUOUS
 62
     7
100
AcDbLine
 10
0.169986
 20
-0.168355
 30
0.0
 11
0.175399
 21
-0.170267
 31
0.0
  0
LINE
  5
227
100
AcDbEntity
  8
TRMODEL1
  6
CONTINUOUS
 62
     7
100
AcDbLine
 10
0.175399
 20
-0.170267
 30
0.0
 11
0.180839
 21
-0.17224
 31
0.0
  0
LINE
  5
228
100
AcDbEntity
  8
TRMODEL1
  6
CONTINUOUS
 62
     7
100
AcDbLine
 10
-0.180839
 20
-0.17224
 30
0.0
 11
-0.175399
 21
-0.170267
 31
0.0
  0
LINE
  5
229
100
AcDbEntity
  8
TRMODEL1
  6
CONTINUOUS
 62
     7
100
AcDbLine
 10
-0.175399
 20
-0.170267
 30
0.0
 11
-0.169986
 21
-0.168355
 31
0.0
  0
LINE
  5
22A
100
AcDbEntity
  8
TRMODEL1
  6
CONTINUOUS
 62
     7
100
AcDbLine
 10
-0.169986
 20
-0.168355
 30
0.0
 11
-0.164598
 21
-0.166505
 31
0.0
  0
LINE
  5
22B
100
AcDbEntity
  8
TRMODEL1
  6
CONTINUOUS
 62
     7
100
AcDbLine
 10
-0.164598
 20
-0.166505
 30
0.0
 11
-0.159236
 21
-0.164716
 31
0.0
  0
LINE
  5
22C
100
AcDbEntity
  8
TRMODEL1
  6
CONTINUOUS
 62
     7
100
AcDbLine
 10
-0.159236
 20
-0.164716
 30
0.0
 11
-0.153897
 21
-0.162988
 31
0.0
  0
LINE
  5
22D
100
AcDbEntity
  8
TRMODEL1
  6
CONTINUOUS
 62
     7
100
AcDbLine
 10
-0.153897
 20
-0.162988
 30
0.0
 11
-0.148581
 21
-0.16132
 31
0.0
  0
LINE
  5
22E
100
AcDbEntity
  8
TRMODEL1
  6
CONTINUOUS
 62
     7
100
AcDbLine
 10
-0.148581
 20
-0.16132
 30
0.0
 11
-0.143287
 21
-0.159711
 31
0.0
  0
LINE
  5
22F
100
AcDbEntity
  8
TRMODEL1
  6
CONTINUOUS
 62
     7
100
AcDbLine
 10
-0.143287
 20
-0.159711
 30
0.0
 11
-0.138014
 21
-0.158161
 31
0.0
  0
LINE
  5
230
100
AcDbEntity
  8
TRMODEL1
  6
CONTINUOUS
 62
     7
100
AcDbLine
 10
-0.138014
 20
-0.158161
 30
0.0
 11
-0.13276
 21
-0.156671
 31
0.0
  0
LINE
  5
231
100
AcDbEntity
  8
TRMODEL1
  6
CONTINUOUS
 62
     7
100
AcDbLine
 10
-0.13276
 20
-0.156671
 30
0.0
 11
-0.127525
 21
-0.155239
 31
0.0
  0
LINE
  5
232
100
AcDbEntity
  8
TRMODEL1
  6
CONTINUOUS
 62
     7
100
AcDbLine
 10
-0.127525
 20
-0.155239
 30
0.0
 11
-0.122308
 21
-0.153865
 31
0.0
  0
LINE
  5
233
100
AcDbEntity
  8
TRMODEL1
  6
CONTINUOUS
 62
     7
100
AcDbLine
 10
-0.122308
 20
-0.153865
 30
0.0
 11
-0.117108
 21
-0.152549
 31
0.0
  0
LINE
  5
234
100
AcDbEntity
  8
TRMODEL1
  6
CONTINUOUS
 62
     7
100
AcDbLine
 10
-0.117108
 20
-0.152549
 30
0.0
 11
-0.111923
 21
-0.15129
 31
0.0
  0
LINE
  5
235
100
AcDbEntity
  8
TRMODEL1
  6
CONTINUOUS
 62
     7
100
AcDbLine
 10
-0.111923
 20
-0.15129
 30
0.0
 11
-0.106754
 21
-0.150088
 31
0.0
  0
LINE
  5
236
100
AcDbEntity
  8
TRMODEL1
  6
CONTINUOUS
 62
     7
100
AcDbLine
 10
-0.106754
 20
-0.150088
 30
0.0
 11
-0.101598
 21
-0.148944
 31
0.0
  0
LINE
  5
237
100
AcDbEntity
  8
TRMODEL1
  6
CONTINUOUS
 62
     7
100
AcDbLine
 10
-0.101598
 20
-0.148944
 30
0.0
 11
-0.096456
 21
-0.147856
 31
0.0
  0
LINE
  5
238
100
AcDbEntity
  8
TRMODEL1
  6
CONTINUOUS
 62
     7
100
AcDbLine
 10
-0.096456
 20
-0.147856
 30
0.0
 11
-0.091326
 21
-0.146825
 31
0.0
  0
LINE
  5
239
100
AcDbEntity
  8
TRMODEL1
  6
CONTINUOUS
 62
     7
100
AcDbLine
 10
-0.091326
 20
-0.146825
 30
0.0
 11
-0.086207
 21
-0.14585
 31
0.0
  0
LINE
  5
23A
100
AcDbEntity
  8
TRMODEL1
  6
CONTINUOUS
 62
     7
100
AcDbLine
 10
-0.086207
 20
-0.14585
 30
0.0
 11
-0.081098
 21
-0.144931
 31
0.0
  0
LINE
  5
23B
100
AcDbEntity
  8
TRMODEL1
  6
CONTINUOUS
 62
     7
100
AcDbLine
 10
-0.081098
 20
-0.144931
 30
0.0
 11
-0.075998
 21
-0.144068
 31
0.0
  0
LINE
  5
23C
100
AcDbEntity
  8
TRMODEL1
  6
CONTINUOUS
 62
     7
100
AcDbLine
 10
-0.075998
 20
-0.144068
 30
0.0
 11
-0.070907
 21
-0.143262
 31
0.0
  0
LINE
  5
23D
100
AcDbEntity
  8
TRMODEL1
  6
CONTINUOUS
 62
     7
100
AcDbLine
 10
-0.070907
 20
-0.143262
 30
0.0
 11
-0.065823
 21
-0.14251
 31
0.0
  0
LINE
  5
23E
100
AcDbEntity
  8
TRMODEL1
  6
CONTINUOUS
 62
     7
100
AcDbLine
 10
-0.065823
 20
-0.14251
 30
0.0
 11
-0.060746
 21
-0.141815
 31
0.0
  0
LINE
  5
23F
100
AcDbEntity
  8
TRMODEL1
  6
CONTINUOUS
 62
     7
100
AcDbLine
 10
-0.060746
 20
-0.141815
 30
0.0
 11
-0.055675
 21
-0.141175
 31
0.0
  0
LINE
  5
240
100
AcDbEntity
  8
TRMODEL1
  6
CONTINUOUS
 62
     7
100
AcDbLine
 10
-0.055675
 20
-0.141175
 30
0.0
 11
-0.050608
 21
-0.14059
 31
0.0
  0
LINE
  5
241
100
AcDbEntity
  8
TRMODEL1
  6
CONTINUOUS
 62
     7
100
AcDbLine
 10
-0.050608
 20
-0.14059
 30
0.0
 11
-0.045545
 21
-0.140061
 31
0.0
  0
LINE
  5
242
100
AcDbEntity
  8
TRMODEL1
  6
CONTINUOUS
 62
     7
100
AcDbLine
 10
-0.045545
 20
-0.140061
 30
0.0
 11
-0.040485
 21
-0.139588
 31
0.0
  0
LINE
  5
243
100
AcDbEntity
  8
TRMODEL1
  6
CONTINUOUS
 62
     7
100
AcDbLine
 10
-0.040485
 20
-0.139588
 30
0.0
 11
-0.035427
 21
-0.139169
 31
0.0
  0
LINE
  5
244
100
AcDbEntity
  8
TRMODEL1
  6
CONTINUOUS
 62
     7
100
AcDbLine
 10
-0.035427
 20
-0.139169
 30
0.0
 11
-0.03037
 21
-0.138807
 31
0.0
  0
LINE
  5
245
100
AcDbEntity
  8
TRMODEL1
  6
CONTINUOUS
 62
     7
100
AcDbLine
 10
-0.03037
 20
-0.138807
 30
0.0
 11
-0.025313
 21
-0.1385
 31
0.0
  0
LINE
  5
246
100
AcDbEntity
  8
TRMODEL1
  6
CONTINUOUS
 62
     7
100
AcDbLine
 10
-0.025313
 20
-0.1385
 30
0.0
 11
-0.020256
 21
-0.138248
 31
0.0
  0
LINE
  5
247
100
AcDbEntity
  8
TRMODEL1
  6
CONTINUOUS
 62
     7
100
AcDbLine
 10
-0.020256
 20
-0.138248
 30
0.0
 11
-0.015197
 21
-0.138052
 31
0.0
  0
LINE
  5
248
100
AcDbEntity
  8
TRMODEL1
  6
CONTINUOUS
 62
     7
100
AcDbLine
 10
-0.015197
 20
-0.138052
 30
0.0
 11
-0.010135
 21
-0.137912
 31
0.0
  0
LINE
  5
249
100
AcDbEntity
  8
TRMODEL1
  6
CONTINUOUS
 62
     7
100
AcDbLine
 10
-0.010135
 20
-0.137912
 30
0.0
 11
-0.00507
 21
-0.137828
 31
0.0
  0
LINE
  5
24A
100
AcDbEntity
  8
TRMODEL1
  6
CONTINUOUS
 62
     7
100
AcDbLine
 10
-0.00507
 20
-0.137828
 30
0.0
 11
0.0
 21
-0.1378
 31
0.0
  0
LINE
  5
24B
100
AcDbEntity
  8
TRMODEL1
  6
CONTINUOUS
 62
     7
100
AcDbLine
 10
-0.180839
 20
-0.5512
 30
0.0
 11
-0.180839
 21
-0.17224
 31
0.0
  0
LINE
  5
24C
100
AcDbEntity
  8
TRMODEL1
  6
CONTINUOUS
 62
     7
100
AcDbLine
 10
0.0
 20
-0.1378
 30
0.0
 11
-0.45756
 21
-0.1378
 31
0.0
  0
LINE
  5
24D
100
AcDbEntity
  8
TRMODEL1
  6
CONTINUOUS
 62
     7
100
AcDbLine
 10
-0.180839
 20
-0.17224
 30
0.0
 11
-0.45756
 21
-0.17224
 31
0.0
  0
LINE
  5
24E
100
AcDbEntity
  8
TRMODEL1
  6
CONTINUOUS
 62
     7
100
AcDbLine
 10
0.4921
 20
2.559
 30
0.0
 11
0.295276
 21
2.559
 31
0.0
  0
LINE
  5
24F
100
AcDbEntity
  8
TRMODEL1
  6
CONTINUOUS
 62
     7
100
AcDbLine
 10
-0.295276
 20
2.559
 30
0.0
 11
-0.5708
 21
2.559
 31
0.0
  0
LINE
  5
250
100
AcDbEntity
  8
TRMODEL1
  6
CONTINUOUS
 62
     7
100
AcDbLine
 10
-0.668233
 20
2.239914
 30
0.0
 11
-0.705733
 21
2.239914
 31
0.0
  0
LINE
  5
251
100
AcDbEntity
  8
TRMODEL1
  6
CONTINUOUS
 62
     7
100
AcDbLine
 10
-0.705733
 20
2.089914
 30
0.0
 11
-0.668233
 21
2.089914
 31
0.0
  0
LINE
  5
252
100
AcDbEntity
  8
TRMODEL1
  6
CONTINUOUS
 62
     7
100
AcDbLine
 10
-0.668233
 20
1.99602
 30
0.0
 11
-0.6889
 21
1.99602
 31
0.0
  0
LINE
  5
253
100
AcDbEntity
  8
TRMODEL1
  6
CONTINUOUS
 62
     7
100
AcDbLine
 10
-1.190945
 20
3.484197
 30
0.0
 11
-0.974409
 21
3.484197
 31
0.0
  0
LINE
  5
254
100
AcDbEntity
  8
TRMODEL1
  6
CONTINUOUS
 62
     7
100
AcDbLine
 10
-0.974409
 20
4.232228
 30
0.0
 11
-1.190945
 21
4.232228
 31
0.0
  0
LINE
  5
255
100
AcDbEntity
  8
TRMODEL1
  6
CONTINUOUS
 62
     7
100
AcDbLine
 10
-0.924409
 20
4.173173
 30
0.0
 11
-0.974409
 21
4.173173
 31
0.0
  0
LINE
  5
256
100
AcDbEntity
  8
TRMODEL1
  6
CONTINUOUS
 62
     7
100
AcDbLine
 10
-0.876
 20
2.618055
 30
0.0
 11
-0.826
 21
2.618055
 31
0.0
  0
ARC
  5
257
100
AcDbEntity
  8
TRMODEL1
  6
CONTINUOUS
 62
     7
100
AcDbCircle
 10
0.245276
 20
3.143016
 30
0.0
 40
0.05
100
AcDbArc
 50
0.0
 51
90.0
  0
LINE
  5
258
100
AcDbEntity
  8
TRMODEL1
  6
CONTINUOUS
 62
     7
100
AcDbLine
 10
0.295276
 20
2.559
 30
0.0
 11
0.295276
 21
3.143016
 31
0.0
  0
LINE
  5
259
100
AcDbEntity
  8
TRMODEL1
  6
CONTINUOUS
 62
     7
100
AcDbLine
 10
-0.295276
 20
2.673016
 30
0.0
 11
-0.295276
 21
2.559
 31
0.0
  0
LINE
  5
25A
100
AcDbEntity
  8
TRMODEL1
  6
CONTINUOUS
 62
     7
100
AcDbLine
 10
-1.026
 20
2.808016
 30
0.0
 11
-0.926
 21
2.808016
 31
0.0
  0
LINE
  5
25B
100
AcDbEntity
  8
TRMODEL1
  6
CONTINUOUS
 62
     7
100
AcDbLine
 10
-0.926
 20
3.058016
 30
0.0
 11
-1.026
 21
3.058016
 31
0.0
  0
LINE
  5
25C
100
AcDbEntity
  8
TRMODEL1
  6
CONTINUOUS
 62
     7
100
AcDbLine
 10
-0.926
 20
2.733016
 30
0.0
 11
-0.876
 21
2.733016
 31
0.0
  0
LINE
  5
25D
100
AcDbEntity
  8
TRMODEL1
  6
CONTINUOUS
 62
     7
100
AcDbLine
 10
-0.876
 20
3.133016
 30
0.0
 11
-0.926
 21
3.133016
 31
0.0
  0
LINE
  5
25E
100
AcDbEntity
  8
TRMODEL1
  6
CONTINUOUS
 62
     7
100
AcDbLine
 10
0.45756
 20
-0.1378
 30
0.0
 11
0.45756
 21
0.0
 31
0.0
  0
LINE
  5
25F
100
AcDbEntity
  8
TRMODEL1
  6
CONTINUOUS
 62
     7
100
AcDbLine
 10
-0.45756
 20
0.0
 30
0.0
 11
-0.45756
 21
-0.1378
 31
0.0
  0
LINE
  5
260
100
AcDbEntity
  8
TRDETAIL3
  6
CENTER2
 62
     4
100
AcDbLine
 10
0.0
 20
-0.59254
 30
0.0
 11
0.0
 21
0.01378
 31
0.0
  0
LINE
  5
261
100
AcDbEntity
  8
TRDETAIL3
  6
CENTER2
 62
     4
100
AcDbLine
 10
0.0
 20
2.495598
 30
0.0
 11
0.0
 21
3.256417
 31
0.0
  0
ENDSEC
  0
SECTION
  2
OBJECTS
  0
DICTIONARY
  5
19
100
AcDbDictionary
  3
ACAD_GROUP
350
1A
  3
ACAD_MLINESTYLE
350
1B
  0
DICTIONARY
  5
1A
102
{ACAD_REACTORS
330
19
102
}
100
AcDbDictionary
  0
DICTIONARY
  5
1B
102
{ACAD_REACTORS
330
19
102
}
100
AcDbDictionary
  3
STANDARD
350
1C
  0
MLINESTYLE
  5
1C
102
{ACAD_REACTORS
330
1B
102
}
100
AcDbMlineStyle
  2
STANDARD
 70
     0
  3

 62
     0
 51
90.0
 52
90.0
 71
     2
 49
0.5
 62
   256
  6
BYLAYER
 49
-0.5
 62
   256
  6
BYLAYER
  0
ENDSEC
  0
EOF
