999
DXF file: C:\Users\sesa63760\Dev\_Creo\CAD\MCADID0004557_3D-CAD\drw0001_7.dxf
999
Pro/ENGINEER 2019471 by Parametric Technology Corporation
  0
SECTION
  2
HEADER
  9
$ACADVER
  1
AC1024
  9
$DWGCODEPAGE
  3
ANSI_1252
  9
$EXTMAX
 10
39.1419990053
 20
55.3579700218
 30
0.0
  9
$EXTMIN
 10
0.0
 20
0.0
 30
0.0
  9
$LIMMIN
 10
0.0
 20
0.0
  9
$LIMMAX
 10
39.1419990053
 20
55.3579700218
  9
$VIEWCTR
 10
19.5709995027
 20
27.6789850109
  9
$VIEWSIZE
 40
55.3579700218
  9
$CLAYER
  8
0
  9
$LTSCALE
 40
3.6085195273
  9
$CELTYPE
  6
BYLAYER
  9
$DIMSCALE
 40
1.0
  9
$DIMASZ
 40
0.4659761786
  9
$DIMEXO
 40
1.0
  9
$DIMDLI
 40
2.4931589462
  9
$DIMEXE
 40
1.0
  9
$DIMCEN
 40
0.5904850136
  9
$DIMLFAC
 40
1.0
  9
$DIMBLK
  1
_FILLED
  9
$DIMALT
 70
0
  9
$DIMALTF
 40
0.0393700787
  9
$DIMTXT
 40
0.6523666501
  9
$DIMTOL
 70
1
  9
$DIMLIM
 70
0
  9
$DIMTFAC
 40
1.0
  9
$DIMTP
 40
0.01
  9
$DIMTM
 40
0.01
  9
$DIMGAP
 40
0.625
  9
$DIMDSEP
 70
46
  9
$AUNITS
 70
0
  9
$PDMODE
 70
3
  9
$PDSIZE
 40
0.3125
  9
$HANDSEED
  5
2A0
  9
$TILEMODE
 70
1
  9
$MEASUREMENT
 70
1
  9
$INSUNITS
 70
4
  0
ENDSEC
  0
SECTION
  2
CLASSES
  0
CLASS
  1
ACDBDICTIONARYWDFLT
  2
AcDbDictionaryWithDefault
  3
AutoCAD 2000
 90
0
 91
1
280
0
281
0
  0
CLASS
  1
ACDBPLACEHOLDER
  2
AcDbPlaceHolder
  3
AutoCAD 2000
 90
0
 91
1
280
0
281
0
  0
CLASS
  1
LAYOUT
  2
AcDbLayout
  3
AutoCAD 2000
 90
0
 91
0
280
0
281
0
  0
ENDSEC
  0
SECTION
  2
TABLES
  0
TABLE
  2
VPORT
  5
8
100
AcDbSymbolTable
 70
2
  0
VPORT
  5
1F4
100
AcDbSymbolTableRecord
100
AcDbViewportTableRecord
  2
*ACTIVE
 70
0
 10
0.0
 20
0.0
 11
1.0
 21
1.0
 12
19.5709995027
 22
27.6789850109
 13
0.0
 23
0.0
 14
1.0
 24
1.0
 15
0.0
 25
0.0
 16
0.0
 26
0.0
 36
1.0
 17
0.0
 27
0.0
 37
0.0
 40
55.3579700218
 41
0.7070707071
 42
50.0
 43
0.0
 44
0.0
 50
0.0
 51
0.0
 71
0
 72
100
 73
1
 74
1
 75
0
 76
0
 77
0
 78
0
  0
ENDTAB
  0
TABLE
  2
LTYPE
  5
5
100
AcDbSymbolTable
 70
6
  0
LTYPE
  5
14
100
AcDbSymbolTableRecord
100
AcDbLinetypeTableRecord
  2
BYBLOCK
 70
0
  3

 72
65
 73
0
 40
0.0
  0
LTYPE
  5
15
100
AcDbSymbolTableRecord
100
AcDbLinetypeTableRecord
  2
BYLAYER
 70
0
  3

 72
65
 73
0
 40
0.0
  0
LTYPE
  5
16
100
AcDbSymbolTableRecord
100
AcDbLinetypeTableRecord
  2
CONTINUOUS
 70
64
  3
Solid line
 72
65
 73
0
 40
0.0
  0
LTYPE
  5
1F5
100
AcDbSymbolTableRecord
100
AcDbLinetypeTableRecord
  2
CENTER
 70
64
  3
____ _ ____ _ ____ _ ____ _ ____ _ ____ _ ____
 72
65
 73
4
 40
0.6
 49
0.375
 74
0
 49
-0.075
 74
0
 49
0.075
 74
0
 49
-0.075
 74
0
  0
LTYPE
  5
1F6
100
AcDbSymbolTableRecord
100
AcDbLinetypeTableRecord
  2
HIDDEN
 70
64
  3
- - - - - - - - - - - - - - - - - - - -
 72
65
 73
2
 40
0.2
 49
0.1
 74
0
 49
-0.1
 74
0
  0
LTYPE
  5
1F7
100
AcDbSymbolTableRecord
100
AcDbLinetypeTableRecord
  2
PHANTOM
 70
64
  3
_____ _ _ _____ _ _ _____ _ _ _____
 72
65
 73
6
 40
0.8
 49
0.45
 74
0
 49
-0.05
 74
0
 49
0.1
 74
0
 49
-0.05
 74
0
 49
0.1
 74
0
 49
-0.05
 74
0
  0
LTYPE
  5
1F8
100
AcDbSymbolTableRecord
100
AcDbLinetypeTableRecord
  2
DOT
 70
64
  3
. . . . . . . . . . . . . . . . . . . .
 72
65
 73
2
 40
0.2
 49
0.1
 74
0
 49
-0.1
 74
0
  0
LTYPE
  5
1F9
100
AcDbSymbolTableRecord
100
AcDbLinetypeTableRecord
  2
DASHED
 70
64
  3
- - - - - - - - - - - - - - - - - - - -
 72
65
 73
2
 40
0.2
 49
0.1
 74
0
 49
-0.1
 74
0
  0
ENDTAB
  0
TABLE
  2
LAYER
  5
2
100
AcDbSymbolTable
 70
36
  0
LAYER
  5
10
100
AcDbSymbolTableRecord
100
AcDbLayerTableRecord
  2
0
 70
0
 62
7
  6
CONTINUOUS
370
-3
390
F
  0
LAYER
  5
1FA
100
AcDbSymbolTableRecord
100
AcDbLayerTableRecord
  2
DEFAULT_1
 70
0
 62
7
  6
CENTER
370
-3
390
F
  0
LAYER
  5
1FB
100
AcDbSymbolTableRecord
100
AcDbLayerTableRecord
  2
DEFAULT_2
 70
0
 62
7
  6
HIDDEN
370
-3
390
F
  0
LAYER
  5
1FC
100
AcDbSymbolTableRecord
100
AcDbLayerTableRecord
  2
DEFAULT_3
 70
0
 62
7
  6
PHANTOM
370
-3
390
F
  0
LAYER
  5
1FD
100
AcDbSymbolTableRecord
100
AcDbLayerTableRecord
  2
00_COMPONENTS
 70
0
 62
7
  6
CONTINUOUS
370
-3
390
F
  0
LAYER
  5
1FE
100
AcDbSymbolTableRecord
100
AcDbLayerTableRecord
  2
01_1_DEFAULT_DATUMS
 70
0
 62
7
  6
CONTINUOUS
370
-3
390
F
  0
LAYER
  5
1FF
100
AcDbSymbolTableRecord
100
AcDbLayerTableRecord
  2
01_PLANES
 70
0
 62
7
  6
CONTINUOUS
370
-3
390
F
  0
LAYER
  5
200
100
AcDbSymbolTableRecord
100
AcDbLayerTableRecord
  2
02_COORD_SYS
 70
0
 62
7
  6
CONTINUOUS
370
-3
390
F
  0
LAYER
  5
201
100
AcDbSymbolTableRecord
100
AcDbLayerTableRecord
  2
03_AXES
 70
0
 62
7
  6
CONTINUOUS
370
-3
390
F
  0
LAYER
  5
202
100
AcDbSymbolTableRecord
100
AcDbLayerTableRecord
  2
04_POINTS
 70
0
 62
7
  6
CONTINUOUS
370
-3
390
F
  0
LAYER
  5
203
100
AcDbSymbolTableRecord
100
AcDbLayerTableRecord
  2
05_CURVES
 70
0
 62
7
  6
CONTINUOUS
370
-3
390
F
  0
LAYER
  5
204
100
AcDbSymbolTableRecord
100
AcDbLayerTableRecord
  2
06_SURFS
 70
0
 62
7
  6
CONTINUOUS
370
-3
390
F
  0
LAYER
  5
205
100
AcDbSymbolTableRecord
100
AcDbLayerTableRecord
  2
07_COSMETICS
 70
0
 62
7
  6
CONTINUOUS
370
-3
390
F
  0
LAYER
  5
206
100
AcDbSymbolTableRecord
100
AcDbLayerTableRecord
  2
10_NOTES
 70
0
 62
7
  6
CONTINUOUS
370
-3
390
F
  0
LAYER
  5
207
100
AcDbSymbolTableRecord
100
AcDbLayerTableRecord
  2
11_NOTES_PUB
 70
0
 62
7
  6
CONTINUOUS
370
-3
390
F
  0
LAYER
  5
208
100
AcDbSymbolTableRecord
100
AcDbLayerTableRecord
  2
13_REF_GTOL
 70
0
 62
7
  6
CONTINUOUS
370
-3
390
F
  0
LAYER
  5
209
100
AcDbSymbolTableRecord
100
AcDbLayerTableRecord
  2
16_MISC
 70
0
 62
7
  6
CONTINUOUS
370
-3
390
F
  0
LAYER
  5
20A
100
AcDbSymbolTableRecord
100
AcDbLayerTableRecord
  2
17_NO_PRINT
 70
0
 62
7
  6
CONTINUOUS
370
-3
390
F
  0
LAYER
  5
20B
100
AcDbSymbolTableRecord
100
AcDbLayerTableRecord
  2
18_DATUM_CAMS_JOINTS
 70
0
 62
7
  6
CONTINUOUS
370
-3
390
F
  0
LAYER
  5
20C
100
AcDbSymbolTableRecord
100
AcDbLayerTableRecord
  2
19_DATUM_FUNCTIONAL
 70
0
 62
7
  6
CONTINUOUS
370
-3
390
F
  0
LAYER
  5
20D
100
AcDbSymbolTableRecord
100
AcDbLayerTableRecord
  2
20_DATUM_KINEMATIC_SCHEME
 70
0
 62
7
  6
CONTINUOUS
370
-3
390
F
  0
ENDTAB
  0
TABLE
  2
STYLE
  5
3
100
AcDbSymbolTable
 70
1
  0
STYLE
  5
11
100
AcDbSymbolTableRecord
100
AcDbTextStyleTableRecord
  2
STANDARD
 70
0
 40
0.0
 41
1.0
 50
0.0
 71
0
 42
0.2
  3
ARIAL.TTF
  4

  0
STYLE
  5
20E
100
AcDbSymbolTableRecord
100
AcDbTextStyleTableRecord
  2
TEXTSTYLE_1
 70
0
 40
0.0
 41
0.8
 50
0.0
 71
0
 42
0.2
  3
gdt
  4

  0
ENDTAB
  0
TABLE
  2
VIEW
  5
6
100
AcDbSymbolTable
 70
0
  0
ENDTAB
  0
TABLE
  2
UCS
  5
7
100
AcDbSymbolTable
 70
0
  0
ENDTAB
  0
TABLE
  2
APPID
  5
9
100
AcDbSymbolTable
 70
1
  0
APPID
  5
20F
100
AcDbSymbolTableRecord
100
AcDbRegAppTableRecord
  2
ACAD
 70
0
  0
ENDTAB
  0
TABLE
  2
BLOCK_RECORD
  5
1
100
AcDbSymbolTable
 70
0
  0
BLOCK_RECORD
  5
210
100
AcDbSymbolTableRecord
100
AcDbBlockTableRecord
  2
*Model_Space
  0
BLOCK_RECORD
  5
211
100
AcDbSymbolTableRecord
100
AcDbBlockTableRecord
  2
*Paper_Space
  0
BLOCK_RECORD
  5
212
100
AcDbSymbolTableRecord
100
AcDbBlockTableRecord
  2
_FILLED
  0
ENDTAB
  0
TABLE
  2
DIMSTYLE
  5
A
100
AcDbSymbolTable
 70
1
100
AcDbDimStyleTable
 71
0
  0
DIMSTYLE
105
213
100
AcDbSymbolTableRecord
100
AcDbDimStyleTableRecord
  2
STANDARD
 70
0
  3

  4

 40
1.0
 41
0.4659761786
 42
1.0
 43
0.38
 44
1.0
 45
0.0
 46
0.0
 47
0.01
 48
0.01
140
0.6523666501
141
0.09
142
0.0
143
25.4
144
1.0
145
0.0
146
1.0
147
0.625
 71
1
 72
0
 73
0
 74
0
 75
0
 76
0
 77
1
 78
8
 79
2
170
0
171
1
172
0
173
0
174
0
175
0
176
0
177
0
178
0
270
2
179
2
271
2
272
2
273
2
274
2
275
0
280
0
281
0
282
0
283
1
284
8
285
0
286
0
287
3
288
0
340
11
278
46
341
212
342
212
343
212
344
212
  0
ENDTAB
  0
ENDSEC
  0
SECTION
  2
BLOCKS
  0
BLOCK
  5
20
100
AcDbEntity
  8
0
100
AcDbBlockBegin
  2
*Model_Space
 70
0
 10
0.0
 20
0.0
 30
0.0
  3
*Model_Space
  1

  0
ENDBLK
  5
21
100
AcDbEntity
  8
0
100
AcDbBlockEnd
  0
BLOCK
  5
1C
100
AcDbEntity
  8
0
100
AcDbBlockBegin
  2
*Paper_Space
 70
0
 10
0.0
 20
0.0
 30
0.0
  3
*Paper_Space
  1

  0
ENDBLK
  5
1D
100
AcDbEntity
  8
0
100
AcDbBlockEnd
  0
BLOCK
  5
214
100
AcDbEntity
  8
0
100
AcDbBlockBegin
  2
_FILLED
 70
64
 10
0.0
 20
0.0
  3
_FILLED
  1

  0
SOLID
  5
215
100
AcDbEntity
  8
0
  6
BYBLOCK
 62
0
100
AcDbTrace
 10
0.0
 20
0.0
 11
-1.0
 21
0.25
 12
-1.0
 22
-0.25
 13
-1.0
 23
-0.25
  0
ENDBLK
  5
216
100
AcDbEntity
  8
0
  6
BYBLOCK
 62
0
100
AcDbBlockEnd
  0
ENDSEC
  0
SECTION
  2
ENTITIES
  0
LINE
  5
217
100
AcDbEntity
  8
0
100
AcDbLine
 62
7
  6
BYLAYER
 10
6.0421994834
 20
24.1626893923
 11
5.5509541526
 21
29.0191045251
  0
LWPOLYLINE
  5
218
100
AcDbEntity
  8
0
100
AcDbPolyline
 62
7
  6
BYLAYER
 90
18
 70
0
 10
5.6691521469
 20
25.8854178608
 10
5.7939703268
 20
30.7674524079
 10
7.5918274601
 20
35.3066191852
 10
10.8416269246
 20
38.9483146771
 10
15.1451145361
 20
41.2481964706
 10
19.9756954627
 20
41.9264073018
 10
24.7431221982
 20
40.9018359874
 10
28.8660978933
 20
38.3012861712
 10
31.8428670629
 20
34.4434187963
 10
33.3123819614
 20
29.7986224715
 10
33.0964280817
 20
24.9311837855
 10
31.2201432643
 20
20.432972604
 10
27.9105375321
 20
16.8528194282
 10
23.5699557535
 20
14.6286885667
 10
18.7275898758
 20
14.0337128985
 10
13.9749021094
 20
15.1419718
 10
9.89304601
 20
17.8192797096
 10
6.9817830375
 20
21.7394373694
  0
LWPOLYLINE
  5
219
100
AcDbEntity
  8
0
100
AcDbPolyline
 62
7
  6
BYLAYER
 90
3
 70
0
 10
5.598337759
 20
26.4238054162
 10
5.9134705573
 20
31.2995253188
 10
7.8901847593
 20
35.7693982881
  0
LWPOLYLINE
  5
21A
100
AcDbEntity
  8
0
100
AcDbPolyline
 62
7
  6
BYLAYER
 90
26
 70
0
 10
5.5509094222
 20
29.0196233846
 10
6.7628923013
 20
33.7507850797
 10
9.5327949116
 20
37.7776731706
 10
13.5237325461
 20
40.6043683237
 10
18.2476431756
 20
41.8814418774
 10
23.12477625
 20
41.4491204787
 10
27.5548026318
 20
39.3578152254
 10
30.9908900393
 20
35.8627861064
 10
33.0076853873
 20
31.3934055776
 10
33.3544629745
 20
26.5004107023
 10
31.9865678684
 20
21.7879203287
 10
29.0714184023
 20
17.8387286846
 10
24.9682127619
 20
15.1420442654
 10
20.1837945085
 20
14.0326689028
 10
15.3100873754
 20
14.6491843933
 10
10.9508139872
 20
16.9164005264
 10
7.6465750951
 20
20.5543198504
 10
5.8076032667
 20
25.1125853139
 10
5.6625876602
 20
30.026198302
 10
7.2299470265
 20
34.6856660606
 10
10.3153304779
 20
38.5129263596
 10
14.5359368284
 20
41.0333218345
 10
19.3681626897
 20
41.9345061113
 10
24.2127296624
 20
41.1051894305
 10
28.4692411644
 20
38.6486521283
 10
31.6103447374
 20
34.8702126705
  0
LWPOLYLINE
  5
21B
100
AcDbEntity
  8
0
100
AcDbPolyline
 62
7
  6
BYLAYER
 90
26
 70
0
 10
5.7773791701
 20
30.6862715573
 10
7.5665932491
 20
35.2661090894
 10
10.8318844424
 20
38.9408351988
 10
15.1676456826
 20
41.2554318473
 10
20.0356839538
 20
41.9239027352
 10
24.8326157301
 20
40.8647601343
 10
28.9647884992
 20
38.2104646985
 10
31.9215701184
 20
34.2905682741
 10
33.3382735644
 20
29.5905983392
 10
33.0408744304
 20
24.6918773955
 10
31.0671999815
 20
20.1996636029
 10
27.662008581
 20
16.6684657143
 10
23.2465742221
 20
14.5336645979
 10
18.3665637137
 20
14.057751497
 10
13.6242729289
 20
15.2979780656
 10
9.6040087079
 20
18.0999582266
 10
6.8002180263
 20
22.1172579236
 10
5.5569307653
 20
26.854449112
 10
6.0258306132
 20
31.7282913559
 10
8.1479983423
 20
36.1394766494
 10
11.6614555667
 20
39.5462010182
 10
16.1335594862
 20
41.5306000762
 10
21.014304993
 20
41.8500266609
 10
25.704276567
 20
40.4668557855
 10
29.628524672
 20
37.552401918
 10
32.3069635067
 20
33.4652787717
  0
LWPOLYLINE
  5
21C
100
AcDbEntity
  8
0
100
AcDbPolyline
 62
7
  6
BYLAYER
 90
10
 70
0
 10
6.7582683009
 20
33.740489821
 10
9.5136940428
 20
37.7581055214
 10
13.482242554
 20
40.5846260245
 10
18.1820376159
 20
41.8754687439
 10
23.0408335658
 20
41.4716262228
 10
27.4658015836
 20
39.4205127918
 10
30.9159069286
 20
35.970980005
 10
32.9686337586
 20
31.5434986262
 10
33.3719278833
 20
26.6786367876
 10
32.0751539482
 20
21.9710402104
  0
LWPOLYLINE
  5
21D
100
AcDbEntity
  8
0
100
AcDbPolyline
 62
7
  6
BYLAYER
 90
18
 70
0
 10
8.440307917
 20
36.5295053008
 10
12.0618170188
 20
39.805861924
 10
16.5887912893
 20
41.6342024991
 10
21.4671299164
 20
41.7921735551
 10
26.100408759
 20
40.2617523539
 10
29.9228129736
 20
37.2312890164
 10
32.4685579079
 20
33.0722883208
 10
33.4285975243
 20
28.2931553593
 10
32.6876767229
 20
23.4770021498
 10
30.3374521161
 20
19.2096784881
 10
26.6636639665
 20
16.0093853653
 10
22.1122633224
 20
14.2660836915
 10
17.2372483378
 20
14.1938634356
 10
12.6332453261
 20
15.803386512
 10
8.8629905418
 20
18.8997847746
 10
6.3880140844
 20
23.1058245192
 10
5.5119173961
 20
27.9081137079
 10
6.3431214229
 20
32.7197857706
  0
LWPOLYLINE
  5
21E
100
AcDbEntity
  8
0
100
AcDbPolyline
 62
7
  6
BYLAYER
 90
11
 70
0
 10
8.6987968383
 20
36.8531074053
 10
12.4066439607
 20
40.0147786546
 10
16.9741095721
 20
41.7094363852
 10
21.8462865021
 20
41.7315135842
 10
26.4307835187
 20
40.0772053739
 10
30.1683359614
 20
36.9464405148
 10
32.6018479367
 20
32.7196890754
 10
33.4326617441
 20
27.9121687419
 10
32.5578936549
 20
23.1110168397
 10
30.083179814
 20
18.9032480408
 10
26.30991681
 20
15.8039619172
  0
LWPOLYLINE
  5
21F
100
AcDbEntity
  8
0
100
AcDbPolyline
 62
7
  6
BYLAYER
 90
5
 70
0
 10
8.7813580492
 20
36.9520696682
 10
12.5295389436
 20
40.0862510977
 10
17.1296759183
 20
41.7372820522
 10
22.0185576064
 20
41.7012537138
 10
26.5965089962
 20
39.9808999183
  0
LWPOLYLINE
  5
220
100
AcDbEntity
  8
0
100
AcDbPolyline
 62
7
  6
BYLAYER
 90
63
 70
0
 10
9.8444511815
 20
38.0845759889
 10
13.8659612532
 20
40.7603522701
 10
18.5517931817
 20
41.9050557738
 10
23.3409505433
 20
41.3886525161
 10
27.6643390206
 20
39.2791165381
 10
31.0119644291
 20
35.8318522762
 10
32.9922516495
 20
31.4545935706
 10
33.3710812078
 20
26.6619139897
 10
32.099008153
 20
22.0192652142
 10
29.3203041545
 20
18.0792597322
 10
25.3609862608
 20
15.3165559027
 10
20.6918575094
 20
14.0671354969
 10
15.8717430592
 20
14.4859670209
 10
11.4802908882
 20
16.5274518602
 10
8.048352833
 20
19.9493565681
 10
5.9922320884
 20
24.3414491432
 10
5.5628416716
 20
29.1741472463
 10
6.8141066054
 20
33.8636518888
 10
9.5958281178
 20
37.8419140184
 10
13.5720383248
 20
40.6273619666
 10
18.2610503832
 20
41.8826766088
 10
23.0955124325
 20
41.4568104979
 10
27.4903774988
 20
39.4028161109
 10
30.9156204928
 20
35.9708852035
 10
32.9595448422
 20
31.577602449
 10
33.3789979456
 20
26.7541920373
 10
32.1277515097
 20
22.081845197
 10
29.3609855521
 20
18.120697086
 10
25.4145516163
 20
15.3422349355
 10
20.7646097018
 20
14.0742687057
 10
15.9685810849
 20
14.4610518786
 10
11.5949406444
 20
16.4488828596
 10
8.1555602616
 20
19.7996930258
 10
6.0544731082
 20
24.119485426
 10
5.5424821346
 20
28.9028817354
 10
6.687889932
 20
33.5836135348
 10
9.3612664058
 20
37.6010677529
 10
13.2476574333
 20
40.4707829953
 10
17.8848058583
 20
41.8446720211
 10
22.7171070082
 20
41.5528261453
 10
27.1625318174
 20
39.6260092619
 10
30.6837316926
 20
36.2930856021
 10
32.8533838673
 20
31.9544372585
 10
33.4073088438
 20
27.133128362
 10
32.2768729336
 20
22.4125373987
 10
29.5979155776
 20
18.363791181
 10
25.6947940388
 20
15.4774283548
 10
21.0399439952
 20
14.1021510099
 10
16.1972950653
 20
14.4032849193
 10
11.7519434467
 20
16.3424832599
 10
8.2401064186
 20
19.6829673181
 10
6.0830425565
 20
24.0194028801
 10
5.5370969671
 20
28.8273897399
 10
6.6632422349
 20
33.5284467465
 10
9.3212982717
 20
37.5596425071
 10
13.1877281775
 20
40.4412564431
 10
17.7964362219
 20
41.8346639458
 10
22.5981304855
 20
41.5810316746
 10
27.0258045995
 20
39.7153866591
 10
30.5589124793
 20
36.4589660558
 10
32.7802275542
 20
32.192789069
 10
33.4216266215
 20
27.4197509593
 10
32.4004368353
 20
22.7064252245
  0
LWPOLYLINE
  5
221
100
AcDbEntity
  8
0
100
AcDbPolyline
 62
7
  6
BYLAYER
 90
64
 70
0
 10
10.2833787335
 20
38.4746364712
 10
14.3876961121
 20
40.9761709115
 10
19.098811422
 20
41.9213755875
 10
23.8469677924
 20
41.2318235716
 10
28.0709402874
 20
38.9621329599
 10
31.2848924642
 20
35.4140952967
 10
33.0957517881
 20
30.9839203847
 10
33.3204275773
 20
26.2108860635
 10
31.9073202488
 20
21.6481033874
 10
29.0577467707
 20
17.8255611809
 10
25.0803964473
 20
15.1993863804
 10
20.4642906551
 20
14.0495698325
 10
15.7335531813
 20
14.5327696214
 10
11.4404033471
 20
16.5558499801
 10
8.0863597284
 20
19.9107932387
 10
6.0373146442
 20
24.1787961457
 10
5.5498299507
 20
28.8856709621
 10
6.6425969979
 20
33.4800659582
 10
9.2176365834
 20
37.4352476192
 10
12.9447577244
 20
40.3157064557
 10
17.4195165327
 20
41.7746686456
 10
22.1166676056
 20
41.6828330212
 10
26.5066187704
 20
40.023153585
 10
30.1045740117
 20
37.0221031065
 10
32.4890300979
 20
32.9955904818
 10
33.425748709
 20
28.418396856
 10
32.7838241531
 20
23.7971770151
 10
30.6741966005
 20
19.6435901982
 10
27.3091943468
 20
16.4316570792
 10
23.0890368918
 20
14.4913343885
 10
18.4733258
 20
14.0579126151
 10
13.9712554608
 20
15.1447485364
 10
10.0822628794
 20
17.6537511133
 10
7.2162614931
 20
21.2933495892
 10
5.708564197
 20
25.6781597984
 10
5.7135278473
 20
30.3252860201
 10
7.2529802599
 20
34.7140834681
 10
10.1520113117
 20
38.3639841077
 10
14.0968221189
 20
40.852912812
 10
18.6515109834
 20
41.9069330796
 10
23.3011670224
 20
41.3946381914
 10
27.529728037
 20
39.3693073627
 10
30.8503353268
 20
36.0559081297
 10
32.8875299233
 20
31.8184314719
 10
33.4037731474
 20
27.1429774657
 10
32.3303351425
 20
22.5522221403
 10
29.7914129434
 20
18.577493957
 10
26.0612473846
 20
15.6737473292
 10
21.5759287346
 20
14.1768485658
 10
16.8375033542
 20
14.2712557981
 10
12.4010943121
 20
15.9407256884
 10
8.7763844444
 20
19.0123629809
 10
6.3861938034
 20
23.1187129235
 10
5.5190151646
 20
27.8015297913
 10
6.2694541687
 20
32.5039639729
 10
8.5709526673
 20
36.6856323801
 10
12.1412667612
 20
39.8525128223
 10
16.583678034
 20
41.6263972082
 10
21.3618512212
 20
41.8040762291
 10
25.9272527948
 20
40.3459022864
 10
29.7337047862
 20
37.4357969941
 10
32.3299599841
 20
33.3946190008
 10
33.4103668673
 20
28.7167750167
 10
32.8310302949
 20
23.941317513
  0
LINE
  5
222
100
AcDbEntity
  8
0
100
AcDbLine
 62
7
  6
BYLAYER
 10
11.2877438273
 20
39.2849429943
 11
15.6985259499
 21
41.4154010373
  0
LWPOLYLINE
  5
223
100
AcDbEntity
  8
0
100
AcDbPolyline
 62
7
  6
BYLAYER
 90
26
 70
0
 10
11.9915865453
 20
39.7618928717
 10
16.5420530127
 20
41.6245398508
 10
21.4549948826
 20
41.7940707921
 10
26.1211863342
 20
40.2504255888
 10
29.9623684729
 20
37.1861198411
 10
32.5034251069
 20
32.9819113903
 10
33.43088614
 20
28.159054137
 10
32.6312618409
 20
23.3145989042
 10
30.2046622485
 20
19.0474710106
 10
26.4520541289
 20
15.8845853929
 10
21.8378348318
 20
14.2159464664
 10
16.9323541438
 20
14.2467071847
 10
12.3414214176
 20
15.9720399316
 10
8.6314279212
 20
19.1778072497
 10
6.2591886967
 20
23.4673252752
 10
5.5158511078
 20
28.3109877799
 10
6.4915176567
 20
33.1118224809
 10
9.064663024
 20
37.279035757
 10
12.9175249333
 20
40.3005685457
 10
17.5754695395
 20
41.8057939805
 10
22.465472235
 20
41.610790827
 10
26.9865684592
 20
39.7406993801
 10
30.5837456932
 20
36.4264836368
 10
32.8163883226
 20
32.076276524
 10
33.412061028
 20
27.2245821228
 10
32.2993852183
 20
22.4663720868
  0
LWPOLYLINE
  5
224
100
AcDbEntity
  8
0
100
AcDbPolyline
 62
7
  6
BYLAYER
 90
26
 70
0
 10
21.6987222387
 20
14.1933379816
 10
16.8134291114
 20
14.2699167599
 10
12.2523305228
 20
16.025918771
 10
8.5750129158
 20
19.2476880705
 10
6.2336409648
 20
23.5413151498
 10
5.5170513145
 20
28.3804982853
 10
6.5145511314
 20
33.1709972619
 10
9.104729748
 20
37.3239404063
 10
12.9702434485
 20
40.3282517768
 10
17.6365722457
 20
41.8135323724
 10
22.5300909677
 20
41.5957823121
 10
27.0483975506
 20
39.7003692258
 10
30.6343883427
 20
36.3593672347
 10
32.844999495
 20
31.983477086
 10
33.4061977028
 20
27.1118450158
 10
32.2475104061
 20
22.3456601133
 10
29.5109923185
 20
18.2736438718
 10
25.5337429165
 20
15.3992828037
 10
20.8064734135
 20
14.0785567856
 10
15.9131063276
 20
14.4758083694
 10
11.4587844215
 20
16.543158052
 10
7.9951402548
 20
20.0260259007
 10
5.951906743
 20
24.4942234277
 10
5.5834484723
 20
29.3947794776
 10
6.9366091953
 20
34.1202212997
 10
9.844565791
 20
38.0844564397
  0
LWPOLYLINE
  5
225
100
AcDbEntity
  8
0
100
AcDbPolyline
 62
7
  6
BYLAYER
 90
44
 70
0
 10
19.5224637926
 20
14.014698457
 10
14.7110359043
 20
14.8513600212
 10
10.4832002118
 20
17.2930255718
 10
7.3553121646
 20
21.0399521763
 10
5.7087692408
 20
25.6332471033
 10
5.7434999211
 20
30.5110822584
 10
7.4535201115
 20
35.0776931467
 10
10.6284688715
 20
38.7765427381
 10
14.8798057853
 20
41.1578091694
 10
19.6894454686
 20
41.9330336871
 10
24.4731206963
 20
41.0083463042
 10
28.6489831974
 20
38.4950773331
 10
31.7072524533
 20
34.6979763305
 10
33.2734382474
 20
30.0790510959
 10
33.154643742
 20
25.2017166594
 10
31.3639868503
 20
20.6619119617
 10
28.1191103073
 20
17.0149539032
 10
23.8157206816
 20
14.7075904939
 10
18.9795070994
 20
14.0232930269
 10
14.2021278501
 20
15.0473051153
 10
10.0689705869
 20
17.6557863662
 10
7.0874651921
 20
21.5304589695
 10
5.6246541764
 20
26.19708945
 10
5.8616474613
 20
31.0832974202
 10
7.77062951
 20
35.5888133582
 10
11.1181227945
 20
39.1595626824
 10
15.493558857
 20
41.3558418639
 10
20.35951066
 20
41.9064741747
 10
25.1175385364
 20
40.7423816964
 10
29.1816403413
 20
38.0054561101
 10
32.0503991417
 20
34.0315603879
 10
33.368961364
 20
29.3096317643
 10
32.9732333445
 20
24.4217752003
 10
30.9108562351
 20
19.9714184242
 10
27.4355292765
 20
16.5084789148
 10
22.9757263143
 20
14.4613780639
 10
18.0819565633
 20
14.0840031926
 10
13.358942797
 20
15.424149163
 10
9.391003084
 20
18.3173088175
 10
6.6698160593
 20
22.4066046667
 10
5.5333730601
 20
27.1865722015
 10
6.1237883449
 20
32.0653651759
 10
8.3690214587
 20
36.4379813974
 10
11.9915871133
 20
39.7618932323
  0
LWPOLYLINE
  5
226
100
AcDbEntity
  8
0
100
AcDbPolyline
 62
7
  6
BYLAYER
 90
26
 70
0
 10
17.432598765
 20
14.1639451521
 10
12.7708262341
 20
15.7272991461
 10
8.9409785199
 20
18.8091825057
 10
6.4173442434
 20
23.026699929
 10
5.511868869
 20
27.8562717821
 10
6.3354179861
 20
32.6992155529
 10
8.7846888692
 20
36.9561167962
 10
12.5554673742
 20
40.1008544622
 10
17.1806205533
 20
41.7454590082
 10
22.0880209763
 20
41.6877163184
 10
26.671285225
 20
39.9358417753
 10
30.3646101643
 20
36.7072139096
 10
32.7125555733
 20
32.4013355161
 10
33.4262878893
 20
27.5503993154
 10
32.419201794
 20
22.7531853921
 10
29.8169557942
 20
18.6008447286
 10
25.9414167307
 20
15.6041572226
 10
21.2706153944
 20
14.1309435768
 10
16.3796861992
 20
14.3611975511
 10
11.87009985
 20
16.2653463172
 10
8.2958110657
 20
19.6081912551
 10
6.0953198607
 20
23.9780186596
 10
5.537851333
 20
28.8373333114
 10
6.6902668606
 20
33.5892732823
 10
9.4095426539
 20
37.6512067745
 10
13.3609452159
 20
40.5261029459
  0
LINE
  5
227
100
AcDbEntity
  8
0
100
AcDbLine
 62
7
  6
BYLAYER
 10
16.1346945792
 20
14.4184702306
 11
11.6761932729
 21
16.3930418065
  0
LINE
  5
228
100
AcDbEntity
  8
0
100
AcDbLine
 62
7
  6
BYLAYER
 10
11.968124716
 20
16.2018151098
 11
8.3557424719
 21
19.529919154
  0
LINE
  5
229
100
AcDbEntity
  8
0
100
AcDbLine
 62
7
  6
BYLAYER
 10
11.6808086171
 20
16.3901512693
 11
8.1677532648
 21
19.782043242
  0
LWPOLYLINE
  5
22A
100
AcDbEntity
  8
0
100
AcDbPolyline
 62
7
  6
BYLAYER
 90
18
 70
0
 10
11.4662575838
 20
16.5382541046
 10
8.0169025945
 20
19.9953903551
 10
5.969603156
 20
24.4276460239
 10
5.5735149768
 20
29.292443735
 10
6.8757744604
 20
33.9949518023
 10
9.715896275
 20
37.9608300277
 10
13.745572641
 20
40.7067019187
 10
18.4721022598
 20
41.8990549247
 10
23.3186994545
 20
41.3942866565
 10
27.6957364488
 20
39.2553256736
 10
31.0716725665
 20
35.7422571048
 10
33.0352278513
 20
31.2814500934
 10
33.3455052458
 20
26.4157831501
 10
31.9628082061
 20
21.7386518539
 10
29.0542826961
 20
17.8216398936
 10
24.9741664155
 20
15.144154145
 10
20.2204076221
 20
14.0345126744
 10
15.3738759097
 20
14.6296752852
  0
LWPOLYLINE
  5
22B
100
AcDbEntity
  8
0
100
AcDbPolyline
 62
7
  6
BYLAYER
 90
26
 70
0
 10
11.0275374798
 20
16.8582548978
 10
7.7140000587
 20
20.4488569376
 10
5.8402245762
 20
24.9628494984
 10
5.6373891566
 20
29.8476545093
 10
7.1320572145
 20
34.5041793408
 10
10.1422832458
 20
38.3603086677
 10
14.2993231755
 20
40.941569087
 10
19.0930055386
 20
41.9297853731
 10
23.9343770906
 20
41.2023209578
 10
28.2279670402
 20
38.8473754733
 10
31.4449447221
 20
35.1534622142
 10
33.1882524234
 20
30.5743178177
 10
33.2417621263
 20
25.673423922
 10
31.5973462661
 20
21.0548621611
 10
28.4564606536
 20
17.2888855249
 10
24.2058702559
 20
14.8411200035
 10
19.3698743194
 20
14.0146874184
 10
14.5455539964
 20
14.9126839528
 10
10.3291039397
 20
17.4252410344
 10
7.2422207815
 20
21.2428322417
 10
5.6675498088
 20
25.8942115727
 10
5.8011479921
 20
30.804338953
 10
7.6278371503
 20
35.3653475085
 10
10.9225859225
 20
39.0116938474
 10
15.2777840033
 20
41.2905299611
 10
20.1539552445
 20
41.9184836487
  0
LWPOLYLINE
  5
22C
100
AcDbEntity
  8
0
100
AcDbPolyline
 62
7
  6
BYLAYER
 90
12
 70
0
 10
8.3600756777
 20
19.522918028
 10
6.1228728147
 20
23.8880065868
 10
5.5336641647
 20
28.7586000498
 10
6.6662555518
 20
33.5332938729
 10
9.3817855999
 20
37.6219722324
 10
13.3456126593
 20
40.5186816244
 10
18.0683611967
 20
41.8642538466
 10
22.9661003188
 20
41.4909565691
 10
27.4324303116
 20
39.4436440089
 10
30.9134756948
 20
35.9747055349
 10
32.9768407675
 20
31.5133863429
 10
33.365844922
 20
26.6123611874
  0
LINE
  5
22D
100
AcDbEntity
  8
0
100
AcDbLine
 62
7
  6
BYLAYER
 10
8.1732488821
 20
19.7749552153
 11
6.0400055009
 21
24.1696158636
  0
LWPOLYLINE
  5
22E
100
AcDbEntity
  8
0
100
AcDbPolyline
 62
7
  6
BYLAYER
 90
26
 70
0
 10
8.0642498963
 20
19.9273916052
 10
5.9815374225
 20
24.3814355645
 10
5.5722127984
 20
29.280230509
 10
6.8860727232
 20
34.0162578818
 10
9.7590792475
 20
38.0025448069
 10
13.8341384191
 20
40.7459423833
 10
18.6059315854
 20
41.9078916219
 10
23.4836646668
 20
41.3458724872
 10
27.8642370273
 20
39.1306181368
 10
31.2066606368
 20
35.5369963502
 10
33.0987109879
 20
31.0097984247
 10
33.3076185961
 20
26.1086715529
 10
31.8086116664
 20
21.4389376623
 10
28.7879039224
 20
17.5767723931
 10
24.6193903322
 20
14.9978233284
 10
19.8178223655
 20
14.0187613841
 10
14.9750581154
 20
14.7587434512
 10
10.6871223608
 20
17.1252494271
 10
7.48098545
 20
20.8259103673
 10
5.7500175258
 20
25.4047641114
 10
5.7059123664
 20
30.2984546745
 10
7.3529166712
 20
34.9055068674
 10
10.4874544163
 20
38.6602882419
 10
14.7234039007
 20
41.1027720186
 10
19.5402075707
 20
41.9347377272
 10
24.3470909146
 20
41.0558277646
  0
LWPOLYLINE
  5
22F
100
AcDbEntity
  8
0
100
AcDbPolyline
 62
7
  6
BYLAYER
 90
15
 70
0
 10
6.1268459131
 20
23.8767167867
 10
5.5316953331
 20
28.7220390365
 10
6.6397827256
 20
33.4729559288
 10
9.3124557145
 20
37.55001392
 10
13.2207747817
 20
40.4578657853
 10
17.8864664321
 20
41.8452633517
 10
22.7409084122
 20
41.5472920459
 10
27.1949489829
 20
39.6044066954
 10
30.7106753862
 20
36.2560118236
 10
32.8657270376
 20
31.9107706863
 10
33.4042572381
 20
27.0931892319
 10
32.2621019736
 20
22.3798766345
 10
29.5731860634
 20
18.3382421051
 10
25.6589763616
 20
15.4597517717
 10
20.9910110553
 20
14.0966309074
  0
LWPOLYLINE
  5
230
100
AcDbEntity
  8
0
100
AcDbPolyline
 62
7
  6
BYLAYER
 90
17
 70
0
 10
16.7809997646
 20
18.4137433364
 10
15.0039881186
 20
20.0742887187
 10
14.1372021298
 20
22.349331296
 10
14.3642684637
 20
24.7738537477
 10
15.635582923
 20
26.8486809151
 10
17.6885128113
 20
28.1533509842
 10
20.105660532
 20
28.421185505
 10
22.3907543544
 20
27.5966905842
 10
24.0794926503
 20
25.8556718712
 10
24.8342006768
 20
23.5532263412
 10
24.5018704507
 20
21.1561405491
 10
23.1560253536
 20
19.1516556904
 10
21.0757794438
 20
17.9367533319
 10
18.6780117116
 20
17.7495380697
 10
16.4440534309
 20
18.6247795733
 10
14.8156092506
 20
20.3764087247
 10
14.1049988188
 20
22.6535917128
  0
LWPOLYLINE
  5
231
100
AcDbEntity
  8
0
100
AcDbPolyline
 62
7
  6
BYLAYER
 90
41
 70
0
 10
14.106238237
 20
22.6535465246
 10
14.4472209027
 20
25.0076411277
 10
15.7712022566
 20
26.9844074688
 10
17.8170427701
 20
28.1960639161
 10
20.1839781947
 20
28.409803312
 10
22.4118904709
 20
27.5849465086
 10
24.065566022
 20
25.881656453
 10
24.8247173598
 20
23.6360607268
 10
24.5484154993
 20
21.2851956252
 10
23.2928798896
 20
19.2815647476
 10
21.3024576215
 20
18.0123586383
 10
18.9660765398
 20
17.7164655972
 10
16.730902491
 20
18.4419787115
 10
15.0200964261
 20
20.0467968799
 10
14.1572777788
 20
22.221757077
 10
14.2961758455
 20
24.5503436222
 10
15.4013490208
 20
26.5974824075
 10
17.2622817156
 20
27.9840416492
 10
19.526695
 20
28.4566555349
 10
21.7728979746
 20
27.9404545013
 10
23.5949035431
 20
26.53699671
 10
24.6633640233
 20
24.4985373793
 10
24.7814449425
 20
22.1938246189
 10
23.9209028052
 20
20.0441604259
 10
22.2301830467
 20
18.4509024912
 10
20.0184198985
 20
17.7199389402
 10
17.6994168475
 20
17.992797415
 10
15.7084888047
 20
19.225234913
 10
14.4277919337
 20
21.1932055911
 10
14.1085220429
 20
23.5238606457
 10
14.8144195951
 20
25.7721968108
 10
16.4165010638
 20
27.5073789533
 10
18.612376963
 20
28.3889945164
 10
20.9765383352
 20
28.2422099062
 10
23.0514717417
 20
27.0944686404
 10
24.4339330819
 20
25.1640245959
 10
24.8493623378
 20
22.8238257949
 10
24.2158481124
 20
20.5325570621
 10
22.6581887628
 20
18.7363155156
 10
20.4774728395
 20
17.7854390625
 10
18.0999583968
 20
17.8694398469
  0
LINE
  5
232
100
AcDbEntity
  8
0
100
AcDbLine
 62
7
  6
BYLAYER
 10
15.9094883663
 20
22.499666165
 11
15.2488382526
 21
22.499666165
  0
LINE
  5
233
100
AcDbEntity
  8
0
100
AcDbLine
 62
7
  6
BYLAYER
 10
15.2488382526
 20
23.649666165
 11
15.9094883663
 21
23.649666165
  0
LWPOLYLINE
  5
234
100
AcDbEntity
  8
0
100
AcDbPolyline
 62
7
  6
BYLAYER
 90
26
 70
0
 10
15.7676927432
 20
26.9784970985
 10
17.7968674271
 20
28.1900111848
 10
20.1422908311
 20
28.4166874993
 10
22.3513300902
 20
27.6216576526
 10
24.0109021485
 20
25.9667693919
 10
24.8122462896
 20
23.7589769578
 10
24.5912472741
 20
21.4116332209
 10
23.3836063528
 20
19.3785851566
 10
21.4150747452
 20
18.0542406803
 10
19.0596438714
 20
17.7070158429
 10
16.7802736372
 20
18.4145092976
 10
15.0257122153
 20
20.041409114
 10
14.1476555879
 20
22.2753726736
 10
14.332776565
 20
24.6742598779
 10
15.5465852599
 20
26.7561575066
 10
17.5509500401
 20
28.1035950097
 10
19.9485823728
 20
28.4370498624
 10
22.251844818
 20
27.6828622709
 10
23.9935757639
 20
25.9941118559
 10
24.8184630416
 20
23.7087175911
 10
24.5506931373
 20
21.2912478266
 10
23.2458841903
 20
19.2381437693
 10
21.1708985531
 20
17.9668546614
 10
18.7463473202
 20
17.7399212158
 10
16.4714377517
 20
18.6067817825
 10
14.8110655377
 20
20.3836775633
  0
LINE
  5
235
100
AcDbEntity
  8
0
100
AcDbLine
 62
7
  6
BYLAYER
 10
20.153955059
 20
41.9184836577
 11
20.2047252622
 21
42.9566313303
  0
LINE
  5
236
100
AcDbEntity
  8
0
100
AcDbLine
 62
7
  6
BYLAYER
 10
17.4325982832
 20
14.1639452233
 11
17.2807581079
 21
13.1357095945
  0
LINE
  5
237
100
AcDbEntity
  8
0
100
AcDbLine
 62
7
  6
BYLAYER
 10
22.8493320438
 20
41.5204508026
 11
23.1007816577
 21
42.5289757709
  0
LINE
  5
238
100
AcDbEntity
  8
0
100
AcDbLine
 62
7
  6
BYLAYER
 10
30.040006195
 20
37.0967341329
 11
30.8268156518
 21
37.7758947047
  0
LINE
  5
239
100
AcDbEntity
  8
0
100
AcDbLine
 62
7
  6
BYLAYER
 10
7.2149183539
 20
19.3282590004
 11
8.0642496156
 21
19.9273920032
  0
LINE
  5
23A
100
AcDbEntity
  8
0
100
AcDbLine
 62
7
  6
BYLAYER
 10
32.5142396746
 20
35.3837023569
 11
31.6103447946
 21
34.8702125699
  0
LWPOLYLINE
  5
23B
100
AcDbEntity
  8
0
100
AcDbPolyline
 62
7
  6
BYLAYER
 90
11
 70
0
 10
16.5305984667
 20
27.5829567143
 10
18.6608089336
 20
28.3951639408
 10
20.9456999639
 20
28.2523669315
 10
22.9525094824
 20
27.182013997
 10
24.3248054885
 20
25.4023165692
 10
24.8524333399
 20
23.2285004034
 10
24.4487343975
 20
21.0205518648
 10
23.1592656434
 20
19.153271412
 10
21.1968877749
 20
17.9765068791
 10
18.9278496263
 20
17.7186354813
 10
16.7802396418
 20
18.4124222678
  0
LINE
  5
23C
100
AcDbEntity
  8
0
100
AcDbLine
 62
7
  6
BYLAYER
 10
33.36584494
 20
26.6123613723
 11
34.4002703543
 21
26.510931547
  0
LINE
  5
23D
100
AcDbEntity
  8
0
100
AcDbLine
 62
7
  6
BYLAYER
 10
5.7773792647
 20
30.6862720351
 11
4.7577879413
 21
30.8881528254
  0
LINE
  5
23E
100
AcDbEntity
  8
0
100
AcDbLine
 62
7
  6
BYLAYER
 10
32.8363967459
 20
23.9397131709
 11
33.830360082
 21
23.6395712496
  0
LINE
  5
23F
100
AcDbEntity
  8
0
100
AcDbLine
 62
7
  6
BYLAYER
 10
9.8445656565
 20
38.0844563115
 11
9.1280427018
 21
38.8368783021
  0
LINE
  5
240
100
AcDbEntity
  8
0
100
AcDbLine
 62
7
  6
BYLAYER
 10
28.0669205998
 20
16.9736541779
 11
28.7068279567
 21
16.1546044103
  0
LINE
  5
241
100
AcDbEntity
  8
0
100
AcDbLine
 62
7
  6
BYLAYER
 10
11.9915869565
 20
39.7618931327
 11
11.4346517016
 21
40.6394757928
  0
LINE
  5
242
100
AcDbEntity
  8
0
100
AcDbLine
 62
7
  6
BYLAYER
 10
16.472288317
 20
17.87898129
 11
16.7802396418
 21
18.4124222678
  0
LINE
  5
243
100
AcDbEntity
  8
0
100
AcDbLine
 62
7
  6
BYLAYER
 10
14.8107403569
 20
20.3834952074
 11
14.2762550649
 21
20.0749326902
  0
LWPOLYLINE
  5
244
100
AcDbEntity
  8
0
100
AcDbPolyline
 62
7
  6
BYLAYER
 90
18
 70
0
 10
33.4128240771
 20
28.7070225394
 10
32.8121985167
 20
23.8604681104
 10
30.5799767797
 20
19.518405073
 10
26.990320102
 20
16.2112147924
 10
22.4829421811
 20
14.342256215
 10
17.6092339056
 20
14.1386643073
 10
12.9645408308
 20
15.6235650778
 10
9.1150116417
 20
18.6140354339
 10
6.528911286
 20
22.7439725183
 10
5.5196624885
 20
27.5100006132
 10
6.209564488
 20
32.3331355554
 10
8.5158430393
 20
36.6267852609
 10
12.1590150757
 20
39.8668908732
 10
16.6959181324
 20
41.656840291
 10
21.5732327857
 20
41.7764442743
 10
26.1950907571
 20
40.2096935954
 10
29.9962063206
 20
37.146844051
 10
32.5110346474
 20
32.9613062529
  0
LWPOLYLINE
  5
245
100
AcDbEntity
  8
0
100
AcDbPolyline
 62
7
  6
BYLAYER
 90
26
 70
0
 10
33.4307630775
 20
28.1642942192
 10
32.6413473954
 20
23.3425957498
 10
30.2378840937
 20
19.0869492001
 10
26.5134831696
 20
15.9197264486
 10
21.9238819863
 20
14.2306980036
 10
17.0319304099
 20
14.2287182166
 10
12.4385401055
 20
15.9153277865
 10
8.7085294892
 20
19.0843943413
 10
6.3011333191
 20
23.3473190016
 10
5.5134577621
 20
28.1805632648
 10
6.4437319075
 20
32.9897763591
 10
8.9788595429
 20
37.1827243694
 10
12.8078727724
 20
40.242182157
 10
17.4597526007
 20
41.7898353233
 10
22.361104958
 20
41.6333504167
 10
26.9068952663
 20
39.7908344063
 10
30.5354694235
 20
36.4888203086
 10
32.7979866652
 20
32.134342144
 10
33.4139705284
 20
27.2648495576
 10
32.3061426435
 20
22.4820085989
 10
29.6102699658
 20
18.3774758778
 10
25.6587855339
 20
15.4597764159
 10
20.9400396028
 20
14.0911898598
 10
16.0382295864
 20
14.4425723562
 10
11.5611545473
 20
16.4715236741
 10
8.0642495084
 20
19.9273921549
  0
LWPOLYLINE
  5
246
100
AcDbEntity
  8
0
100
AcDbPolyline
 62
7
  6
BYLAYER
 90
26
 70
0
 10
33.3658449876
 20
26.612361857
 10
32.0320839385
 20
21.8797853595
 10
29.1409671036
 20
17.9039606648
 10
25.0517637703
 20
15.1773145058
 10
20.2721900263
 20
14.0369966714
 10
15.3947978805
 20
14.6229858956
 10
11.0233324738
 20
16.8613840399
 10
7.6981475307
 20
20.4740410422
 10
5.8295687486
 20
25.0133338701
 10
5.6475171206
 20
29.9176962481
 10
7.1734087626
 20
34.5810673769
 10
10.217764017
 20
38.4277007215
 10
14.4038051904
 20
40.9831841745
 10
19.2140843801
 20
41.9330315088
 10
24.0547670128
 20
41.1614905318
 10
28.3292694699
 20
38.7651921419
 10
31.5116985337
 20
35.0406674345
 10
33.2113209348
 20
30.447408541
 10
33.2202626174
 20
25.5510705898
 10
31.5386793984
 20
20.9538508386
 10
28.3744285425
 20
17.2205320585
 10
24.1173116006
 20
14.8092028749
 10
19.2910305123
 20
14.015023486
 10
14.4884684719
 20
14.9339320141
 10
10.2985483739
 20
17.4515368495
 10
7.2340593281
 20
21.2577839635
  0
LWPOLYLINE
  5
247
100
AcDbEntity
  8
0
100
AcDbPolyline
 62
7
  6
BYLAYER
 90
24
 70
0
 10
32.8363967459
 20
23.9397131708
 10
30.6105471785
 20
19.5593799891
 10
27.0041871497
 20
16.2208901072
 10
22.4638638637
 20
14.3388092003
 10
17.5521276848
 20
14.1468958198
 10
12.8779971146
 20
15.6694397626
 10
9.0212686628
 20
18.7179087439
 10
6.4604203543
 20
22.9142876392
 10
5.5130882947
 20
27.7379530796
 10
6.2963924105
 20
32.5904658133
 10
8.7125379854
 20
36.870163753
 10
12.4612750056
 20
40.0469394598
 10
17.0774502865
 20
41.7279255615
 10
21.9889512476
 20
41.7060013202
 10
26.5877872719
 20
39.9851485744
 10
30.305454032
 20
36.7795816224
 10
32.6832272839
 20
32.486836504
 10
33.4286952651
 20
27.6382324559
 10
32.4515731572
 20
22.8328863753
 10
29.8744084856
 20
18.6635097013
 10
26.0169771877
 20
15.643124107
 10
21.3561296078
 20
14.1418253817
 10
16.466282468
 20
14.341731939
 10
11.9483346123
 20
16.215364589
  0
LWPOLYLINE
  5
248
100
AcDbEntity
  8
0
100
AcDbPolyline
 62
7
  6
BYLAYER
 90
9
 70
0
 10
30.4306749425
 20
19.3262304446
 10
26.7786715492
 20
16.0794656826
 10
22.2330077668
 20
14.290367935
 10
17.350704359
 20
14.1765508354
 10
12.7291318164
 20
15.7505243221
 10
8.933032053
 20
18.8185479859
 10
6.4256716233
 20
23.0045491281
 10
5.5122977165
 20
27.7962325615
 10
6.3027581349
 20
32.6080177171
  0
LWPOLYLINE
  5
249
100
AcDbEntity
  8
0
100
AcDbPolyline
 62
7
  6
BYLAYER
 90
4
 70
0
 10
29.6162130074
 20
18.3841524871
 10
25.6922715401
 20
15.4768299632
 10
21.008487932
 20
14.0989706029
 10
16.1380163902
 20
14.4177959087
  0
LWPOLYLINE
  5
24A
100
AcDbEntity
  8
0
100
AcDbPolyline
 62
7
  6
BYLAYER
 90
26
 70
0
 10
29.2355555147
 20
17.9968855112
 10
25.1994206764
 20
15.2434206366
 10
20.4601259274
 20
14.0491640978
 10
15.5980926658
 20
14.562091739
 10
11.2098671189
 20
16.7209647456
 10
7.8348479987
 20
20.2622131249
 10
5.8885514645
 20
24.751736054
 10
5.6112120712
 20
29.6383550167
 10
7.0381147092
 20
34.3215197417
 10
9.9950177459
 20
38.2250319196
 10
14.1192497761
 20
40.8678808998
 10
18.9039383049
 20
41.9235516949
 10
23.7600739022
 20
41.2605499406
 10
28.0888680212
 20
38.9590813366
 10
31.3556144314
 20
35.3017448266
 10
33.1561820208
 20
30.7391763469
 10
33.2672919798
 20
25.8343315896
 10
31.6741775297
 20
21.1929470221
 10
28.5726225298
 20
17.3887715856
 10
24.3450439293
 20
14.8926887674
 10
19.5135303424
 20
14.0143979203
 10
14.6755936009
 20
14.8638491851
 10
10.430362311
 20
17.3372281733
 10
7.3044396405
 20
21.1293012941
 10
5.6862706475
 20
25.7706775411
 10
5.7773793007
 20
30.6862722173
  0
LWPOLYLINE
  5
24B
100
AcDbEntity
  8
0
100
AcDbPolyline
 62
7
  6
BYLAYER
 90
26
 70
0
 10
28.0669209836
 20
16.9736544777
 10
23.7199345659
 20
14.6758494544
 10
18.8469835234
 20
14.0277085025
 10
14.052428562
 20
15.108646012
 10
9.9305550087
 20
17.7834933625
 10
6.9913669698
 20
21.7196731331
 10
5.5977039413
 20
26.4290084808
 10
5.9207759642
 20
31.3283727243
 10
7.9193956538
 20
35.811929948
 10
11.3454505256
 20
39.3259107597
 10
15.7748173745
 20
41.4368548391
 10
20.6598878854
 20
41.8849319597
 10
25.3972728984
 20
40.615830064
 10
29.4023881507
 20
37.7873945144
 10
32.1818892337
 20
33.7498386252
 10
33.3943378023
 20
29.0018300217
 10
32.8918070909
 20
24.1286994134
 10
30.7375910727
 20
19.7302795931
 10
27.1979672634
 20
16.3471939343
 10
22.7091374265
 20
14.3946165968
 10
17.8234437847
 20
14.1115084354
 10
13.1414359982
 20
15.5314930043
 10
9.2380158698
 20
18.478868336
 10
6.591522926
 20
22.5904459083
 10
5.5252507197
 20
27.3608576429
 10
6.1682962398
 20
32.2049367775
  0
LINE
  5
24C
100
AcDbEntity
  8
0
100
AcDbLine
 62
7
  6
BYLAYER
 10
15.6906203864
 20
41.4137769743
 11
20.5720464888
 21
41.8919096154
  0
LWPOLYLINE
  5
24D
100
AcDbEntity
  8
0
100
AcDbPolyline
 62
7
  6
BYLAYER
 90
18
 70
0
 10
18.0594997095
 20
41.8630829923
 10
22.9296084385
 20
41.4999275645
 10
27.375531167
 20
39.4824795735
 10
30.854127019
 20
36.0586639368
 10
32.9410386903
 20
31.6479654022
 10
33.3824670646
 20
26.7900210829
 10
32.1262312492
 20
22.0783360729
 10
29.3273797187
 20
18.0873189045
 10
25.3287036189
 20
15.3025595216
 10
20.6176670785
 20
14.0616962533
 10
15.7665887431
 20
14.5151655729
 10
11.3654038893
 20
16.6089469447
 10
7.9511984028
 20
20.0894911207
 10
5.9417592689
 20
24.5335391213
 10
5.5840423783
 20
29.3991883037
 10
6.9231458741
 20
34.0920638214
 10
9.7966551766
 20
38.0382608702
 10
13.8543472326
 20
40.7545493953
  0
LWPOLYLINE
  5
24E
100
AcDbEntity
  8
0
100
AcDbPolyline
 62
7
  6
BYLAYER
 90
26
 70
0
 10
18.6007037706
 20
41.9075127295
 10
23.4552085687
 20
41.3545783616
 10
27.8231830899
 20
39.1618718193
 10
31.1685607401
 20
35.5966354206
 10
33.0797736784
 20
31.0950222415
 10
33.3207218102
 20
26.2090076955
 10
31.8605118794
 20
21.5387107791
 10
28.8774389148
 20
17.6583451116
 10
24.7372043497
 20
15.0455801535
 10
19.948208086
 20
14.0227421034
 10
15.0992928538
 20
14.7169766766
 10
10.7875102462
 20
17.0442531727
 10
7.5446586162
 20
20.7192412777
 10
5.7716098765
 20
25.2899648995
 10
5.6884780272
 20
30.1931099668
 10
7.3067335165
 20
34.8234797088
 10
10.4275504506
 20
38.6090244753
 10
14.6663065199
 20
41.0815558381
 10
19.499894931
 20
41.934677893
 10
24.3311429717
 20
41.0618132823
 10
28.5624682041
 20
38.5696645848
 10
31.6697134384
 20
34.7654266297
 10
33.2671757426
 20
30.1191693714
 10
33.1556650395
 20
25.2060464889
 10
31.3478400958
 20
20.6352026577
 10
28.0669204535
 20
16.9736540634
  0
LWPOLYLINE
  5
24F
100
AcDbEntity
  8
0
100
AcDbPolyline
 62
7
  6
BYLAYER
 90
24
 70
0
 10
20.1539545725
 20
41.9184836815
 10
24.9460349439
 20
40.8175002324
 10
29.0583434417
 20
38.124053115
 10
31.9814910012
 20
34.172927766
 10
33.3539285298
 20
29.4547644403
 10
33.0068983798
 20
24.5545697922
 10
30.9847176542
 20
20.0789780807
 10
27.5388081872
 20
16.5812854889
 10
23.0962142949
 20
14.4931941235
 10
18.2066002321
 20
14.071782867
 10
13.4742570725
 20
15.3680481978
 10
9.4835000265
 20
18.2208617568
 10
6.7265803221
 20
22.2770705935
 10
5.5428859439
 20
27.035207147
 10
6.0770395748
 20
31.9078002685
 10
8.2616686525
 20
36.2942581815
 10
11.8262858617
 20
39.6548300366
 10
16.3310348719
 20
41.5768029615
 10
21.2210904689
 20
41.8249189507
 10
25.8949667243
 20
40.3699164377
 10
29.7784013604
 20
37.3918150258
 10
32.3948109307
 20
33.2575733723
 10
33.4238048986
 20
28.4758496811
 10
32.7405974713
 20
23.6341327701
  0
LINE
  5
250
100
AcDbEntity
  8
0
100
AcDbLine
 62
7
  6
BYLAYER
 10
20.5590314413
 20
41.8931181329
 11
25.3062020024
 21
40.6580504687
  0
LWPOLYLINE
  5
251
100
AcDbEntity
  8
0
100
AcDbPolyline
 62
7
  6
BYLAYER
 90
26
 70
0
 10
22.8493349809
 20
41.5204645794
 10
27.3363021201
 20
39.5096625671
 10
30.8471323881
 20
36.0687601585
 10
32.9471647876
 20
31.6251077083
 10
33.3770350642
 20
26.7302265573
 10
32.0848279211
 20
21.990760531
 10
29.231845661
 20
17.9931827297
 10
25.1721909531
 20
15.2314171396
 10
20.4086264996
 20
14.0459974923
 10
15.5302818351
 20
14.5823429629
 10
11.1398446713
 20
16.7731047252
 10
7.7792053641
 20
20.3467289989
 10
5.862645859
 20
24.8611764786
 10
5.6256883228
 20
29.7586091701
 10
7.0960940445
 20
34.4346535286
 10
10.0911180077
 20
38.3132420206
 10
14.2405861299
 20
40.9174411958
 10
19.0328560592
 20
41.9278334435
 10
23.8779739552
 20
41.2214073259
 10
28.1802254942
 20
38.8862877876
 10
31.4112511254
 20
35.2106074473
 10
33.1748198365
 20
30.6469051685
 10
33.2554417753
 20
25.7563826864
 10
31.6448181842
 20
21.1395778732
 10
28.5421451578
 20
17.362385182
 10
24.3290603548
 20
14.8867990603
  0
LINE
  5
252
100
AcDbEntity
  8
0
100
AcDbLine
 62
7
  6
BYLAYER
 10
25.2950835837
 20
40.6627944215
 11
29.320397148
 21
37.8699755927
  0
LWPOLYLINE
  5
253
100
AcDbEntity
  8
0
100
AcDbPolyline
 62
7
  6
BYLAYER
 90
18
 70
0
 10
28.5555092496
 20
38.5752743805
 10
31.651044467
 20
34.7980395963
 10
33.2560606035
 20
30.1871558952
 10
33.1755373449
 20
25.3069244847
 10
31.4206086516
 20
20.753937864
 10
28.2070397051
 20
17.0841345115
 10
23.9286452311
 20
14.7445950736
 10
19.1083201838
 20
14.0191611576
 10
14.3341106103
 20
14.994465377
 10
10.186689478
 20
17.5503419169
 10
7.169680771
 20
21.3760776503
 10
5.6507952337
 20
26.0072044326
 10
5.8168045587
 20
30.8799272617
 10
7.6493105729
 20
35.3998088943
 10
10.9261882395
 20
39.01430417
 10
15.2481085804
 20
41.2808617721
 10
20.087461617
 20
41.9213217999
 10
24.8527850786
 20
40.856061044
  0
LWPOLYLINE
  5
254
100
AcDbEntity
  8
0
100
AcDbPolyline
 62
7
  6
BYLAYER
 90
26
 70
0
 10
28.9609089127
 20
38.2139892432
 10
31.9082507861
 20
34.3171791207
 10
33.3325950042
 20
29.6418815958
 10
33.0577889337
 20
24.760596537
 10
31.1158571328
 20
20.2721494793
 10
27.7437054247
 20
16.7281705003
 10
23.3546185071
 20
14.5648854153
 10
18.4873814617
 20
14.0491669157
 10
13.7401039268
 20
15.2455945092
 10
9.6968079738
 20
18.0082817385
 10
6.855646407
 20
21.9984874378
 10
5.5675050047
 20
26.7258944303
 10
5.9924941199
 20
31.6086199517
 10
8.0797544903
 20
36.0446722966
 10
11.5731448327
 20
39.4861787068
 10
16.04230892
 20
41.5074770856
 10
20.9358702703
 20
41.858054932
 10
25.6495369363
 20
40.4935730093
 10
29.6006809576
 20
37.5815539345
 10
32.3003000371
 20
33.4809555533
 10
33.413560652
 20
28.6981144357
 10
32.8014556115
 20
23.8244580275
 10
30.5384080693
 20
19.4634709665
 10
26.9035627659
 20
16.1560383194
 10
22.3467748674
 20
14.3130710367
 10
17.4325980994
 20
14.1639452503
  0
LWPOLYLINE
  5
255
100
AcDbEntity
  8
0
100
AcDbPolyline
 62
7
  6
BYLAYER
 90
19
 70
0
 10
29.3165390551
 20
37.8728378059
 10
32.1284342361
 20
33.865179079
 10
33.3839925231
 20
29.1318656223
 10
32.9274551634
 20
24.2548261299
 10
30.8135867036
 20
19.8345042774
 10
27.3013985853
 20
16.416001844
 10
22.8227448025
 20
14.4217910842
 10
17.9295143887
 20
14.0992409752
 10
13.2256212641
 20
15.4893719937
 10
9.2921447293
 20
18.4215401106
 10
6.6155029713
 20
22.5344530994
 10
5.5272797457
 20
27.3205960539
 10
6.1630969213
 20
32.1887154831
 10
8.445571072
 20
36.5367299845
 10
12.0934790751
 20
39.8261017432
 10
16.6561536746
 20
41.6486254942
 10
21.5688582353
 20
41.7772528414
 10
26.222556939
 20
40.1948708613
 10
30.0400063164
 20
37.0967339924
  0
LWPOLYLINE
  5
256
100
AcDbEntity
  8
0
100
AcDbPolyline
 62
7
  6
BYLAYER
 90
26
 70
0
 10
30.0400058767
 20
37.0967345016
 10
32.5474169222
 20
32.8671850351
 10
33.4328266195
 20
28.0317131632
 10
32.5873925071
 20
23.1900786934
 10
30.1170911312
 20
18.9424604137
 10
26.3291892777
 20
15.814499886
 10
21.6935563477
 20
14.1924507521
 10
16.7842592783
 20
14.2758042559
 10
12.2084226944
 20
16.0530171299
 10
8.5312751013
 20
19.303324609
 10
6.2064776483
 20
23.6242842699
 10
5.5203009004
 20
28.4816342133
 10
6.5564674955
 20
33.2753587748
 10
9.1858773233
 20
37.413860895
 10
13.0828349373
 20
40.3872773111
 10
17.7659472371
 20
41.8302175099
 10
22.6578085064
 20
41.5663380596
 10
27.1562101741
 20
39.6295556751
 10
30.7081667015
 20
36.2594206462
 10
32.877691234
 20
31.871332809
 10
33.3991264128
 20
27.0053017829
 10
32.2095521131
 20
22.2595177514
 10
29.4563767174
 20
18.216779164
 10
25.4789883751
 20
15.3725961514
 10
20.7663590088
 20
14.0745634127
 10
15.8966504136
 20
14.4802090742
  0
LWPOLYLINE
  5
257
100
AcDbEntity
  8
0
100
AcDbPolyline
 62
7
  6
BYLAYER
 90
9
 70
0
 10
30.3009857857
 20
36.7858966535
 10
32.6760940909
 20
32.5077256812
 10
33.4289603026
 20
27.6714921785
 10
32.4658644941
 20
22.8714370284
 10
29.9039896104
 20
18.6980115802
 10
26.0573377572
 20
15.6653213403
 10
21.3985000504
 20
14.1477850586
 10
16.5008432122
 20
14.3337467775
 10
11.968124716
 20
16.2018151098
  0
LWPOLYLINE
  5
258
100
AcDbEntity
  8
0
100
AcDbPolyline
 62
7
  6
BYLAYER
 90
14
 70
0
 10
31.6103111471
 20
34.8701929784
 10
33.248415579
 20
30.2315269367
 10
33.1757155535
 20
25.3114567432
 10
31.4002706747
 20
20.7217537551
 10
28.1423911768
 20
17.0330348192
 10
23.8070580371
 20
14.7040440524
 10
18.9334896566
 20
14.0241283126
 10
14.1277307522
 20
15.0771192429
 10
9.9868546791
 20
17.7308809908
 10
7.0241896476
 20
21.6542140324
 10
5.6055404759
 20
26.3588804496
 10
5.9041877607
 20
31.2609341437
 10
7.8801282286
 20
35.7536497183
 10
11.2859666725
 20
39.2828749277
  0
LWPOLYLINE
  5
259
100
AcDbEntity
  8
0
100
AcDbPolyline
 62
7
  6
BYLAYER
 90
52
 70
0
 10
32.125169381
 20
33.8738984514
 10
33.3819219694
 20
29.1621774654
 10
32.9431224003
 20
24.311648405
 10
30.8684742662
 20
19.9121202042
 10
27.4163964148
 20
16.4955364344
 10
23.0071931002
 20
14.4694728741
 10
18.1676862466
 20
14.0752486864
 10
13.4791498071
 20
15.3655925838
 10
9.5131858009
 20
18.1904807967
 10
6.756222393
 20
22.2113230956
 10
5.5496534162
 20
26.9406969834
 10
6.0463239647
 20
31.8014722159
 10
8.1904468257
 20
36.1974164418
 10
11.7230752976
 20
39.5866510755
 10
16.212782903
 20
41.5489904322
 10
21.1079998224
 20
41.8387398427
 10
25.8047218394
 20
40.4162215253
 10
29.7212684074
 20
37.4538659966
 10
32.3708026336
 20
33.3158695228
 10
33.4225012064
 20
28.5137232135
 10
32.7436878758
 20
23.6429218889
 10
30.4170312207
 20
19.3085866996
 10
26.7305278392
 20
16.0498136591
 10
22.1417999928
 20
14.2722346039
 10
17.2210957475
 20
14.1972440836
 10
12.5801496168
 20
15.8342684014
 10
8.7958238609
 20
18.9795634848
 10
6.3381204639
 20
23.2416997806
 10
5.5116021861
 20
28.0905277765
 10
6.4175692283
 20
32.9234627201
 10
8.9416800954
 20
37.1407893553
 10
12.7686556786
 20
40.220640001
 10
17.4224674041
 20
41.783752052
 10
22.326238069
 20
41.6399221621
 10
26.8742511124
 20
39.810637714
 10
30.50703357
 20
36.5252825959
 10
32.7801627526
 20
32.1916329235
 10
33.4183334156
 20
27.3445423495
 10
32.3481435438
 20
22.5793519107
 10
29.7057617481
 20
18.4784391701
 10
25.8188562607
 20
15.5399307637
 10
21.1650230548
 20
14.1171137906
 10
16.3122566604
 20
14.3766329773
 10
11.8469905367
 20
16.2808866959
 10
8.3035390108
 20
19.59913354
 10
6.1089008316
 20
23.9355051379
 10
5.5341432512
 20
28.768326906
 10
6.655770639
 20
33.510528622
 10
9.3431529507
 20
37.5826796573
 10
13.2727942907
 20
40.483774511
 10
17.9663990253
 20
41.8539984853
 10
22.8493322181
 20
41.5204507592
  0
ARC
  5
25A
100
AcDbEntity
  8
0
100
AcDbCircle
 62
7
  6
BYLAYER
 10
19.4719705414
 20
23.0746593638
 40
5.4537355539
100
AcDbArc
 50
240.0001909506
 51
141.2100800377
  0
ARC
  5
25B
100
AcDbEntity
  8
0
100
AcDbCircle
 62
7
  6
BYLAYER
 10
15.9094883663
 20
23.074666165
 40
0.575
100
AcDbArc
 50
270.0
 51
90.0
  0
CIRCLE
  5
25C
100
AcDbEntity
  8
0
100
AcDbCircle
 62
7
  6
BYLAYER
 10
17.4213787009
 20
21.0240564995
 40
0.5
  0
CIRCLE
  5
25D
100
AcDbEntity
  8
0
100
AcDbCircle
 62
7
  6
BYLAYER
 10
10.4719883663
 20
25.574666165
 40
1.0331646234
  0
CIRCLE
  5
25E
100
AcDbEntity
  8
0
100
AcDbCircle
 62
7
  6
BYLAYER
 10
10.4719883663
 20
25.574666165
 40
1.0
  0
CIRCLE
  5
25F
100
AcDbEntity
  8
0
100
AcDbCircle
 62
7
  6
BYLAYER
 10
17.4213787009
 20
25.1252758304
 40
0.5
  0
CIRCLE
  5
260
100
AcDbEntity
  8
0
100
AcDbCircle
 62
7
  6
BYLAYER
 10
19.4719883663
 20
23.074666165
 40
6.0
  0
ARC
  5
261
100
AcDbEntity
  8
0
100
AcDbCircle
 62
7
  6
BYLAYER
 10
19.8437515077
 20
22.9942767179
 40
5.8828425237
100
AcDbArc
 50
61.6268302328
 51
93.6232481335
  0
CIRCLE
  5
262
100
AcDbEntity
  8
0
100
AcDbCircle
 62
7
  6
BYLAYER
 10
19.4719883663
 20
23.074666165
 40
5.675
  0
ARC
  5
263
100
AcDbEntity
  8
0
100
AcDbCircle
 62
7
  6
BYLAYER
 10
19.8285439216
 20
22.9413326011
 40
5.5503020384
100
AcDbArc
 50
232.9534926009
 51
266.3168322276
  0
ARC
  5
264
100
AcDbEntity
  8
0
100
AcDbCircle
 62
7
  6
BYLAYER
 10
19.5001902793
 20
23.1728870019
 40
5.4897701913
100
AcDbArc
 50
323.0816175497
 51
358.9748514935
  0
CIRCLE
  5
265
100
AcDbEntity
  8
0
100
AcDbCircle
 62
7
  6
BYLAYER
 10
19.4719883663
 20
23.074666165
 40
5.175
  0
CIRCLE
  5
266
100
AcDbEntity
  8
0
100
AcDbCircle
 62
7
  6
BYLAYER
 10
19.4719883663
 20
23.074666165
 40
4.975
  0
CIRCLE
  5
267
100
AcDbEntity
  8
0
100
AcDbCircle
 62
7
  6
BYLAYER
 10
19.4719883663
 20
23.074666165
 40
4.2642964366
  0
ARC
  5
268
100
AcDbEntity
  8
0
100
AcDbCircle
 62
7
  6
BYLAYER
 10
19.4719883663
 20
23.074666165
 40
4.1875
100
AcDbArc
 50
187.8924158583
 51
172.1075841417
  0
CIRCLE
  5
269
100
AcDbEntity
  8
0
100
AcDbCircle
 62
7
  6
BYLAYER
 10
19.4719883663
 20
23.074666165
 40
0.5
  0
CIRCLE
  5
26A
100
AcDbEntity
  8
0
100
AcDbCircle
 62
7
  6
BYLAYER
 10
21.5225980317
 20
21.0240564995
 40
0.5
  0
CIRCLE
  5
26B
100
AcDbEntity
  8
0
100
AcDbCircle
 62
7
  6
BYLAYER
 10
21.5225980317
 20
25.1252758304
 40
0.5
  0
ARC
  5
26C
100
AcDbEntity
  8
0
100
AcDbCircle
 62
7
  6
BYLAYER
 10
19.4719883663
 20
27.974666165
 40
15.0
100
AcDbArc
 50
180.0
 51
360.0
  0
ARC
  5
26D
100
AcDbEntity
  8
0
100
AcDbCircle
 62
7
  6
BYLAYER
 10
19.4719883663
 20
27.974666165
 40
15.0
100
AcDbArc
 50
0.0
 51
180.0
  0
ARC
  5
26E
100
AcDbEntity
  8
0
100
AcDbCircle
 62
7
  6
BYLAYER
 10
19.4719883663
 20
27.974666165
 40
14.4
100
AcDbArc
 50
52.5210605629
 51
263.1384387632
  0
CIRCLE
  5
26F
100
AcDbEntity
  8
0
100
AcDbCircle
 62
7
  6
BYLAYER
 10
19.4719883663
 20
27.974666165
 40
13.95
  0
CIRCLE
  5
270
100
AcDbEntity
  8
0
100
AcDbCircle
 62
7
  6
BYLAYER
 10
19.4719883663
 20
27.974666165
 40
13.5
  0
CIRCLE
  5
271
100
AcDbEntity
  8
0
100
AcDbCircle
 62
7
  6
BYLAYER
 10
19.4719883663
 20
27.974666165
 40
11.5
  0
CIRCLE
  5
272
100
AcDbEntity
  8
0
100
AcDbCircle
 62
7
  6
BYLAYER
 10
19.4719883663
 20
27.974666165
 40
11.0
  0
CIRCLE
  5
273
100
AcDbEntity
  8
0
100
AcDbCircle
 62
7
  6
BYLAYER
 10
19.4719883663
 20
27.974666165
 40
7.75
  0
CIRCLE
  5
274
100
AcDbEntity
  8
0
100
AcDbCircle
 62
7
  6
BYLAYER
 10
28.4719883663
 20
25.574666165
 40
1.0331646234
  0
CIRCLE
  5
275
100
AcDbEntity
  8
0
100
AcDbCircle
 62
7
  6
BYLAYER
 10
28.4719883663
 20
25.574666165
 40
1.0
  0
SPLINE
  5
276
100
AcDbEntity
  8
0
100
AcDbSpline
 62
7
  6
BYLAYER
 70
0
 71
3
 72
20
 73
16
 74
0
 42
0.0000001
 43
0.0000001
 44
0.0000000001
 40
0.0
 40
0.0
 40
0.0
 40
0.0
 40
0.0774511421
 40
0.1547850805
 40
0.2321609597
 40
0.3093585982
 40
0.3866398129
 40
0.4637294921
 40
0.5406984371
 40
0.6175605028
 40
0.6942405153
 40
0.7708323947
 40
0.8472622252
 40
0.9237184152
 40
1.0
 40
1.0
 40
1.0
 40
1.0
 10
4.7352493634
 20
27.974666165
 30
0.0
 10
4.7428640838
 20
28.810477745
 30
0.0
 10
4.9042758552
 20
30.4828436506
 30
0.0
 10
5.5655117322
 20
32.9113477834
 30
0.0
 10
6.6294912345
 20
35.1903796103
 30
0.0
 10
8.065020707
 20
37.2545818044
 30
0.0
 10
9.8290040797
 20
39.0421080592
 30
0.0
 10
11.8698090645
 20
40.5013218015
 30
0.0
 10
14.1253479655
 20
41.5894478365
 30
0.0
 10
16.5290957957
 20
42.2759441214
 30
0.0
 10
19.0106077356
 20
42.542240422
 30
0.0
 10
21.4964923312
 20
42.3819905332
 30
0.0
 10
23.9164718792
 20
41.8007729322
 30
0.0
 10
26.1980854875
 20
40.8168307606
 30
0.0
 10
27.5860880122
 20
39.9100826709
 30
0.0
 10
28.2339530559
 20
39.4021757265
 30
0.0
  0
SPLINE
  5
277
100
AcDbEntity
  8
0
100
AcDbSpline
 62
7
  6
BYLAYER
 70
0
 71
3
 72
17
 73
13
 74
0
 42
0.0000001
 43
0.0000001
 44
0.0000000001
 40
0.0
 40
0.0
 40
0.0
 40
0.0
 40
0.1004715961
 40
0.2007951815
 40
0.3009474393
 40
0.4012003712
 40
0.5013900776
 40
0.6013443831
 40
0.7011897986
 40
0.8010573703
 40
0.9006252277
 40
1.0
 40
1.0
 40
1.0
 40
1.0
 10
21.9888769643
 20
13.1873313211
 30
0.0
 10
21.1345012615
 20
13.051665451
 30
0.0
 10
19.4000611712
 20
12.925350636
 30
0.0
 10
16.8097785999
 20
13.1899443277
 30
0.0
 10
14.3050583406
 20
13.8963873039
 30
0.0
 10
11.9612954581
 20
15.0247841507
 30
0.0
 10
9.849636912
 20
16.5409423093
 30
0.0
 10
8.0349951433
 20
18.3974114946
 30
0.0
 10
6.570838692
 20
20.5377852653
 30
0.0
 10
5.5016865374
 20
22.896893199
 30
0.0
 10
4.8583140217
 20
25.4009659601
 30
0.0
 10
4.7274542831
 20
27.1190657318
 30
0.0
 10
4.7352492912
 20
27.974666165
 30
0.0
  0
SPLINE
  5
278
100
AcDbEntity
  8
0
100
AcDbSpline
 62
7
  6
BYLAYER
 70
0
 71
3
 72
13
 73
9
 74
0
 42
0.0000001
 43
0.0000001
 44
0.0000000001
 40
0.0
 40
0.0
 40
0.0
 40
0.0
 40
0.1574574831
 40
0.3195723267
 40
0.4843191766
 40
0.6635948746
 40
0.8388994127
 40
1.0
 40
1.0
 40
1.0
 40
1.0
 10
33.4788531966
 20
27.6358582097
 30
0.0
 10
33.517596954
 20
28.3357929382
 30
0.0
 10
33.4841621734
 20
29.7644954102
 30
0.0
 10
33.1131781611
 20
31.8967050976
 30
0.0
 10
32.3818890012
 20
34.0378909444
 30
0.0
 10
31.2877795761
 20
36.0871140647
 30
0.0
 10
29.8825241812
 20
37.9151977532
 30
0.0
 10
28.7900579964
 20
38.9492302345
 30
0.0
 10
28.2339530559
 20
39.4021757265
 30
0.0
  0
SPLINE
  5
279
100
AcDbEntity
  8
0
100
AcDbSpline
 62
7
  6
BYLAYER
 70
0
 71
3
 72
17
 73
13
 74
0
 42
0.0000001
 43
0.0000001
 44
0.0000000001
 40
0.0
 40
0.0
 40
0.0
 40
0.0
 40
0.0994183986
 40
0.1999346814
 40
0.3003638799
 40
0.3998271097
 40
0.4993399629
 40
0.599037967
 40
0.6988898656
 40
0.7984260335
 40
0.8990315941
 40
1.0
 40
1.0
 40
1.0
 40
1.0
 10
4.7255782048
 20
27.974666165
 30
0.0
 10
4.7166425897
 20
28.799469009
 30
0.0
 10
4.8410870889
 20
30.4628377469
 30
0.0
 10
5.4407354547
 20
32.8934332691
 30
0.0
 10
6.4458782535
 20
35.1874887156
 30
0.0
 10
7.8125747411
 20
37.2752619339
 30
0.0
 10
9.5012994064
 20
39.1045566118
 30
0.0
 10
11.4751812991
 20
40.6274160683
 30
0.0
 10
13.6757947677
 20
41.7987716325
 30
0.0
 10
16.04613866
 20
42.5945343908
 30
0.0
 10
18.524196942
 20
42.9895951641
 30
0.0
 10
20.2060201921
 20
42.9723640802
 30
0.0
 10
21.0399153159
 20
42.8924945954
 30
0.0
  0
SPLINE
  5
27A
100
AcDbEntity
  8
0
100
AcDbSpline
 62
7
  6
BYLAYER
 70
0
 71
3
 72
25
 73
21
 74
0
 42
0.0000001
 43
0.0000001
 44
0.0000000001
 40
0.0
 40
0.0
 40
0.0
 40
0.0
 40
0.0553421071
 40
0.1111198994
 40
0.1665420395
 40
0.2210948191
 40
0.2760260651
 40
0.3314037066
 40
0.3864774091
 40
0.4413652614
 40
0.4965816266
 40
0.5523482631
 40
0.6081390432
 40
0.6642868583
 40
0.7207234626
 40
0.7765688549
 40
0.8318581195
 40
0.8877476061
 40
0.9439794154
 40
1.0
 40
1.0
 40
1.0
 40
1.0
 10
33.7429175806
 20
27.974666165
 30
0.0
 10
33.7524291446
 20
27.1349862444
 30
0.0
 10
33.619408331
 20
25.4435664773
 30
0.0
 10
32.9764038744
 20
22.9866902006
 30
0.0
 10
31.9190008066
 20
20.6904315349
 30
0.0
 10
30.488150961
 20
18.6223901276
 30
0.0
 10
28.7181494497
 20
16.8364727509
 30
0.0
 10
26.6585437199
 20
15.3807071777
 30
0.0
 10
24.3799361789
 20
14.3016079098
 30
0.0
 10
21.951785973
 20
13.6310736839
 30
0.0
 10
19.4332217612
 20
13.3938561394
 30
0.0
 10
16.8980490695
 20
13.5968891131
 30
0.0
 10
14.42220798
 20
14.237987555
 30
0.0
 10
12.0863328108
 20
15.3055236613
 30
0.0
 10
9.9756571354
 20
16.770174583
 30
0.0
 10
8.1604731013
 20
18.568639155
 30
0.0
 10
6.6841126645
 20
20.6437065614
 30
0.0
 10
5.5848339716
 20
22.9485304571
 30
0.0
 10
4.9038975813
 20
25.4198962073
 30
0.0
 10
4.734786567
 20
27.1246873708
 30
0.0
 10
4.7255782048
 20
27.974666165
 30
0.0
  0
SPLINE
  5
27B
100
AcDbEntity
  8
0
100
AcDbSpline
 62
7
  6
BYLAYER
 70
0
 71
3
 72
17
 73
13
 74
0
 42
0.0000001
 43
0.0000001
 44
0.0000000001
 40
0.0
 40
0.0
 40
0.0
 40
0.0
 40
0.100283853
 40
0.200972366
 40
0.3007669146
 40
0.4006870712
 40
0.5009541406
 40
0.6016244602
 40
0.7016652063
 40
0.8019002311
 40
0.9014312014
 40
1.0
 40
1.0
 40
1.0
 40
1.0
 10
17.4217688602
 20
41.8348123828
 30
0.0
 10
18.2227141175
 20
41.9615203622
 30
0.0
 10
19.8534418585
 20
42.073955628
 30
0.0
 10
22.2843466304
 20
41.8257519234
 30
0.0
 10
24.6334540912
 20
41.1600929132
 30
0.0
 10
26.8286924932
 20
40.1003021057
 30
0.0
 10
28.8170737171
 20
38.6782202441
 30
0.0
 10
30.5350069977
 20
36.9372089347
 30
0.0
 10
31.9268075992
 20
34.9262482086
 30
0.0
 10
32.9486978875
 20
32.7145956916
 30
0.0
 10
33.5797520319
 20
30.3750073742
 30
0.0
 10
33.7338896303
 20
28.7716527246
 30
0.0
 10
33.7429175806
 20
27.974666165
 30
0.0
  0
SPLINE
  5
27C
100
AcDbEntity
  8
0
100
AcDbSpline
 62
7
  6
BYLAYER
 70
0
 71
3
 72
83
 73
79
 74
0
 42
0.0000001
 43
0.0000001
 44
0.0000000001
 40
0.0
 40
0.0
 40
0.0
 40
0.0
 40
0.0136243668
 40
0.027241027
 40
0.0408505703
 40
0.0544537708
 40
0.0680516629
 40
0.0873551345
 40
0.1003930826
 40
0.1134306085
 40
0.1264678106
 40
0.1395048281
 40
0.1525417112
 40
0.1655785155
 40
0.1786154051
 40
0.1916525501
 40
0.2046899965
 40
0.2177277573
 40
0.2307659125
 40
0.2438045012
 40
0.2568433784
 40
0.2698822986
 40
0.2829210822
 40
0.2959596348
 40
0.3089978264
 40
0.322035582
 40
0.335072979
 40
0.3481101388
 40
0.3611470989
 40
0.3741839075
 40
0.3872207267
 40
0.4002577304
 40
0.4132949751
 40
0.4263324919
 40
0.4393703875
 40
0.4524087376
 40
0.4654474465
 40
0.4784863313
 40
0.4915252231
 40
0.5045639733
 40
0.5176024053
 40
0.530640407
 40
0.5436780275
 40
0.5567153667
 40
0.5697524466
 40
0.5827893059
 40
0.5958261018
 40
0.6088630088
 40
0.6219000892
 40
0.6349373872
 40
0.64797503
 40
0.6610131232
 40
0.6740516123
 40
0.6870903682
 40
0.700129281
 40
0.7131681771
 40
0.7262068267
 40
0.7392450746
 40
0.752282936
 40
0.7653204851
 40
0.7783577247
 40
0.7913946802
 40
0.8044315012
 40
0.8174683588
 40
0.8305053174
 40
0.8435424293
 40
0.8565798373
 40
0.8696176712
 40
0.8826559114
 40
0.895694475
 40
0.9087333116
 40
0.921772284
 40
0.9348111103
 40
0.9478495816
 40
0.9608876728
 40
0.9739254385
 40
0.9869628731
 40
1.0
 40
1.0
 40
1.0
 40
1.0
 10
35.1213717426
 20
27.9567787271
 30
0.0
 10
35.1216475834
 20
28.1727266375
 30
0.0
 10
35.1137755166
 20
28.6050712021
 30
0.0
 10
35.0708639649
 20
29.2492369909
 30
0.0
 10
35.016009294
 20
29.9014964978
 30
0.0
 10
34.8796268157
 20
30.5107325879
 30
0.0
 10
34.9278470502
 20
31.3675122001
 30
0.0
 10
33.8975706098
 20
31.4591587885
 30
0.0
 10
33.8831112232
 20
32.2783803443
 30
0.0
 10
33.6526997929
 20
32.8397934033
 30
0.0
 10
33.4499504522
 20
33.4296862422
 30
0.0
 10
33.2095713074
 20
34.0004307685
 30
0.0
 10
32.94959988
 20
34.5635812878
 30
0.0
 10
32.6657408269
 20
35.1148358229
 30
0.0
 10
32.3596804483
 20
35.6541354964
 30
0.0
 10
32.0316160385
 20
36.1803418374
 30
0.0
 10
31.6821723471
 20
36.6926189713
 30
0.0
 10
31.311860957
 20
37.1900421809
 30
0.0
 10
30.9212303244
 20
37.6716972545
 30
0.0
 10
30.510933985
 20
38.1367384821
 30
0.0
 10
30.0816274989
 20
38.5843087042
 30
0.0
 10
29.6340102852
 20
39.0135710286
 30
0.0
 10
29.1689046751
 20
39.4238097944
 30
0.0
 10
28.6872006129
 20
39.8144042273
 30
0.0
 10
28.1897817008
 20
40.1847498645
 30
0.0
 10
27.67752238
 20
40.5342482224
 30
0.0
 10
27.151292972
 20
40.8623036137
 30
0.0
 10
26.6120289657
 20
41.168432842
 30
0.0
 10
26.0606571767
 20
41.4521547082
 30
0.0
 10
25.498100464
 20
41.7129860672
 30
0.0
 10
24.9252828451
 20
41.9504393718
 30
0.0
 10
24.3431809675
 20
42.1641439391
 30
0.0
 10
23.7527699453
 20
42.3537261495
 30
0.0
 10
23.1550292645
 20
42.5188075592
 30
0.0
 10
22.5509488006
 20
42.6590053453
 30
0.0
 10
21.9415599296
 20
42.7740597088
 30
0.0
 10
21.3279027776
 20
42.86371681
 30
0.0
 10
20.7110296768
 20
42.9276985071
 30
0.0
 10
20.0920228137
 20
42.9658567828
 30
0.0
 10
19.4719743885
 20
42.9782734419
 30
0.0
 10
18.8519583954
 20
42.9650142991
 30
0.0
 10
18.2330375829
 20
42.926152493
 30
0.0
 10
17.616268174
 20
42.8617598453
 30
0.0
 10
17.0026874203
 20
42.7720381053
 30
0.0
 10
16.3933231238
 20
42.6571854972
 30
0.0
 10
15.7891998219
 20
42.5173964334
 30
0.0
 10
15.1913443629
 20
42.3528624357
 30
0.0
 10
14.6007520592
 20
42.1638992293
 30
0.0
 10
14.0184176269
 20
41.9508186618
 30
0.0
 10
13.4453409685
 20
41.7139307495
 30
0.0
 10
12.8825321061
 20
41.4535469218
 30
0.0
 10
12.3309562208
 20
41.1701014654
 30
0.0
 10
11.7915850559
 20
40.8640310986
 30
0.0
 10
11.2653992331
 20
40.5357816779
 30
0.0
 10
10.7533993847
 20
40.1858051516
 30
0.0
 10
10.2564141615
 20
39.8148222112
 30
0.0
 10
9.7752484482
 20
39.4235577066
 30
0.0
 10
9.3106976156
 20
39.0127289873
 30
0.0
 10
8.8635496378
 20
38.5830502573
 30
0.0
 10
8.4344965331
 20
38.1353258533
 30
0.0
 10
8.0242235393
 20
37.6703511995
 30
0.0
 10
7.6334144655
 20
37.1889160228
 30
0.0
 10
7.2627556673
 20
36.6918083858
 30
0.0
 10
6.9128314411
 20
36.17989401
 30
0.0
 10
6.5842273106
 20
35.6540340654
 30
0.0
 10
6.277533513
 20
35.1150901887
 30
0.0
 10
5.9933471318
 20
34.5639298947
 30
0.0
 10
5.7321542897
 20
34.0014885924
 30
0.0
 10
5.494445324
 20
33.4287057267
 30
0.0
 10
5.2807113434
 20
32.8465325862
 30
0.0
 10
5.0914608553
 20
32.2559328503
 30
0.0
 10
4.9270232668
 20
31.6579464807
 30
0.0
 10
4.7875706
 20
31.0536524127
 30
0.0
 10
4.673290226
 20
30.4441107665
 30
0.0
 10
4.5843579599
 20
29.8303768987
 30
0.0
 10
4.5208226958
 20
29.2135117319
 30
0.0
 10
4.4827173919
 20
28.5945811223
 30
0.0
 10
4.4743268683
 20
28.1812432381
 30
0.0
 10
4.474366187
 20
27.9746029895
 30
0.0
  0
SPLINE
  5
27D
100
AcDbEntity
  8
0
100
AcDbSpline
 62
7
  6
BYLAYER
 70
0
 71
3
 72
43
 73
39
 74
0
 42
0.0000001
 43
0.0000001
 44
0.0000000001
 40
0.0
 40
0.0
 40
0.0
 40
0.0
 40
0.0268982243
 40
0.0545024797
 40
0.0822391953
 40
0.1096079329
 40
0.1370856038
 40
0.1646330127
 40
0.1920355794
 40
0.2194065732
 40
0.2467966383
 40
0.2743290943
 40
0.3020907207
 40
0.3299330352
 40
0.3578324392
 40
0.3855168963
 40
0.4132471743
 40
0.4410510086
 40
0.4688199192
 40
0.4964989648
 40
0.524251028
 40
0.5520967635
 40
0.5800628548
 40
0.6080047409
 40
0.6361377323
 40
0.6645511184
 40
0.6929477134
 40
0.7211164016
 40
0.7488070447
 40
0.7764486268
 40
0.8042237633
 40
0.8321824949
 40
0.8601222345
 40
0.8878511307
 40
0.9155166501
 40
0.9439029202
 40
0.9722614209
 40
1.0
 40
1.0
 40
1.0
 40
1.0
 10
34.4714953055
 20
27.9746810026
 30
0.0
 10
34.4795854135
 20
28.8364803985
 30
0.0
 10
34.3398615943
 20
30.5880753677
 30
0.0
 10
33.6641130482
 20
33.1485427178
 30
0.0
 10
32.5510931205
 20
35.5680990753
 30
0.0
 10
31.0418487072
 20
37.7579531972
 30
0.0
 10
29.1688760003
 20
39.6389509884
 30
0.0
 10
26.9913943548
 20
41.1572204178
 30
0.0
 10
24.5915167058
 20
42.2813704106
 30
0.0
 10
22.0394259019
 20
42.9804711202
 30
0.0
 10
19.3987361724
 20
43.2136684574
 30
0.0
 10
16.7466551825
 20
42.9777817686
 30
0.0
 10
14.1597986292
 20
42.2904252869
 30
0.0
 10
11.7176759506
 20
41.1632448612
 30
0.0
 10
9.52182152
 20
39.6131582762
 30
0.0
 10
7.6370847603
 20
37.7040428197
 30
0.0
 10
6.1055002872
 20
35.5058499699
 30
0.0
 10
4.971288468
 20
33.0741608408
 30
0.0
 10
4.2945832763
 20
30.4790343465
 30
0.0
 10
4.0805515638
 20
27.8087723073
 30
0.0
 10
4.3206452321
 20
25.138585506
 30
0.0
 10
5.0165110416
 20
22.5385217918
 30
0.0
 10
6.173257614
 20
20.1009464502
 30
0.0
 10
7.7415409473
 20
17.895808318
 30
0.0
 10
9.6718869127
 20
15.9791927898
 30
0.0
 10
11.9190454847
 20
14.4174227897
 30
0.0
 10
14.415422716
 20
13.293280684
 30
0.0
 10
17.0454838488
 20
12.6280904822
 30
0.0
 10
19.7251979185
 20
12.4175629571
 30
0.0
 10
22.3904283553
 20
12.6636525421
 30
0.0
 10
24.9777303828
 20
13.3826475087
 30
0.0
 10
27.4117234882
 20
14.5368333501
 30
0.0
 10
29.6160788804
 20
16.082406624
 30
0.0
 10
31.5196750601
 20
17.974335795
 30
0.0
 10
33.0661654609
 20
20.1852041893
 30
0.0
 10
34.2201159477
 20
22.6460400679
 30
0.0
 10
34.9404636746
 20
25.2683853838
 30
0.0
 10
35.1145403463
 20
27.0680420757
 30
0.0
 10
35.1213717426
 20
27.9567787271
 30
0.0
  0
SPLINE
  5
27E
100
AcDbEntity
  8
0
100
AcDbSpline
 62
7
  6
BYLAYER
 70
0
 71
3
 72
17
 73
13
 74
0
 42
0.0000001
 43
0.0000001
 44
0.0000000001
 40
0.0
 40
0.0
 40
0.0
 40
0.0
 40
0.1006507272
 40
0.2010146487
 40
0.3007627684
 40
0.4011321811
 40
0.5024715031
 40
0.6030527915
 40
0.7020177727
 40
0.8019341981
 40
0.9018834972
 40
1.0
 40
1.0
 40
1.0
 40
1.0
 10
31.0197516968
 20
37.5480230508
 30
0.0
 10
30.4521712757
 20
38.1830627315
 30
0.0
 10
29.2073802001
 20
39.3567789099
 30
0.0
 10
27.0740937865
 20
40.7667224708
 30
0.0
 10
24.7324786123
 20
41.7899253407
 30
0.0
 10
22.2416839864
 20
42.3971528153
 30
0.0
 10
19.6754978252
 20
42.5619492438
 30
0.0
 10
17.1324768193
 20
42.2717963997
 30
0.0
 10
14.6914180648
 20
41.5448165411
 30
0.0
 10
12.4207641185
 20
40.4014428663
 30
0.0
 10
10.3946086431
 20
38.8787599168
 30
0.0
 10
9.2490146557
 20
37.6409774717
 30
0.0
 10
8.741562131
 20
36.9838285019
 30
0.0
  0
SPLINE
  5
27F
100
AcDbEntity
  8
0
100
AcDbSpline
 62
7
  6
BYLAYER
 70
0
 71
3
 72
257
 73
253
 74
0
 42
0.0000001
 43
0.0000001
 44
0.0000000001
 40
0.0
 40
0.0
 40
0.0
 40
0.0
 40
0.0031255311
 40
0.0062512247
 40
0.0093767379
 40
0.0125019208
 40
0.0165641493
 40
0.0185960873
 40
0.0206281125
 40
0.0246908421
 40
0.0287530484
 40
0.0328152582
 40
0.0368779938
 40
0.0409407298
 40
0.045002942
 40
0.0490651539
 40
0.0531278895
 40
0.0571906254
 40
0.0612528377
 40
0.06531505
 40
0.0693777856
 40
0.0734405211
 40
0.0775027329
 40
0.0815649449
 40
0.0856276805
 40
0.0896904161
 40
0.0937526282
 40
0.0978148403
 40
0.1018775759
 40
0.1059403115
 40
0.1100025235
 40
0.1140647355
 40
0.1181274711
 40
0.1221902068
 40
0.1262524188
 40
0.1303146308
 40
0.1343773664
 40
0.138440102
 40
0.1425023141
 40
0.1465645261
 40
0.1506272617
 40
0.1546899973
 40
0.1587522094
 40
0.1628144214
 40
0.166877157
 40
0.1709398926
 40
0.1750021047
 40
0.1790643167
 40
0.1831270523
 40
0.1871897879
 40
0.1912519999
 40
0.195314212
 40
0.1993769476
 40
0.2034396832
 40
0.2075018952
 40
0.2115641073
 40
0.2156268429
 40
0.2196895785
 40
0.2237517905
 40
0.2278140025
 40
0.2318767381
 40
0.2359394738
 40
0.2400016858
 40
0.2440638978
 40
0.2481266334
 40
0.252189369
 40
0.2562515811
 40
0.2603137931
 40
0.2643765287
 40
0.2684392643
 40
0.2725014764
 40
0.2765636884
 40
0.280626424
 40
0.2846891596
 40
0.2887513716
 40
0.2928135837
 40
0.2968763193
 40
0.3009390549
 40
0.3050012669
 40
0.309063479
 40
0.3131262146
 40
0.3171889502
 40
0.3212511622
 40
0.3253133743
 40
0.3293761099
 40
0.3334388455
 40
0.3375010575
 40
0.3415632695
 40
0.3456260051
 40
0.3496887408
 40
0.3537509528
 40
0.3578131648
 40
0.3618759004
 40
0.365938636
 40
0.3700008481
 40
0.3740630601
 40
0.3781257957
 40
0.3821885313
 40
0.3862507434
 40
0.3903129554
 40
0.394375691
 40
0.3984384266
 40
0.4025006386
 40
0.4065628507
 40
0.4106255863
 40
0.4146883219
 40
0.4187505339
 40
0.422812746
 40
0.4268754816
 40
0.4309382172
 40
0.4350004292
 40
0.4390626412
 40
0.4431253769
 40
0.4471881125
 40
0.4512503245
 40
0.4553125365
 40
0.4593752721
 40
0.4634380078
 40
0.4675002198
 40
0.4715624318
 40
0.4756251674
 40
0.479687903
 40
0.4837501151
 40
0.4878123271
 40
0.4918750627
 40
0.4959377983
 40
0.5000000104
 40
0.5040622224
 40
0.508124958
 40
0.5121876936
 40
0.5162499056
 40
0.5203121177
 40
0.5243748533
 40
0.5284375889
 40
0.5324998009
 40
0.536562013
 40
0.5406247486
 40
0.5446874842
 40
0.5487496962
 40
0.5528119082
 40
0.5568746439
 40
0.5609373795
 40
0.5649995915
 40
0.5690618035
 40
0.5731245391
 40
0.5771872748
 40
0.5812494868
 40
0.5853116988
 40
0.5893744344
 40
0.59343717
 40
0.5974993821
 40
0.6015615941
 40
0.6056243297
 40
0.6096870653
 40
0.6137492774
 40
0.6178114894
 40
0.621874225
 40
0.6259369606
 40
0.6299991726
 40
0.6340613847
 40
0.6381241203
 40
0.6421868559
 40
0.6462490679
 40
0.65031128
 40
0.6543740156
 40
0.6584367512
 40
0.6624989632
 40
0.6665611752
 40
0.6706239109
 40
0.6746866465
 40
0.6787488585
 40
0.6828110705
 40
0.6868738061
 40
0.6909365417
 40
0.6949987538
 40
0.6990609658
 40
0.7031237014
 40
0.707186437
 40
0.7112486491
 40
0.7153108611
 40
0.7193735967
 40
0.7234363323
 40
0.7274985444
 40
0.7315607564
 40
0.735623492
 40
0.7396862276
 40
0.7437484396
 40
0.7478106517
 40
0.7518733873
 40
0.7559361229
 40
0.7599983349
 40
0.764060547
 40
0.7681232826
 40
0.7721860182
 40
0.7762482302
 40
0.7803104422
 40
0.7843731779
 40
0.7884359135
 40
0.7924981255
 40
0.7965603375
 40
0.8006230731
 40
0.8046858087
 40
0.8087480208
 40
0.8128102328
 40
0.8168729684
 40
0.820935704
 40
0.8249979161
 40
0.8290601281
 40
0.8331228637
 40
0.8371855993
 40
0.8412478113
 40
0.8453100234
 40
0.849372759
 40
0.8534354946
 40
0.8574977066
 40
0.8615599187
 40
0.8656226543
 40
0.8696853899
 40
0.8737476019
 40
0.877809814
 40
0.8818725496
 40
0.8859352852
 40
0.8899974972
 40
0.8940597092
 40
0.8981224448
 40
0.9021851804
 40
0.9062473925
 40
0.9103096046
 40
0.9143723402
 40
0.9184350759
 40
0.9224972878
 40
0.9265594996
 40
0.9306222351
 40
0.9346849707
 40
0.938747183
 40
0.9428093954
 40
0.9468721312
 40
0.9509348668
 40
0.9549970787
 40
0.9590592909
 40
0.9631220269
 40
0.9671847625
 40
0.9712469723
 40
0.9753091786
 40
0.9793719082
 40
0.9814039334
 40
0.9834358714
 40
0.9874980999
 40
0.9906232776
 40
0.9937487857
 40
0.9968744741
 40
1.0
 40
1.0
 40
1.0
 40
1.0
 10
33.4159617561
 20
26.6074512601
 30
0.0
 10
33.3811338421
 20
26.2541714648
 30
0.0
 10
33.2846620042
 20
25.5502594741
 30
0.0
 10
33.0607318448
 20
24.5083219551
 30
0.0
 10
32.7588091618
 20
23.4862632604
 30
0.0
 10
32.3423384819
 20
22.3906774224
 30
0.0
 10
31.8844457555
 20
21.4471003011
 30
0.0
 10
31.4212141237
 20
20.6487288846
 30
0.0
 10
30.9193079057
 20
19.8739963697
 30
0.0
 10
30.2215736462
 20
18.9531598256
 30
0.0
 10
29.2798078645
 20
17.9361589419
 30
0.0
 10
28.2411340176
 20
17.0182547165
 30
0.0
 10
27.1171886779
 20
16.2070387602
 30
0.0
 10
25.9192201786
 20
15.5097521109
 30
0.0
 10
24.6584397092
 20
14.9337400485
 30
0.0
 10
23.3464308022
 20
14.4865369837
 30
0.0
 10
21.9967890929
 20
14.1706225253
 30
0.0
 10
20.6227021348
 20
13.9883592877
 30
0.0
 10
19.237340191
 20
13.9422049559
 30
0.0
 10
17.8542959721
 20
14.0346525408
 30
0.0
 10
16.4870711973
 20
14.2627557834
 30
0.0
 10
15.1487464565
 20
14.6236178696
 30
0.0
 10
13.8524228661
 20
15.1144363008
 30
0.0
 10
12.6116051314
 20
15.7322784943
 30
0.0
 10
11.4376195555
 20
16.4692266014
 30
0.0
 10
10.3414228474
 20
17.3175705594
 30
0.0
 10
9.3340269809
 20
18.2696794426
 30
0.0
 10
8.4267662991
 20
19.317646902
 30
0.0
 10
7.6270452218
 20
20.4498045154
 30
0.0
 10
6.9420070583
 20
21.6548179434
 30
0.0
 10
6.3788765904
 20
22.9214046056
 30
0.0
 10
5.9450700677
 20
24.2379036002
 30
0.0
 10
5.642928268
 20
25.5906951543
 30
0.0
 10
5.4746796279
 20
26.9665683519
 30
0.0
 10
5.4426477049
 20
28.3523286739
 30
0.0
 10
5.5491870953
 20
29.7343587282
 30
0.0
 10
5.7912139983
 20
31.0991875221
 30
0.0
 10
6.1656983573
 20
32.4337646544
 30
0.0
 10
6.6697042163
 20
33.7250182329
 30
0.0
 10
7.3001614437
 20
34.9594741433
 30
0.0
 10
8.0490371727
 20
36.1258873634
 30
0.0
 10
8.9085100808
 20
37.2133803419
 30
0.0
 10
9.8708374159
 20
38.2110194605
 30
0.0
 10
10.9279977247
 20
39.1075515525
 30
0.0
 10
12.0682477207
 20
39.8956915176
 30
0.0
 10
13.280180841
 20
40.5684119423
 30
0.0
 10
14.5524414479
 20
41.1186034168
 30
0.0
 10
15.8732936525
 20
41.5389689296
 30
0.0
 10
17.2290945303
 20
41.8273066441
 30
0.0
 10
18.6066111387
 20
41.9815228926
 30
0.0
 10
19.9926259625
 20
41.9994287247
 30
0.0
 10
21.3734983183
 20
41.8788084627
 30
0.0
 10
22.7357893451
 20
41.6228830512
 30
0.0
 10
24.0664802034
 20
41.2348154059
 30
0.0
 10
25.3525296046
 20
40.7176745659
 30
0.0
 10
26.5804954265
 20
40.0746678389
 30
0.0
 10
27.7392151063
 20
39.3139422896
 30
0.0
 10
28.8178913771
 20
38.4434297046
 30
0.0
 10
29.8056701069
 20
37.4709838749
 30
0.0
 10
30.6913804728
 20
36.4047405357
 30
0.0
 10
31.4678574467
 20
35.2565166173
 30
0.0
 10
32.1281902422
 20
34.0377897172
 30
0.0
 10
32.6653855617
 20
32.7599873462
 30
0.0
 10
33.0722663911
 20
31.4349191588
 30
0.0
 10
33.3467700645
 20
30.076249813
 30
0.0
 10
33.4869379003
 20
28.6972329039
 30
0.0
 10
33.490715782
 20
27.3111075711
 30
0.0
 10
33.3560271802
 20
25.9315363728
 30
0.0
 10
33.0862298484
 20
24.5719246423
 30
0.0
 10
32.6846192332
 20
23.2452583047
 30
0.0
 10
32.1543971381
 20
21.9645466897
 30
0.0
 10
31.4989077138
 20
20.7431985309
 30
0.0
 10
30.7264113766
 20
19.5922927715
 30
0.0
 10
29.8449495527
 20
18.5225452729
 30
0.0
 10
28.8624862566
 20
17.5447295528
 30
0.0
 10
27.7872706599
 20
16.6699329301
 30
0.0
 10
26.6311921088
 20
15.905199616
 30
0.0
 10
25.4057980433
 20
15.2573230521
 30
0.0
 10
24.12258666
 20
14.7331796973
 30
0.0
 10
22.793440152
 20
14.3398258223
 30
0.0
 10
21.4320434914
 20
14.0791847084
 30
0.0
 10
20.0516695486
 20
13.9530798474
 30
0.0
 10
18.6655777124
 20
13.9634303087
 30
0.0
 10
17.2874509962
 20
14.1121732574
 30
0.0
 10
15.930659813
 20
14.3958144801
 30
0.0
 10
14.6081558243
 20
14.8109263416
 30
0.0
 10
13.3329150497
 20
15.3541746066
 30
0.0
 10
12.1183114405
 20
16.022078629
 30
0.0
 10
10.97533917
 20
16.8062654988
 30
0.0
 10
9.9146315803
 20
17.6985849859
 30
0.0
 10
8.9468804559
 20
18.6909636796
 30
0.0
 10
8.0830884596
 20
19.775039829
 30
0.0
 10
7.3301782541
 20
20.9388529069
 30
0.0
 10
6.6948252301
 20
22.1707868308
 30
0.0
 10
6.1837882936
 20
23.4592739127
 30
0.0
 10
5.8040022389
 20
24.7923606553
 30
0.0
 10
5.5572507627
 20
26.1563431943
 30
0.0
 10
5.4452219776
 20
27.5379307627
 30
0.0
 10
5.4696997065
 20
28.9238451004
 30
0.0
 10
5.6324815491
 20
30.3003841599
 30
0.0
 10
5.929937195
 20
31.6542138378
 30
0.0
 10
6.3585071766
 20
32.9724180817
 30
0.0
 10
6.914725173
 20
34.2420555304
 30
0.0
 10
7.5949744045
 20
35.4497884039
 30
0.0
 10
8.3907703373
 20
36.5847084412
 30
0.0
 10
9.2938547838
 20
37.6362659244
 30
0.0
 10
10.2960457762
 20
38.5938519128
 30
0.0
 10
11.3888698529
 20
39.4465495427
 30
0.0
 10
12.5602965483
 20
40.1875584193
 30
0.0
 10
13.7986423441
 20
40.810321896
 30
0.0
 10
15.0922712627
 20
41.3081993222
 30
0.0
 10
16.4291597446
 20
41.6743781004
 30
0.0
 10
17.795586457
 20
41.9072143038
 30
0.0
 10
19.1782441169
 20
42.0051553742
 30
0.0
 10
20.5638369724
 20
41.9665529207
 30
0.0
 10
21.9386453656
 20
41.7897490957
 30
0.0
 10
23.2893728879
 20
41.4785099295
 30
0.0
 10
24.6031404378
 20
41.0365263523
 30
0.0
 10
25.867042657
 20
40.4673964103
 30
0.0
 10
27.0677793226
 20
39.7748726413
 30
0.0
 10
28.1945292192
 20
38.9675503212
 30
0.0
 10
29.2368273487
 20
38.0537947375
 30
0.0
 10
30.1841487169
 20
37.0418955646
 30
0.0
 10
31.0256633931
 20
35.9404370949
 30
0.0
 10
31.7546939568
 20
34.7615184824
 30
0.0
 10
32.364803187
 20
33.5168894674
 30
0.0
 10
32.8494693781
 20
32.218253108
 30
0.0
 10
33.2020028371
 20
30.877701777
 30
0.0
 10
33.4208995782
 20
29.5089728504
 30
0.0
 10
33.5047427587
 20
28.1253887442
 30
0.0
 10
33.452019591
 20
26.7402613211
 30
0.0
 10
33.2612121519
 20
25.367326424
 30
0.0
 10
32.9362218003
 20
24.0198413854
 30
0.0
 10
32.4808705454
 20
22.7106470176
 30
0.0
 10
31.8988877851
 20
21.4526113356
 30
0.0
 10
31.1941614254
 20
20.2589956233
 30
0.0
 10
30.3753965915
 20
19.1405329263
 30
0.0
 10
29.4510648011
 20
18.1076024354
 30
0.0
 10
28.4295625747
 20
17.1706441054
 30
0.0
 10
27.3195841434
 20
16.3403998085
 30
0.0
 10
26.1332960924
 20
15.6234232971
 30
0.0
 10
24.8825131634
 20
15.0260316982
 30
0.0
 10
23.5790042795
 20
14.5546270946
 30
0.0
 10
22.2349293704
 20
14.2157755795
 30
0.0
 10
20.8640404277
 20
14.0108410421
 30
0.0
 10
19.4796736167
 20
13.941104462
 30
0.0
 10
18.0951555279
 20
14.0079428664
 30
0.0
 10
16.724236762
 20
14.2127340966
 30
0.0
 10
15.3801341982
 20
14.5514418701
 30
0.0
 10
14.0756490258
 20
15.0201134959
 30
0.0
 10
12.8236105791
 20
15.6148886119
 30
0.0
 10
11.6372398257
 20
16.3317443478
 30
0.0
 10
10.5271805261
 20
17.1618666336
 30
0.0
 10
9.5037249858
 20
18.0966786011
 30
0.0
 10
8.5772270352
 20
19.1276777564
 30
0.0
 10
7.7583393722
 20
20.246060833
 30
0.0
 10
7.0534914003
 20
21.4395950782
 30
0.0
 10
6.4688794961
 20
22.6964019764
 30
0.0
 10
6.0107854545
 20
24.0046479623
 30
0.0
 10
5.685651087
 20
25.3521068128
 30
0.0
 10
5.4947000441
 20
26.7250133489
 30
0.0
 10
5.4390773093
 20
28.1100190418
 30
0.0
 10
5.5200240066
 20
29.4937839578
 30
0.0
 10
5.7387777518
 20
30.8625441667
 30
0.0
 10
6.0911677587
 20
32.203124616
 30
0.0
 10
6.5731110648
 20
33.5027650692
 30
0.0
 10
7.1806167449
 20
34.7486762054
 30
0.0
 10
7.9095273824
 20
35.927678747
 30
0.0
 10
8.750920878
 20
37.0292193243
 30
0.0
 10
9.6961159045
 20
38.0430935866
 30
0.0
 10
10.7365048774
 20
38.9590349033
 30
0.0
 10
11.8631764097
 20
39.7664808575
 30
0.0
 10
13.0638328519
 20
40.4591270627
 30
0.0
 10
14.3265331487
 20
41.0308985365
 30
0.0
 10
15.6393803221
 20
41.4756344244
 30
0.0
 10
16.9900831255
 20
41.7870178659
 30
0.0
 10
18.3648646229
 20
41.9639655763
 30
0.0
 10
19.7503653084
 20
42.005468687
 30
0.0
 10
21.1332332913
 20
41.9104221065
 30
0.0
 10
22.4996927419
 20
41.6777285726
 30
0.0
 10
23.8366118027
 20
41.3116929424
 30
0.0
 10
25.1312725161
 20
40.8165280255
 30
0.0
 10
26.3709269032
 20
40.1963548955
 30
0.0
 10
27.5424387457
 20
39.4554650835
 30
0.0
 10
28.6353461609
 20
38.602887791
 30
0.0
 10
29.639533813
 20
37.6474079026
 30
0.0
 10
30.544823338
 20
36.5977371987
 30
0.0
 10
31.3407436974
 20
35.4628942615
 30
0.0
 10
32.0211161764
 20
34.2552403592
 30
0.0
 10
32.579987818
 20
32.9867778465
 30
0.0
 10
33.0113193483
 20
31.6694658783
 30
0.0
 10
33.308919514
 20
30.3156594475
 30
0.0
 10
33.4718455086
 20
28.9391458159
 30
0.0
 10
33.4992246835
 20
27.5532940783
 30
0.0
 10
33.3900880942
 20
26.1714666956
 30
0.0
 10
33.1434789464
 20
24.8074499659
 30
0.0
 10
32.7638357205
 20
23.4743311869
 30
0.0
 10
32.2555006359
 20
22.1847847165
 30
0.0
 10
31.6227244862
 20
20.951515867
 30
0.0
 10
30.8699324712
 20
19.7876164329
 30
0.0
 10
30.0062599566
 20
18.7034557227
 30
0.0
 10
29.0405944718
 20
17.7090590065
 30
0.0
 10
27.981751088
 20
16.8145153244
 30
0.0
 10
26.8388546454
 20
16.0302032486
 30
0.0
 10
25.6243287471
 20
15.3621751802
 30
0.0
 10
24.3502358001
 20
14.8162614323
 30
0.0
 10
23.0285958935
 20
14.3983790709
 30
0.0
 10
21.6718264832
 20
14.114593099
 30
0.0
 10
20.2937237243
 20
13.9657057465
 30
0.0
 10
18.9076649117
 20
13.9524533519
 30
0.0
 10
17.5270216883
 20
14.0756686117
 30
0.0
 10
16.1655893881
 20
14.3361677532
 30
0.0
 10
14.8364093896
 20
14.7293791334
 30
0.0
 10
13.552111134
 20
15.2508315746
 30
0.0
 10
12.3253559474
 20
15.8961450042
 30
0.0
 10
11.1691898399
 20
16.6607610136
 30
0.0
 10
10.093888469
 20
17.5354390223
 30
0.0
 10
9.1093859972
 20
18.5111897801
 30
0.0
 10
8.2256810925
 20
19.5790958407
 30
0.0
 10
7.453058783
 20
20.7299270538
 30
0.0
 10
6.7974445269
 20
21.9511987712
 30
0.0
 10
6.2645453882
 20
23.2307897856
 30
0.0
 10
5.8601556104
 20
24.5566203213
 30
0.0
 10
5.5902133161
 20
25.9162117505
 30
0.0
 10
5.4553800752
 20
27.2957604609
 30
0.0
 10
5.4562558382
 20
28.6818823517
 30
0.0
 10
5.593536966
 20
30.061197991
 30
0.0
 10
5.86789903
 20
31.4199044401
 30
0.0
 10
6.2746377051
 20
32.7450075849
 30
0.0
 10
6.8091533248
 20
34.0239241956
 30
0.0
 10
7.4669369999
 20
35.2440382328
 30
0.0
 10
8.2432976032
 20
36.3923508195
 30
0.0
 10
9.1288902693
 20
37.4586810623
 30
0.0
 10
10.1146249385
 20
38.433187007
 30
0.0
 10
11.1914826907
 20
39.3059614619
 30
0.0
 10
12.3501289838
 20
40.0668140791
 30
0.0
 10
13.5780195517
 20
40.7099467322
 30
0.0
 10
14.8629756919
 20
41.2297759408
 30
0.0
 10
16.1928593753
 20
41.6206305709
 30
0.0
 10
17.555131671
 20
41.8766998589
 30
0.0
 10
18.9359840769
 20
41.9974633875
 30
0.0
 10
20.3220213699
 20
41.9824608228
 30
0.0
 10
21.6998780635
 20
41.8311252391
 30
0.0
 10
23.0556693425
 20
41.5429523862
 30
0.0
 10
24.1566192749
 20
41.1926920773
 30
0.0
 10
25.0133302384
 20
40.8489383189
 30
0.0
 10
25.8520646877
 20
40.4635748714
 30
0.0
 10
26.7701372234
 20
39.95648009
 30
0.0
 10
27.7419842592
 20
39.3012955927
 30
0.0
 10
28.5778452369
 20
38.6401647911
 30
0.0
 10
29.3614340067
 20
37.9178328876
 30
0.0
 10
29.8460225196
 20
37.3982453555
 30
0.0
 10
30.0781236131
 20
37.1296410702
 30
0.0
  0
SPLINE
  5
280
100
AcDbEntity
  8
0
100
AcDbSpline
 62
7
  6
BYLAYER
 70
0
 71
3
 72
11
 73
7
 74
0
 42
0.0000001
 43
0.0000001
 44
0.0000000001
 40
0.0
 40
0.0
 40
0.0
 40
0.0
 40
0.2363652422
 40
0.4834608997
 40
0.7333724841
 40
1.0
 40
1.0
 40
1.0
 40
1.0
 10
32.470200715
 20
22.9022187259
 30
0.0
 10
32.6095316517
 20
23.2589528707
 30
0.0
 10
32.8768852466
 20
23.9963076701
 30
0.0
 10
33.170275436
 20
25.1495190483
 30
0.0
 10
33.3829207758
 20
26.3696006193
 30
0.0
 10
33.4557197278
 20
27.2044663483
 30
0.0
 10
33.4788531966
 20
27.6358582097
 30
0.0
  0
SPLINE
  5
281
100
AcDbEntity
  8
0
100
AcDbSpline
 62
7
  6
BYLAYER
 70
0
 71
3
 72
12
 73
8
 74
0
 42
0.0000001
 43
0.0000001
 44
0.0000000001
 40
0.0
 40
0.0
 40
0.0
 40
0.0
 40
0.2184275908
 40
0.421510245
 40
0.6199069852
 40
0.8156189298
 40
1.0
 40
1.0
 40
1.0
 40
1.0
 10
29.7264822091
 20
18.4272890784
 30
0.0
 10
29.9796945728
 20
18.7162136113
 30
0.0
 10
30.4518586321
 20
19.288633211
 30
0.0
 10
31.0839325055
 20
20.1782549355
 30
0.0
 10
31.6288443262
 20
21.0770419939
 30
0.0
 10
32.0988496024
 20
21.9808076658
 30
0.0
 10
32.3522185292
 20
22.6001445769
 30
0.0
 10
32.470200715
 20
22.9022187259
 30
0.0
  0
SPLINE
  5
282
100
AcDbEntity
  8
0
100
AcDbSpline
 62
7
  6
BYLAYER
 70
0
 71
3
 72
13
 73
9
 74
0
 42
0.0000001
 43
0.0000001
 44
0.0000000001
 40
0.0
 40
0.0
 40
0.0
 40
0.0
 40
0.1688325437
 40
0.3361855701
 40
0.5017085956
 40
0.6684151949
 40
0.8340077823
 40
1.0
 40
1.0
 40
1.0
 40
1.0
 10
17.7516090213
 20
13.6778030507
 30
0.0
 10
18.5002278889
 20
13.6097758525
 30
0.0
 10
20.0041748357
 20
13.5904695276
 30
0.0
 10
22.22345429
 20
13.9127234657
 30
0.0
 10
24.3568120063
 20
14.573475606
 30
0.0
 10
26.3546470383
 20
15.554596865
 30
0.0
 10
28.1753369317
 20
16.8375453527
 30
0.0
 10
29.2388135387
 20
17.8719650405
 30
0.0
 10
29.7264822091
 20
18.4272890784
 30
0.0
  0
SPLINE
  5
283
100
AcDbEntity
  8
0
100
AcDbSpline
 62
7
  6
BYLAYER
 70
0
 71
3
 72
14
 73
10
 74
0
 42
0.0000001
 43
0.0000001
 44
0.0000000001
 40
0.0
 40
0.0
 40
0.0
 40
0.0
 40
0.1437576664
 40
0.288311966
 40
0.4332447862
 40
0.5762135101
 40
0.7173375953
 40
0.8588611254
 40
1.0
 40
1.0
 40
1.0
 40
1.0
 10
31.6072432819
 20
19.1578873806
 30
0.0
 10
31.1448306404
 20
18.5698351484
 30
0.0
 10
30.1281596918
 20
17.4574965066
 30
0.0
 10
28.366692593
 20
16.0370186907
 30
0.0
 10
26.4129280259
 20
14.9023725774
 30
0.0
 10
24.3263165588
 20
14.0846097059
 30
0.0
 10
22.1574408437
 20
13.5953937925
 30
0.0
 10
19.9495184048
 20
13.4400406633
 30
0.0
 10
18.4767378287
 20
13.561117418
 30
0.0
 10
17.7516090214
 20
13.6778030506
 30
0.0
  0
SPLINE
  5
284
100
AcDbEntity
  8
0
100
AcDbSpline
 62
7
  6
BYLAYER
 70
0
 71
3
 72
18
 73
14
 74
0
 42
0.0000001
 43
0.0000001
 44
0.0000000001
 40
0.0
 40
0.0
 40
0.0
 40
0.0
 40
0.0145021541
 40
0.1364972039
 40
0.2584921467
 40
0.3805028037
 40
0.441527967
 40
0.5025505104
 40
0.6245461205
 40
0.7184006604
 40
0.812265124
 40
0.9061350017
 40
1.0
 40
1.0
 40
1.0
 40
1.0
 10
5.7281009509
 20
30.6960260376
 30
0.0
 10
5.7387300965
 20
30.7498412044
 30
0.0
 10
5.8417405326
 20
31.2557758217
 30
0.0
 10
6.0896336457
 20
32.20284931
 30
0.0
 10
6.5727731723
 20
33.5019989485
 30
0.0
 10
7.0801061057
 20
34.5399711699
 30
0.0
 10
7.5453231204
 20
35.3372750333
 30
0.0
 10
8.0490773857
 20
36.1107167593
 30
0.0
 10
8.6848473964
 20
36.9448630452
 30
0.0
 10
9.4749745023
 20
37.8105739161
 30
0.0
 10
10.251119442
 20
38.5408891319
 30
0.0
 10
11.0801730157
 20
39.2105522427
 30
0.0
 10
11.6649778909
 20
39.6140397443
 30
0.0
 10
11.9646073019
 20
39.8044125717
 30
0.0
  0
SPLINE
  5
285
100
AcDbEntity
  8
0
100
AcDbSpline
 62
7
  6
BYLAYER
 70
0
 71
3
 72
258
 73
254
 74
0
 42
0.0000001
 43
0.0000001
 44
0.0000000001
 40
0.0
 40
0.0
 40
0.0
 40
0.0
 40
0.0030475445
 40
0.0060947973
 40
0.0101178888
 40
0.014141556
 40
0.0181652598
 40
0.0221884667
 40
0.0262116535
 40
0.0302353237
 40
0.0342589876
 40
0.038282153
 40
0.0423053218
 40
0.0463289914
 40
0.0503526616
 40
0.0543758328
 40
0.0583990037
 40
0.0624226734
 40
0.0664463433
 40
0.0704695146
 40
0.0744926857
 40
0.0785163554
 40
0.082540025
 40
0.0865631958
 40
0.0905863667
 40
0.0946100364
 40
0.0986337062
 40
0.1026568772
 40
0.1066800482
 40
0.1107037179
 40
0.1147273876
 40
0.1187505586
 40
0.1227737295
 40
0.1267973993
 40
0.130821069
 40
0.1348442399
 40
0.1388674109
 40
0.1428910806
 40
0.1469147504
 40
0.1509379213
 40
0.1549610923
 40
0.158984762
 40
0.1630084317
 40
0.1670316027
 40
0.1710547736
 40
0.1750784434
 40
0.1791021131
 40
0.1831252841
 40
0.187148455
 40
0.1911721247
 40
0.1951957945
 40
0.1992189654
 40
0.2032421364
 40
0.2072658061
 40
0.2112894758
 40
0.2153126468
 40
0.2193358178
 40
0.2233594875
 40
0.2273831572
 40
0.2314063282
 40
0.2354294991
 40
0.2394531688
 40
0.2434768386
 40
0.2475000095
 40
0.2515231805
 40
0.2555468502
 40
0.2595705199
 40
0.2635936909
 40
0.2676168619
 40
0.2716405316
 40
0.2756642013
 40
0.2796873723
 40
0.2837105432
 40
0.2877342129
 40
0.2917578827
 40
0.2957810536
 40
0.2998042246
 40
0.3038278943
 40
0.307851564
 40
0.311874735
 40
0.315897906
 40
0.3199215757
 40
0.3239452454
 40
0.3279684164
 40
0.3319915873
 40
0.336015257
 40
0.3400389268
 40
0.3440620977
 40
0.3480852687
 40
0.3521089384
 40
0.3561326081
 40
0.3601557791
 40
0.3641789501
 40
0.3682026198
 40
0.3722262895
 40
0.3762494605
 40
0.3802726314
 40
0.3842963011
 40
0.3883199709
 40
0.3923431418
 40
0.3963663128
 40
0.4003899825
 40
0.4044136522
 40
0.4084368232
 40
0.4124599942
 40
0.4164836639
 40
0.4205073336
 40
0.4245305046
 40
0.4285536755
 40
0.4325773453
 40
0.436601015
 40
0.4406241859
 40
0.4446473569
 40
0.4486710266
 40
0.4526946963
 40
0.4567178673
 40
0.4607410383
 40
0.464764708
 40
0.4687883777
 40
0.4728115487
 40
0.4768347196
 40
0.4808583894
 40
0.4848820591
 40
0.48890523
 40
0.492928401
 40
0.4969520707
 40
0.5009757404
 40
0.5049989114
 40
0.5090220824
 40
0.5130457521
 40
0.5170694218
 40
0.5210925928
 40
0.5251157637
 40
0.5291394335
 40
0.5331631032
 40
0.5371862741
 40
0.5412094451
 40
0.5452331148
 40
0.5492567845
 40
0.5532799555
 40
0.5573031265
 40
0.5613267962
 40
0.5653504659
 40
0.5693736369
 40
0.5733968078
 40
0.5774204776
 40
0.5814441473
 40
0.5854673182
 40
0.5894904892
 40
0.5935141589
 40
0.5975378286
 40
0.6015609996
 40
0.6055841706
 40
0.6096078403
 40
0.61363151
 40
0.617654681
 40
0.6216778519
 40
0.6257015217
 40
0.6297251914
 40
0.6337483623
 40
0.6377715333
 40
0.641795203
 40
0.6458188727
 40
0.6498420437
 40
0.6538652147
 40
0.6578888844
 40
0.6619125541
 40
0.6659357251
 40
0.669958896
 40
0.6739825658
 40
0.6780062355
 40
0.6820294064
 40
0.6860525774
 40
0.6900762471
 40
0.6940999168
 40
0.6981230878
 40
0.7021462588
 40
0.7061699285
 40
0.7101935982
 40
0.7142167692
 40
0.7182399401
 40
0.7222636099
 40
0.7262872796
 40
0.7303104506
 40
0.7343336215
 40
0.7383572912
 40
0.742380961
 40
0.7464041319
 40
0.7504273029
 40
0.7544509726
 40
0.7584746423
 40
0.7624978133
 40
0.7665209843
 40
0.770544654
 40
0.7745683237
 40
0.7785914947
 40
0.7826146656
 40
0.7866383353
 40
0.7906620051
 40
0.794685176
 40
0.798708347
 40
0.8027320167
 40
0.8067556864
 40
0.8107788574
 40
0.8148020284
 40
0.8188256981
 40
0.8228493678
 40
0.8268725388
 40
0.8308957097
 40
0.8349193794
 40
0.8389430492
 40
0.8429662201
 40
0.8469893911
 40
0.8510130608
 40
0.8550367305
 40
0.8590599015
 40
0.8630830725
 40
0.8671067422
 40
0.8711304119
 40
0.8751535829
 40
0.8791767538
 40
0.8832004236
 40
0.8872240933
 40
0.8912472642
 40
0.8952704352
 40
0.8992941049
 40
0.9033177746
 40
0.9073409456
 40
0.9113641166
 40
0.9153877864
 40
0.9194114561
 40
0.923434627
 40
0.9274577978
 40
0.9314814674
 40
0.9355051371
 40
0.9395283082
 40
0.9435514795
 40
0.9475751494
 40
0.9515988191
 40
0.95562199
 40
0.9596451612
 40
0.9636688314
 40
0.967692501
 40
0.9717156699
 40
0.9757388352
 40
0.9797624991
 40
0.9817749719
 40
0.9837873616
 40
0.9878105484
 40
0.9908576288
 40
0.9939050144
 40
0.9969525751
 40
1.0
 40
1.0
 40
1.0
 40
1.0
 10
31.6540838591
 20
34.8950530008
 30
0.0
 10
31.8251426194
 20
34.5941339602
 30
0.0
 10
32.1450548075
 20
33.9797507739
 30
0.0
 10
32.5991003591
 20
32.9232838976
 30
0.0
 10
32.9946770314
 20
31.7250425376
 30
0.0
 10
33.2959066453
 20
30.3857683066
 30
0.0
 10
33.4658570571
 20
29.0235527598
 30
0.0
 10
33.5022214043
 20
27.6512559062
 30
0.0
 10
33.4026815399
 20
26.2820925163
 30
0.0
 10
33.1701569968
 20
24.9291651679
 30
0.0
 10
32.8075203295
 20
23.6051681126
 30
0.0
 10
32.3175547009
 20
22.3228157095
 30
0.0
 10
31.7031687726
 20
21.0952059823
 30
0.0
 10
30.9720566265
 20
19.9333320449
 30
0.0
 10
30.1317141488
 20
18.8478361529
 30
0.0
 10
29.1895626387
 20
17.8494128231
 30
0.0
 10
28.1532856642
 20
16.9490637065
 30
0.0
 10
27.0341906773
 20
16.1540145459
 30
0.0
 10
25.8432674938
 20
15.4712416488
 30
0.0
 10
24.5914568473
 20
14.9077980382
 30
0.0
 10
23.2900589197
 20
14.4709205194
 30
0.0
 10
21.9522824355
 20
14.1629744508
 30
0.0
 10
20.5909474324
 20
13.9862158441
 30
0.0
 10
19.2188578464
 20
13.9429903464
 30
0.0
 10
17.8492200754
 20
14.0356763313
 30
0.0
 10
16.4951461598
 20
14.261420673
 30
0.0
 10
15.1693471556
 20
14.6174174748
 30
0.0
 10
13.8845534409
 20
15.1009498383
 30
0.0
 10
12.6538798734
 20
15.7091775842
 30
0.0
 10
11.4883581434
 20
16.4344608326
 30
0.0
 10
10.3986672896
 20
17.2693563481
 30
0.0
 10
9.3955381636
 20
18.2064957913
 30
0.0
 10
8.490009983
 20
19.2382501702
 30
0.0
 10
7.6893651608
 20
20.3533486214
 30
0.0
 10
7.0006351646
 20
21.5408365933
 30
0.0
 10
6.4309279309
 20
22.7898089964
 30
0.0
 10
5.9875369913
 20
24.0890021574
 30
0.0
 10
5.6728937738
 20
25.4252193308
 30
0.0
 10
5.4893184231
 20
26.7856519013
 30
0.0
 10
5.4392206396
 20
28.1575077989
 30
0.0
 10
5.5250448706
 20
29.5275926844
 30
0.0
 10
5.7440037223
 20
30.8827803872
 30
0.0
 10
6.0933550173
 20
32.2103459643
 30
0.0
 10
6.570445672
 20
33.4975455991
 30
0.0
 10
7.1725012453
 20
34.7312503771
 30
0.0
 10
7.8919372096
 20
35.9003904807
 30
0.0
 10
8.721363912
 20
36.9942497194
 30
0.0
 10
9.6534668538
 20
38.0020604648
 30
0.0
 10
10.6806724333
 20
38.9127454213
 30
0.0
 10
11.7917464062
 20
39.71896581
 30
0.0
 10
12.9757695803
 20
40.4136353802
 30
0.0
 10
14.221872608
 20
40.9895916607
 30
0.0
 10
15.5188284912
 20
41.4394847918
 30
0.0
 10
16.8534528299
 20
41.7608172727
 30
0.0
 10
18.2129487907
 20
41.951204828
 30
0.0
 10
19.5845365345
 20
42.008173711
 30
0.0
 10
20.9550341317
 20
41.9292134134
 30
0.0
 10
22.3113016141
 20
41.7170455441
 30
0.0
 10
23.6406004626
 20
41.3743485061
 30
0.0
 10
24.9301737312
 20
40.9037115148
 30
0.0
 10
26.1668787726
 20
40.307843213
 30
0.0
 10
27.3396079168
 20
39.5942725838
 30
0.0
 10
28.4376080922
 20
38.7703355088
 30
0.0
 10
29.4500751667
 20
37.8432924594
 30
0.0
 10
30.365894047
 20
36.820661455
 30
0.0
 10
31.1776697731
 20
35.7136398386
 30
0.0
 10
31.8782614879
 20
34.5331111699
 30
0.0
 10
32.4604523651
 20
33.2899087829
 30
0.0
 10
32.9168364001
 20
31.9952227186
 30
0.0
 10
33.2448500817
 20
30.6622247016
 30
0.0
 10
33.4420450644
 20
29.3036994617
 30
0.0
 10
33.5058836172
 20
27.9324142865
 30
0.0
 10
33.4337892341
 20
26.5615383649
 30
0.0
 10
33.2284176707
 20
25.204225133
 30
0.0
 10
32.8923834883
 20
23.8732263663
 30
0.0
 10
32.4282119693
 20
22.5813118206
 30
0.0
 10
31.8385458901
 20
21.3416375458
 30
0.0
 10
31.1308585
 20
20.165348786
 30
0.0
 10
30.3124317259
 20
19.0632352238
 30
0.0
 10
29.3904718291
 20
18.0461372239
 30
0.0
 10
28.3724410587
 20
17.1252073987
 30
0.0
 10
27.2694995752
 20
16.3078967035
 30
0.0
 10
26.0924950325
 20
15.6014004225
 30
0.0
 10
24.8522244793
 20
15.0129895564
 30
0.0
 10
23.5598407188
 20
14.5501260687
 30
0.0
 10
22.2285024698
 20
14.2154394165
 30
0.0
 10
20.8709820375
 20
14.0114419542
 30
0.0
 10
19.5000338378
 20
13.9407353333
 30
0.0
 10
18.1288139884
 20
14.005961993
 30
0.0
 10
16.7704890633
 20
14.2045320975
 30
0.0
 10
15.4378237746
 20
14.5338949929
 30
0.0
 10
14.143600367
 20
14.9915893931
 30
0.0
 10
12.9009879635
 20
15.5750384545
 30
0.0
 10
11.7211691024
 20
16.2768248488
 30
0.0
 10
10.6149698064
 20
17.089720787
 30
0.0
 10
9.5932664012
 20
18.0065743981
 30
0.0
 10
8.667248738
 20
19.0199793912
 30
0.0
 10
7.8444235809
 20
20.118813068
 30
0.0
 10
7.1320404603
 20
21.2922639524
 30
0.0
 10
6.5374243692
 20
22.5295715523
 30
0.0
 10
6.0680930424
 20
23.8196205817
 30
0.0
 10
5.7267418172
 20
25.1492656583
 30
0.0
 10
5.5159469939
 20
26.5057472214
 30
0.0
 10
5.438374079
 20
27.8763240472
 30
0.0
 10
5.4967313787
 20
29.2478534191
 30
0.0
 10
5.688495042
 20
30.6071559557
 30
0.0
 10
6.0111783863
 20
31.9414543286
 30
0.0
 10
6.4623841836
 20
33.2379541246
 30
0.0
 10
7.0396015879
 20
34.4834734784
 30
0.0
 10
7.735469378
 20
35.6667928382
 30
0.0
 10
8.5428140838
 20
36.7770501122
 30
0.0
 10
9.4545384046
 20
37.8033332873
 30
0.0
 10
10.463292193
 20
38.7344155537
 30
0.0
 10
11.5579904923
 20
39.5627345273
 30
0.0
 10
12.7278582754
 20
40.280986613
 30
0.0
 10
13.9621718767
 20
40.8817930097
 30
0.0
 10
15.2498538064
 20
41.3575803996
 30
0.0
 10
16.5777723483
 20
41.705587633
 30
0.0
 10
17.9331810068
 20
41.9231745283
 30
0.0
 10
19.3033520696
 20
42.0076117907
 30
0.0
 10
20.6751565511
 20
41.9561253153
 30
0.0
 10
22.0354025929
 20
41.7711729048
 30
0.0
 10
23.3713005711
 20
41.455177208
 30
0.0
 10
24.6700442251
 20
41.0104713347
 30
0.0
 10
25.918439278
 20
40.4395000706
 30
0.0
 10
27.1052294457
 20
39.7495683447
 30
0.0
 10
28.2195168404
 20
38.9477951283
 30
0.0
 10
29.2503540349
 20
38.0412229739
 30
0.0
 10
30.1864775428
 20
37.0371457008
 30
0.0
 10
31.0202695495
 20
35.9466102461
 30
0.0
 10
31.7443725787
 20
34.7803549174
 30
0.0
 10
32.3513542062
 20
33.5490662849
 30
0.0
 10
32.8335857212
 20
32.263783764
 30
0.0
 10
33.1882402309
 20
30.9376250755
 30
0.0
 10
33.4126137388
 20
29.5833233301
 30
0.0
 10
33.5039132302
 20
28.2135924093
 30
0.0
 10
33.4592988708
 20
26.8415472382
 30
0.0
 10
33.2811623538
 20
25.480391821
 30
0.0
 10
32.9718622331
 20
24.1429277565
 30
0.0
 10
32.533667442
 20
22.8419728312
 30
0.0
 10
31.9689566442
 20
21.5907334027
 30
0.0
 10
31.2849782937
 20
20.4005022048
 30
0.0
 10
30.4887966839
 20
19.282212648
 30
0.0
 10
29.5873994427
 20
18.2468472989
 30
0.0
 10
28.5880238782
 20
17.3057060377
 30
0.0
 10
27.5016786306
 20
16.4664619185
 30
0.0
 10
26.3390650189
 20
15.7365261143
 30
0.0
 10
25.1108322494
 20
15.1233844858
 30
0.0
 10
23.8279813864
 20
14.6347209454
 30
0.0
 10
22.5036158258
 20
14.2734280579
 30
0.0
 10
21.1504549744
 20
14.0422735672
 30
0.0
 10
19.7811985634
 20
13.9441141377
 30
0.0
 10
18.4089471287
 20
13.9818552615
 30
0.0
 10
17.0469164888
 20
14.1531714155
 30
0.0
 10
15.7079198963
 20
14.4557681993
 30
0.0
 10
14.404786342
 20
14.8874409136
 30
0.0
 10
13.1507339327
 20
15.4458770759
 30
0.0
 10
11.9570915687
 20
16.1238848894
 30
0.0
 10
10.8348279087
 20
16.9144549155
 30
0.0
 10
9.7949603833
 20
17.8106546266
 30
0.0
 10
8.848824983
 20
18.8053034072
 30
0.0
 10
8.0041498088
 20
19.8874311901
 30
0.0
 10
7.2683995443
 20
21.0463739139
 30
0.0
 10
6.6491132991
 20
22.2715200027
 30
0.0
 10
6.1540299943
 20
23.5519070199
 30
0.0
 10
5.7861077943
 20
24.8744462229
 30
0.0
 10
5.5481781207
 20
26.2264322283
 30
0.0
 10
5.4431612159
 20
27.5951797734
 30
0.0
 10
5.4740281573
 20
28.9676030407
 30
0.0
 10
5.6385196498
 20
30.3304747285
 30
0.0
 10
5.9344055043
 20
31.6709702524
 30
0.0
 10
6.3595453106
 20
32.9762497388
 30
0.0
 10
6.9116928257
 20
34.2330836634
 30
0.0
 10
7.5837130903
 20
35.430107244
 30
0.0
 10
8.3686516966
 20
36.5563168483
 30
0.0
 10
9.259631391
 20
37.6006604588
 30
0.0
 10
10.249528431
 20
38.5517662587
 30
0.0
 10
11.3274115976
 20
39.4018512942
 30
0.0
 10
12.4826543543
 20
40.1433975582
 30
0.0
 10
13.7046830225
 20
40.7688128816
 30
0.0
 10
14.9825740677
 20
41.2703035287
 30
0.0
 10
16.3032537292
 20
41.6448458097
 30
0.0
 10
17.654030966
 20
41.8895446963
 30
0.0
 10
19.022235302
 20
42.0014164414
 30
0.0
 10
20.3947959663
 20
41.977424457
 30
0.0
 10
21.7584745063
 20
41.8197617533
 30
0.0
 10
23.1004353272
 20
41.5305942521
 30
0.0
 10
24.407827995
 20
41.111998021
 30
0.0
 10
25.6674118998
 20
40.566153007
 30
0.0
 10
26.8677866623
 20
39.9001371529
 30
0.0
 10
27.9979139534
 20
39.1208496613
 30
0.0
 10
29.0467074453
 20
38.2351123392
 30
0.0
 10
30.0027597807
 20
37.2499918773
 30
0.0
 10
30.8582333481
 20
36.176380372
 30
0.0
 10
31.6055570055
 20
35.0248665686
 30
0.0
 10
32.2370857148
 20
33.805985983
 30
0.0
 10
32.7449711212
 20
32.5306229733
 30
0.0
 10
33.1261240856
 20
31.2118359904
 30
0.0
 10
33.3775860455
 20
29.8623014146
 30
0.0
 10
33.4963098239
 20
28.4946746172
 30
0.0
 10
33.4791933984
 20
27.1220109947
 30
0.0
 10
33.3283634395
 20
25.7575598186
 30
0.0
 10
33.0459215471
 20
24.4141673719
 30
0.0
 10
32.6338793941
 20
23.1046943265
 30
0.0
 10
32.094350577
 20
21.8423920457
 30
0.0
 10
31.4343558444
 20
20.6386962197
 30
0.0
 10
30.6607390207
 20
19.5046795979
 30
0.0
 10
29.7802662947
 20
18.4514625398
 30
0.0
 10
28.7999471286
 20
17.4904876572
 30
0.0
 10
27.7306342228
 20
16.6296470227
 30
0.0
 10
26.5828782651
 20
15.876564723
 30
0.0
 10
25.367176345
 20
15.2389384735
 30
0.0
 10
24.0943733709
 20
14.7246710511
 30
0.0
 10
22.7775121562
 20
14.3369169669
 30
0.0
 10
21.4292541026
 20
14.0786982431
 30
0.0
 10
20.0622391591
 20
13.9531254102
 30
0.0
 10
18.6895070201
 20
13.9633658469
 30
0.0
 10
17.3243174435
 20
14.1073592764
 30
0.0
 10
15.9795270777
 20
14.3830684733
 30
0.0
 10
14.66800651
 20
14.7885462102
 30
0.0
 10
13.4030175248
 20
15.3217452941
 30
0.0
 10
12.1960308366
 20
15.975702346
 30
0.0
 10
11.0581533381
 20
16.7436290908
 30
0.0
 10
10.0005391423
 20
17.6188151264
 30
0.0
 10
9.0346658279
 20
18.5943083965
 30
0.0
 10
8.1684797288
 20
19.6592958707
 30
0.0
 10
7.4096576817
 20
20.803265186
 30
0.0
 10
6.7659498833
 20
22.0157579451
 30
0.0
 10
6.2453133321
 20
23.285968958
 30
0.0
 10
5.8509678415
 20
24.6008713713
 30
0.0
 10
5.5859988315
 20
25.947819069
 30
0.0
 10
5.4535801217
 20
27.3141878336
 30
0.0
 10
5.4569443847
 20
28.6869540035
 30
0.0
 10
5.5940977399
 20
30.0528476864
 30
0.0
 10
5.8630673322
 20
31.3990022321
 30
0.0
 10
6.2619703728
 20
32.7125374989
 30
0.0
 10
6.7888260562
 20
33.980181646
 30
0.0
 10
7.4367287735
 20
35.1904291148
 30
0.0
 10
8.1989461462
 20
36.3321389716
 30
0.0
 10
9.0688240404
 20
37.3941234809
 30
0.0
 10
10.0394677087
 20
38.364870042
 30
0.0
 10
11.1001047481
 20
39.2363792121
 30
0.0
 10
12.2402550856
 20
40.0009209531
 30
0.0
 10
13.4495193953
 20
40.6506984302
 30
0.0
 10
14.7170550915
 20
41.1776832162
 30
0.0
 10
15.8113555364
 20
41.511845635
 30
0.0
 10
16.7028396848
 20
41.7144827732
 30
0.0
 10
17.6030502781
 20
41.8735202078
 30
0.0
 10
18.630953024
 20
41.9783350239
 30
0.0
 10
19.7806626894
 20
41.9950660216
 30
0.0
 10
20.8178596451
 20
41.933189314
 30
0.0
 10
21.8476969353
 20
41.7951374633
 30
0.0
 10
22.5256340955
 20
41.6528584857
 30
0.0
 10
22.8615139025
 20
41.5692951642
 30
0.0
  0
SPLINE
  5
286
100
AcDbEntity
  8
0
100
AcDbSpline
 62
7
  6
BYLAYER
 70
0
 71
3
 72
10
 73
6
 74
0
 42
0.0000001
 43
0.0000001
 44
0.0000000001
 40
0.0
 40
0.0
 40
0.0
 40
0.0
 40
0.3270984371
 40
0.6556916515
 40
1.0
 40
1.0
 40
1.0
 40
1.0
 10
8.741562131
 20
36.9838285019
 30
0.0
 10
8.7249396799
 20
36.9620352195
 30
0.0
 10
8.6919593151
 20
36.9180876937
 30
0.0
 10
8.6427794934
 20
36.8502399399
 30
0.0
 10
8.6103122617
 20
36.8041377406
 30
0.0
 10
8.5938612068
 20
36.7804365148
 30
0.0
  0
SPLINE
  5
287
100
AcDbEntity
  8
0
100
AcDbSpline
 62
7
  6
BYLAYER
 70
0
 71
3
 72
244
 73
240
 74
0
 42
0.0000001
 43
0.0000001
 44
0.0000000001
 40
0.0
 40
0.0
 40
0.0
 40
0.0
 40
0.0042192186
 40
0.0084383832
 40
0.0126576167
 40
0.0168770433
 40
0.021096681
 40
0.0253163597
 40
0.0295358721
 40
0.0337552103
 40
0.0379744305
 40
0.0421936308
 40
0.0464129122
 40
0.050632396
 40
0.0548520616
 40
0.0590717174
 40
0.0632911862
 40
0.0675104919
 40
0.071729692
 40
0.0759488933
 40
0.0801681954
 40
0.0843877166
 40
0.0886073961
 40
0.0928270283
 40
0.0970464637
 40
0.101265749
 40
0.1054849405
 40
0.1097041543
 40
0.1139234875
 40
0.1181430494
 40
0.1223627364
 40
0.12658234
 40
0.1308017414
 40
0.1350210072
 40
0.1392401918
 40
0.1434594209
 40
0.1476787876
 40
0.1518983872
 40
0.1561180732
 40
0.1603376456
 40
0.1645570147
 40
0.1687762633
 40
0.1729954441
 40
0.177214692
 40
0.1814340947
 40
0.1856537279
 40
0.1898734042
 40
0.1940929439
 40
0.1983122827
 40
0.2025315167
 40
0.2067506971
 40
0.2109699679
 40
0.2151894085
 40
0.2194090702
 40
0.2236287288
 40
0.2278482352
 40
0.2320675459
 40
0.2362867678
 40
0.2405059512
 40
0.2447252485
 40
0.2489447282
 40
0.2531644119
 40
0.2573840469
 40
0.26160352
 40
0.265822805
 40
0.2700420174
 40
0.2742612075
 40
0.2784805349
 40
0.2827000534
 40
0.2869197521
 40
0.2911393588
 40
0.2953587994
 40
0.299578061
 40
0.3037972667
 40
0.3080164673
 40
0.3122358281
 40
0.3164553842
 40
0.3206750897
 40
0.3248946649
 40
0.3291140741
 40
0.3333333149
 40
0.3375525167
 40
0.3417717317
 40
0.3459911288
 40
0.3502107196
 40
0.3544304232
 40
0.3586499648
 40
0.3628693441
 40
0.3670885669
 40
0.3713077677
 40
0.3755270013
 40
0.3797464368
 40
0.3839660581
 40
0.3881857508
 40
0.3924052579
 40
0.3966246091
 40
0.4008438166
 40
0.4050630196
 40
0.4092822757
 40
0.4135017511
 40
0.4177213975
 40
0.4219410719
 40
0.4261605443
 40
0.4303798695
 40
0.4345990645
 40
0.4388182729
 40
0.4430375555
 40
0.4472570713
 40
0.4514767364
 40
0.4556963867
 40
0.459915825
 40
0.4641351263
 40
0.4683543116
 40
0.472573529
 40
0.4767928419
 40
0.4810123972
 40
0.4852320739
 40
0.4894516957
 40
0.4936711009
 40
0.4978903806
 40
0.5021095594
 40
0.5063287892
 40
0.5105481359
 40
0.5147677287
 40
0.518987409
 40
0.5232069991
 40
0.5274263729
 40
0.5316456332
 40
0.5358648085
 40
0.5400840547
 40
0.544303438
 40
0.5485230647
 40
0.5527427398
 40
0.5569622963
 40
0.5611816406
 40
0.565400884
 40
0.5696200592
 40
0.5738393253
 40
0.5780587476
 40
0.5822784033
 40
0.5864980651
 40
0.5907175869
 40
0.5949369038
 40
0.5991561328
 40
0.6033753114
 40
0.6075946013
 40
0.6118140639
 40
0.6160337427
 40
0.6202533844
 40
0.6244728714
 40
0.6286921633
 40
0.6329113805
 40
0.637130566
 40
0.6413498833
 40
0.6455693866
 40
0.6497890815
 40
0.6540086981
 40
0.6582281508
 40
0.6624474202
 40
0.6666666281
 40
0.6708858244
 40
0.6751051724
 40
0.6793247156
 40
0.6835444189
 40
0.6877640067
 40
0.6919834261
 40
0.6962026754
 40
0.7004218769
 40
0.7046410878
 40
0.7088604697
 40
0.7130800505
 40
0.7172997536
 40
0.7215193101
 40
0.7257386976
 40
0.7299579295
 40
0.7341771275
 40
0.7383963571
 40
0.7426157753
 40
0.7468353898
 40
0.7510550838
 40
0.7552746076
 40
0.7594939649
 40
0.7637131821
 40
0.7679323797
 40
0.7721516321
 40
0.7763710883
 40
0.7805907316
 40
0.7848104084
 40
0.789029899
 40
0.7932492281
 40
0.7974684333
 40
0.8016876337
 40
0.8059069127
 40
0.8101264078
 40
0.8143460737
 40
0.818565727
 40
0.8227851848
 40
0.8270044879
 40
0.8312236841
 40
0.8354428909
 40
0.8396622004
 40
0.8438817343
 40
0.848101416
 40
0.8523210408
 40
0.8565404665
 40
0.8607597457
 40
0.8649789355
 40
0.8691981522
 40
0.8734174957
 40
0.8776370667
 40
0.8818567563
 40
0.886076349
 40
0.8902957435
 40
0.8945150007
 40
0.8987341863
 40
0.9029534152
 40
0.9071727939
 40
0.9113923977
 40
0.9156120871
 40
0.9198316483
 40
0.9240510179
 40
0.9282702615
 40
0.9324894538
 40
0.9367087093
 40
0.9409281372
 40
0.9451477767
 40
0.9493674529
 40
0.9535869658
 40
0.9578062906
 40
0.9620254967
 40
0.9662446663
 40
0.9704639118
 40
0.9746833501
 40
0.9789029997
 40
0.983122674
 40
0.9873421884
 40
0.9915615308
 40
0.9957807642
 40
1.0
 40
1.0
 40
1.0
 40
1.0
 10
17.4220791188
 20
41.8331267767
 30
0.0
 10
17.8285659724
 20
41.8931460668
 30
0.0
 10
18.6472559365
 20
41.9775385398
 30
0.0
 10
19.8813020744
 20
41.996116095
 30
0.0
 10
21.1123326842
 20
41.9063594689
 30
0.0
 10
22.3308149546
 20
41.7091845588
 30
0.0
 10
23.5271550119
 20
41.4049708673
 30
0.0
 10
24.6918095912
 20
40.9958962456
 30
0.0
 10
25.8158732302
 20
40.4858949739
 30
0.0
 10
26.8909671599
 20
39.879526846
 30
0.0
 10
27.9086626355
 20
39.181149615
 30
0.0
 10
28.8613463526
 20
38.3964115288
 30
0.0
 10
29.7415149588
 20
37.5310893616
 30
0.0
 10
30.5425393286
 20
36.5919418554
 30
0.0
 10
31.2571875111
 20
35.5854290739
 30
0.0
 10
31.8799382391
 20
34.5196343907
 30
0.0
 10
32.4065338969
 20
33.4032611656
 30
0.0
 10
32.8334383268
 20
32.245142257
 30
0.0
 10
33.1570246408
 20
31.0540442037
 30
0.0
 10
33.3751603474
 20
29.8392040877
 30
0.0
 10
33.4858626329
 20
28.6098791859
 30
0.0
 10
33.4883569432
 20
27.3755110455
 30
0.0
 10
33.3812119246
 20
26.1457482825
 30
0.0
 10
33.1658467188
 20
24.9302939698
 30
0.0
 10
32.8445330284
 20
23.738517904
 30
0.0
 10
32.4202110566
 20
22.5794566455
 30
0.0
 10
31.8957885163
 20
21.4621385707
 30
0.0
 10
31.275626042
 20
20.3949808644
 30
0.0
 10
30.5641929966
 20
19.3863272363
 30
0.0
 10
29.7669132936
 20
18.4439630995
 30
0.0
 10
28.8889674625
 20
17.576202866
 30
0.0
 10
27.9379663403
 20
16.7892590297
 30
0.0
 10
26.9215771789
 20
16.0888972976
 30
0.0
 10
25.8478483973
 20
15.4801574438
 30
0.0
 10
24.7248433529
 20
14.9680289172
 30
0.0
 10
23.5613338988
 20
14.5561046977
 30
0.0
 10
22.3661201662
 20
14.2478655841
 30
0.0
 10
21.1483578963
 20
14.0458997059
 30
0.0
 10
19.9174337732
 20
13.9530796981
 30
0.0
 10
18.6831709995
 20
13.9689426131
 30
0.0
 10
17.4551136111
 20
14.0930812787
 30
0.0
 10
16.2426633809
 20
14.3241856065
 30
0.0
 10
15.0551893052
 20
14.6608170173
 30
0.0
 10
13.9017060645
 20
15.1000470588
 30
0.0
 10
12.7911796778
 20
15.6388517005
 30
0.0
 10
11.7323788325
 20
16.2734383789
 30
0.0
 10
10.7342091704
 20
16.9996843027
 30
0.0
 10
9.8037547412
 20
17.8107852165
 30
0.0
 10
8.9480957438
 20
18.7003725919
 30
0.0
 10
8.1735887026
 20
19.6613994343
 30
0.0
 10
7.4864150207
 20
20.6866844656
 30
0.0
 10
6.8915698702
 20
21.7681739082
 30
0.0
 10
6.3939556355
 20
22.8977731704
 30
0.0
 10
5.9980010424
 20
24.066959806
 30
0.0
 10
5.7074817175
 20
25.2666908612
 30
0.0
 10
5.523378277
 20
26.4872283489
 30
0.0
 10
5.447063186
 20
27.7191688336
 30
0.0
 10
5.4788695385
 20
28.9530298552
 30
0.0
 10
5.6188168768
 20
30.1793395794
 30
0.0
 10
5.8655352896
 20
31.3887224691
 30
0.0
 10
6.2175659864
 20
32.5718222866
 30
0.0
 10
6.6729198258
 20
33.7191851711
 30
0.0
 10
7.2282207626
 20
34.8216247897
 30
0.0
 10
7.8780164026
 20
35.87107656
 30
0.0
 10
8.617332487
 20
36.8594577243
 30
0.0
 10
9.4403209769
 20
37.7792987928
 30
0.0
 10
10.3408307605
 20
38.6234011104
 30
0.0
 10
11.3117821993
 20
39.385471192
 30
0.0
 10
12.3460416364
 20
40.0592619643
 30
0.0
 10
13.4359945451
 20
40.6387408657
 30
0.0
 10
14.572921177
 20
41.1194734108
 30
0.0
 10
15.7475470762
 20
41.4987050494
 30
0.0
 10
16.9508687879
 20
41.7734555084
 30
0.0
 10
18.1736033468
 20
41.9417795387
 30
0.0
 10
19.4063974496
 20
42.0022206453
 30
0.0
 10
20.6397852859
 20
41.9545064452
 30
0.0
 10
21.8642648008
 20
41.7983982129
 30
0.0
 10
23.0700845831
 20
41.5342216907
 30
0.0
 10
24.2478221868
 20
41.1646098732
 30
0.0
 10
25.3886008037
 20
40.6932634753
 30
0.0
 10
26.4836233783
 20
40.1237169883
 30
0.0
 10
27.5245416004
 20
39.4604678408
 30
0.0
 10
28.5033091078
 20
38.7084981216
 30
0.0
 10
29.4124946452
 20
37.8736730699
 30
0.0
 10
30.2445972992
 20
36.9618870212
 30
0.0
 10
30.9924566216
 20
35.9798038362
 30
0.0
 10
31.6508296129
 20
34.9356787914
 30
0.0
 10
32.2151918301
 20
33.837944668
 30
0.0
 10
32.6811197016
 20
32.6949848634
 30
0.0
 10
33.0451388151
 20
31.5156206406
 30
0.0
 10
33.3043786783
 20
30.3088683689
 30
0.0
 10
33.4568962475
 20
29.083991823
 30
0.0
 10
33.5006396349
 20
27.8503558035
 30
0.0
 10
33.4347109388
 20
26.6177090472
 30
0.0
 10
33.2605979551
 20
25.3956977193
 30
0.0
 10
32.9801330625
 20
24.1936799553
 30
0.0
 10
32.5953721171
 20
23.0209076022
 30
0.0
 10
32.1093586746
 20
21.8863580222
 30
0.0
 10
31.5257692398
 20
20.7987484592
 30
0.0
 10
30.8490381738
 20
19.7664429374
 30
0.0
 10
30.0835705612
 20
18.7980180324
 30
0.0
 10
29.2352675052
 20
17.9012878584
 30
0.0
 10
28.311498548
 20
17.0825970351
 30
0.0
 10
27.3196083594
 20
16.347992177
 30
0.0
 10
26.2671577506
 20
15.7031854646
 30
0.0
 10
25.1622684987
 20
15.1530621489
 30
0.0
 10
24.0133945121
 20
14.7018660167
 30
0.0
 10
22.8292934993
 20
14.3532105395
 30
0.0
 10
21.6188905959
 20
14.1108850175
 30
0.0
 10
20.3918205507
 20
13.9766571712
 30
0.0
 10
19.157759781
 20
13.9506518493
 30
0.0
 10
17.9262083003
 20
14.0328444651
 30
0.0
 10
16.7066238529
 20
14.2226753415
 30
0.0
 10
15.508360474
 20
14.5186264376
 30
0.0
 10
14.3406040507
 20
14.9184468338
 30
0.0
 10
13.2124259433
 20
15.4193511185
 30
0.0
 10
12.1331292545
 20
16.0184487292
 30
0.0
 10
11.1110218855
 20
16.7105380085
 30
0.0
 10
10.1535942732
 20
17.4895724718
 30
0.0
 10
9.2681301105
 20
18.3494639702
 30
0.0
 10
8.4614544889
 20
19.2836441077
 30
0.0
 10
7.7397281171
 20
20.2849141052
 30
0.0
 10
7.108489873
 20
21.3456100396
 30
0.0
 10
6.573007645
 20
22.4578068385
 30
0.0
 10
6.1384373433
 20
23.6132043089
 30
0.0
 10
5.8074666748
 20
24.802372979
 30
0.0
 10
5.5820179735
 20
26.0159282904
 30
0.0
 10
5.4637828668
 20
27.2445322211
 30
0.0
 10
5.4536732922
 20
28.478758369
 30
0.0
 10
5.5517504946
 20
29.7091330871
 30
0.0
 10
5.7572773904
 20
30.9262307379
 30
0.0
 10
6.0693321175
 20
32.1205387846
 30
0.0
 10
6.4862473396
 20
33.2824185636
 30
0.0
 10
7.0038159859
 20
34.4030255701
 30
0.0
 10
7.6175585565
 20
35.4739344107
 30
0.0
 10
8.3227832487
 20
36.4868974115
 30
0.0
 10
9.1140456797
 20
37.4341675127
 30
0.0
 10
9.9852865719
 20
38.3084634323
 30
0.0
 10
10.9298520359
 20
39.1030689942
 30
0.0
 10
11.9409913657
 20
39.8111422909
 30
0.0
 10
13.0109770979
 20
40.426687065
 30
0.0
 10
14.1308890124
 20
40.945734365
 30
0.0
 10
15.2919200112
 20
41.3646799713
 30
0.0
 10
16.4851782492
 20
41.6802134865
 30
0.0
 10
17.701486859
 20
41.8900058659
 30
0.0
 10
18.9315225856
 20
41.9923883554
 30
0.0
 10
20.1658658469
 20
41.9865180362
 30
0.0
 10
21.3948989044
 20
41.8713555833
 30
0.0
 10
22.6088775286
 20
41.647753422
 30
0.0
 10
23.7984591506
 20
41.3183817711
 30
0.0
 10
24.9545922436
 20
40.8861223532
 30
0.0
 10
26.0683378064
 20
40.3541541174
 30
0.0
 10
27.1312182809
 20
39.7266915747
 30
0.0
 10
28.1350233186
 20
39.0084540663
 30
0.0
 10
29.0719889725
 20
38.2048564921
 30
0.0
 10
29.9339874259
 20
37.3212555389
 30
0.0
 10
30.7144586724
 20
36.3649183611
 30
0.0
 10
31.4079187284
 20
35.343800156
 30
0.0
 10
32.0093006472
 20
34.265924339
 30
0.0
 10
32.5138083937
 20
33.1394758469
 30
0.0
 10
32.9177574901
 20
31.9731757156
 30
0.0
 10
33.2178917654
 20
30.7759152135
 30
0.0
 10
33.4117132243
 20
29.5568413489
 30
0.0
 10
33.4964375891
 20
28.3253324571
 30
0.0
 10
33.472176241
 20
27.0911929844
 30
0.0
 10
33.3397016246
 20
25.8640009177
 30
0.0
 10
33.1003194935
 20
24.6531506057
 30
0.0
 10
32.7556360655
 20
23.4679903985
 30
0.0
 10
32.3085336684
 20
22.3175387117
 30
0.0
 10
31.7622265655
 20
21.2107009996
 30
0.0
 10
31.1206374407
 20
20.1561387206
 30
0.0
 10
30.3877925878
 20
19.1627988358
 30
0.0
 10
29.5703692439
 20
18.2378768703
 30
0.0
 10
28.6749789845
 20
17.388284029
 30
0.0
 10
27.7086887149
 20
16.6203434964
 30
0.0
 10
26.6787562667
 20
15.9401597354
 30
0.0
 10
25.5932369041
 20
15.3527091273
 30
0.0
 10
24.4603111134
 20
14.8627577136
 30
0.0
 10
23.288546809
 20
14.47451637
 30
0.0
 10
22.0868968473
 20
14.1920107266
 30
0.0
 10
20.8651231289
 20
14.0162138696
 30
0.0
 10
19.6326861453
 20
13.9482919586
 30
0.0
 10
18.3990645569
 20
13.9884957011
 30
0.0
 10
17.1737402149
 20
14.136795099
 30
0.0
 10
15.9660707426
 20
14.3917429206
 30
0.0
 10
14.7853923296
 20
14.751752461
 30
0.0
 10
13.641044556
 20
15.214623277
 30
0.0
 10
12.5423549444
 20
15.777325458
 30
0.0
 10
11.4973356568
 20
16.4342470588
 30
0.0
 10
10.5140168933
 20
17.1802911913
 30
0.0
 10
9.5997857823
 20
18.0095142799
 30
0.0
 10
8.7618531736
 20
18.9157621379
 30
0.0
 10
8.0064040863
 20
19.8918652063
 30
0.0
 10
7.3396035475
 20
20.9306250039
 30
0.0
 10
6.7672765362
 20
22.0243501064
 30
0.0
 10
6.2942384696
 20
23.1645097519
 30
0.0
 10
5.9229905241
 20
24.3416944783
 30
0.0
 10
5.6564649751
 20
25.5468692148
 30
0.0
 10
5.4964404605
 20
26.7707215628
 30
0.0
 10
5.444430847
 20
28.0038952115
 30
0.0
 10
5.5005078776
 20
29.2369224979
 30
0.0
 10
5.6648252146
 20
30.4603115724
 30
0.0
 10
5.9369024202
 20
31.6643761627
 30
0.0
 10
6.314510722
 20
32.8395845943
 30
0.0
 10
6.7935895058
 20
33.9771484725
 30
0.0
 10
7.3706135528
 20
35.0682537268
 30
0.0
 10
8.0409021422
 20
36.104656415
 30
0.0
 10
8.7995534926
 20
37.0782468659
 30
0.0
 10
9.6405025815
 20
37.9817566586
 30
0.0
 10
10.5578138081
 20
38.8077438495
 30
0.0
 10
11.5448004359
 20
39.5491294657
 30
0.0
 10
12.5933999627
 20
40.2003703741
 30
0.0
 10
13.6949416849
 20
40.7572851831
 30
0.0
 10
14.8410682896
 20
41.2153764601
 30
0.0
 10
16.0228710342
 20
41.5714046655
 30
0.0
 10
17.2313660822
 20
41.8223609345
 30
0.0
 10
18.4572307673
 20
41.9666121023
 30
0.0
 10
19.6911185563
 20
42.0021623667
 30
0.0
 10
20.9233117608
 20
41.9280945131
 30
0.0
 10
22.1441144056
 20
41.7456330101
 30
0.0
 10
23.3442173493
 20
41.4570401631
 30
0.0
 10
24.5143290453
 20
41.0642492481
 30
0.0
 10
25.6455708885
 20
40.5705793452
 30
0.0
 10
26.7291464318
 20
39.9795444852
 30
0.0
 10
27.7568693081
 20
39.2958937186
 30
0.0
 10
28.7201805954
 20
38.5240115609
 30
0.0
 10
29.6112403225
 20
37.6697401968
 30
0.0
 10
30.4235697262
 20
36.7403655254
 30
0.0
 10
31.1514551263
 20
35.7435281133
 30
0.0
 10
31.7890175132
 20
34.6866763386
 30
0.0
 10
32.3316523524
 20
33.578096784
 30
0.0
 10
32.774935238
 20
32.426163371
 30
0.0
 10
33.1156894795
 20
31.2397859441
 30
0.0
 10
33.3500706311
 20
30.0278282009
 30
0.0
 10
33.4761820598
 20
28.7998796945
 30
0.0
 10
33.4937319066
 20
27.5656600211
 30
0.0
 10
33.4032239048
 20
26.3346534747
 30
0.0
 10
33.205004748
 20
25.116474734
 30
0.0
 10
33.0023257877
 20
24.3187803045
 30
0.0
 10
32.8836668429
 20
23.9253907858
 30
0.0
  0
SPLINE
  5
288
100
AcDbEntity
  8
0
100
AcDbSpline
 62
7
  6
BYLAYER
 70
0
 71
3
 72
31
 73
27
 74
0
 42
0.0000001
 43
0.0000001
 44
0.0000000001
 40
0.0
 40
0.0
 40
0.0
 40
0.0
 40
0.1118579075
 40
0.2102760682
 40
0.2971077336
 40
0.3740653784
 40
0.442560963
 40
0.5037596105
 40
0.5586285662
 40
0.6080072018
 40
0.65256437
 40
0.6929157226
 40
0.729659634
 40
0.7631500711
 40
0.7936990062
 40
0.8216093376
 40
0.84711956
 40
0.8704383276
 40
0.8918342694
 40
0.9114974622
 40
0.9295849714
 40
0.9462048415
 40
0.9614753246
 40
0.9755948072
 40
0.9884559469
 40
1.0
 40
1.0
 40
1.0
 40
1.0
 10
17.4217688602
 20
41.8348123828
 30
0.0
 10
17.0392623798
 20
41.7733697899
 30
0.0
 10
16.3245861741
 20
41.6285168081
 30
0.0
 10
15.3332949684
 20
41.3495121827
 30
0.0
 10
14.47732286
 20
41.0442673846
 30
0.0
 10
13.73681339
 20
40.7287482643
 30
0.0
 10
13.0941866044
 20
40.4129516626
 30
0.0
 10
12.5344415987
 20
40.1038229787
 30
0.0
 10
12.0449639861
 20
39.8056181818
 30
0.0
 10
11.6152395815
 20
39.5209092848
 30
0.0
 10
11.2364448367
 20
39.2509096363
 30
0.0
 10
10.9009574111
 20
38.995921777
 30
0.0
 10
10.6025056358
 20
38.7558138372
 30
0.0
 10
10.3360546004
 20
38.5302803589
 30
0.0
 10
10.0976750807
 20
38.31907648
 30
0.0
 10
9.88396146
 20
38.1218095824
 30
0.0
 10
9.6920783757
 20
37.9378893902
 30
0.0
 10
9.5191790664
 20
37.7668171817
 30
0.0
 10
9.3631993646
 20
37.6074801983
 30
0.0
 10
9.2218243796
 20
37.4592293647
 30
0.0
 10
9.0935335205
 20
37.3213777299
 30
0.0
 10
8.9768083397
 20
37.1935651332
 30
0.0
 10
8.8699206741
 20
37.0753649901
 30
0.0
 10
8.7740518446
 20
36.9648199017
 30
0.0
 10
8.6850351495
 20
36.865364623
 30
0.0
 10
8.6239121525
 20
36.8068085574
 30
0.0
 10
8.5938612068
 20
36.7804365148
 30
0.0
  0
SPLINE
  5
289
100
AcDbEntity
  8
0
100
AcDbSpline
 62
7
  6
BYLAYER
 70
0
 71
3
 72
10
 73
6
 74
0
 42
0.0000001
 43
0.0000001
 44
0.0000000001
 40
0.0
 40
0.0
 40
0.0
 40
0.0
 40
0.3331464586
 40
0.6664706832
 40
1.0
 40
1.0
 40
1.0
 40
1.0
 10
19.4719883663
 20
17.0819502936
 30
0.0
 10
19.5200564179
 20
17.0811581575
 30
0.0
 10
19.6162460661
 20
17.0812937408
 30
0.0
 10
19.7605221136
 20
17.0841510676
 30
0.0
 10
19.8567042592
 20
17.0876287656
 30
0.0
 10
19.9047602262
 20
17.0902941413
 30
0.0
  0
SPLINE
  5
28A
100
AcDbEntity
  8
0
100
AcDbSpline
 62
7
  6
BYLAYER
 70
0
 71
3
 72
15
 73
11
 74
0
 42
0.0000001
 43
0.0000001
 44
0.0000000001
 40
0.0
 40
0.0
 40
0.0
 40
0.0
 40
0.1250701883
 40
0.2511603031
 40
0.3766392009
 40
0.4995157938
 40
0.6230120759
 40
0.7479830523
 40
0.8738395041
 40
1.0
 40
1.0
 40
1.0
 40
1.0
 10
13.6377643546
 20
23.0746661644
 30
0.0
 10
13.6310887477
 20
22.6880503998
 30
0.0
 10
13.6954783677
 20
21.9081619218
 30
0.0
 10
14.021229919
 20
20.7824424297
 30
0.0
 10
14.5605248669
 20
19.7494477432
 30
0.0
 10
15.2837393992
 20
18.8466203174
 30
0.0
 10
16.1671735759
 20
18.1020805591
 30
0.0
 10
17.1857505176
 20
17.5373318754
 30
0.0
 10
18.3020442628
 20
17.1781370329
 30
0.0
 10
19.081997074
 20
17.0883771439
 30
0.0
 10
19.4719883663
 20
17.0819502934
 30
0.0
  0
SPLINE
  5
28B
100
AcDbEntity
  8
0
100
AcDbSpline
 62
7
  6
BYLAYER
 70
0
 71
3
 72
15
 73
11
 74
0
 42
0.0000001
 43
0.0000001
 44
0.0000000001
 40
0.0
 40
0.0
 40
0.0
 40
0.0
 40
0.1245559488
 40
0.2491362715
 40
0.3733034427
 40
0.4970474102
 40
0.6214849452
 40
0.7475899068
 40
0.8735554606
 40
1.0
 40
1.0
 40
1.0
 40
1.0
 10
19.4719883663
 20
28.7505359471
 30
0.0
 10
19.097283493
 20
28.7573149122
 30
0.0
 10
18.3443565426
 20
28.6956324677
 30
0.0
 10
17.2580823259
 20
28.3837044151
 30
0.0
 10
16.255536372
 20
27.8667629558
 30
0.0
 10
15.3722395265
 20
27.1660525811
 30
0.0
 10
14.6392031197
 20
26.3017183588
 30
0.0
 10
14.0837497259
 20
25.3059217406
 30
0.0
 10
13.7324255866
 20
24.2151980945
 30
0.0
 10
13.6443324956
 20
23.4550580778
 30
0.0
 10
13.6377643546
 20
23.0746661644
 30
0.0
  0
SPLINE
  5
28C
100
AcDbEntity
  8
0
100
AcDbSpline
 62
7
  6
BYLAYER
 70
0
 71
3
 72
14
 73
10
 74
0
 42
0.0000001
 43
0.0000001
 44
0.0000000001
 40
0.0
 40
0.0
 40
0.0
 40
0.0
 40
0.143082856
 40
0.2872274724
 40
0.4303472018
 40
0.5707664875
 40
0.7121887133
 40
0.8557965838
 40
1.0
 40
1.0
 40
1.0
 40
1.0
 10
24.9892284834
 20
23.0746661655
 30
0.0
 10
24.997099718
 20
23.4930427102
 30
0.0
 10
24.9157370352
 20
24.3378202175
 30
0.0
 10
24.5113843411
 20
25.5405883197
 30
0.0
 10
23.8521188827
 20
26.616290335
 30
0.0
 10
22.9755857295
 20
27.5114833467
 30
0.0
 10
21.9237988979
 20
28.195224127
 30
0.0
 10
20.7364949835
 20
28.6328986885
 30
0.0
 10
19.8936470645
 20
28.7429075227
 30
0.0
 10
19.4719883663
 20
28.7505359519
 30
0.0
  0
SPLINE
  5
28D
100
AcDbEntity
  8
0
100
AcDbSpline
 62
7
  6
BYLAYER
 70
0
 71
3
 72
16
 73
12
 74
0
 42
0.0000001
 43
0.0000001
 44
0.0000000001
 40
0.0
 40
0.0
 40
0.0
 40
0.0
 40
0.1111110507
 40
0.221096248
 40
0.3313040618
 40
0.4424486714
 40
0.5541668404
 40
0.6656782241
 40
0.7769166675
 40
0.8882329669
 40
1.0
 40
1.0
 40
1.0
 40
1.0
 10
19.4719883663
 20
17.6856243756
 30
0.0
 10
19.6612684126
 20
17.6841906917
 30
0.0
 10
20.0382659812
 20
17.7026100952
 30
0.0
 10
20.5975444488
 20
17.7849050109
 30
0.0
 10
21.1450943081
 20
17.9264110743
 30
0.0
 10
21.677856061
 20
18.1244960014
 30
0.0
 10
22.18937728
 20
18.3774634427
 30
0.0
 10
22.672232124
 20
18.6818534313
 30
0.0
 10
23.1206407287
 20
19.0339955421
 30
0.0
 10
23.5300216412
 20
19.431343449
 30
0.0
 10
23.7746988676
 20
19.7231951904
 30
0.0
 10
23.8891330448
 20
19.8753731022
 30
0.0
  0
SPLINE
  5
28E
100
AcDbEntity
  8
0
100
AcDbSpline
 62
7
  6
BYLAYER
 70
0
 71
3
 72
93
 73
89
 74
0
 42
0.0000001
 43
0.0000001
 44
0.0000000001
 40
0.0
 40
0.0
 40
0.0
 40
0.0
 40
0.0118092611
 40
0.0235091871
 40
0.0351284916
 40
0.0466803076
 40
0.0583614569
 40
0.0700527156
 40
0.0817458617
 40
0.0934210489
 40
0.1050148929
 40
0.1165992725
 40
0.1282589015
 40
0.1399402769
 40
0.151554606
 40
0.1631037401
 40
0.1746319271
 40
0.1861704034
 40
0.19778041
 40
0.2094856744
 40
0.2211758628
 40
0.2328505204
 40
0.2445219191
 40
0.2561437634
 40
0.2676919741
 40
0.2792732573
 40
0.2909407334
 40
0.3026432288
 40
0.3143505851
 40
0.325996789
 40
0.3376075568
 40
0.3492589633
 40
0.3609119391
 40
0.372483591
 40
0.3839911648
 40
0.3955007242
 40
0.4070730164
 40
0.4187093345
 40
0.4304073063
 40
0.4421180495
 40
0.4537940419
 40
0.4654112017
 40
0.4769624915
 40
0.4884534249
 40
0.4999137138
 40
0.5113750573
 40
0.5228676867
 40
0.534421758
 40
0.5460424855
 40
0.5577180121
 40
0.5694234176
 40
0.5811110082
 40
0.592732515
 40
0.6043013673
 40
0.615824629
 40
0.6273246723
 40
0.6388335955
 40
0.6504310798
 40
0.662082423
 40
0.6737251471
 40
0.6853587515
 40
0.6969471186
 40
0.7084961364
 40
0.7200834172
 40
0.7317075483
 40
0.7433566435
 40
0.7552021263
 40
0.7670133002
 40
0.7787611093
 40
0.7903864787
 40
0.801930539
 40
0.8136115049
 40
0.8253305581
 40
0.8370367139
 40
0.8487504983
 40
0.8604689498
 40
0.8721641393
 40
0.8838092942
 40
0.895442552
 40
0.9070588389
 40
0.9186746081
 40
0.9302639138
 40
0.9418764418
 40
0.9535220909
 40
0.9651604152
 40
0.9767816918
 40
0.9883945236
 40
1.0
 40
1.0
 40
1.0
 40
1.0
 10
14.7491405179
 20
20.3478977367
 30
0.0
 10
14.9570968988
 20
19.9887348446
 30
0.0
 10
15.4527879033
 20
19.3171393048
 30
0.0
 10
16.4018812815
 20
18.5115977094
 30
0.0
 10
17.4983774716
 20
17.9415649271
 30
0.0
 10
18.6934879575
 20
17.6295150101
 30
0.0
 10
19.9309076566
 20
17.5939140029
 30
0.0
 10
21.1498508369
 20
17.8362358892
 30
0.0
 10
22.2831670704
 20
18.3463960273
 30
0.0
 10
23.2693354438
 20
19.0967588546
 30
0.0
 10
24.0618108083
 20
20.044168199
 30
0.0
 10
24.6222333173
 20
21.1444514139
 30
0.0
 10
24.9231134943
 20
22.3451108613
 30
0.0
 10
24.9491439307
 20
23.5838422475
 30
0.0
 10
24.6961910899
 20
24.7927439206
 30
0.0
 10
24.1834443504
 20
25.9099471635
 30
0.0
 10
23.4385880025
 20
26.8846789782
 30
0.0
 10
22.4930261023
 20
27.6696765996
 30
0.0
 10
21.3916953911
 20
28.2287128266
 30
0.0
 10
20.1876775012
 20
28.5291805668
 30
0.0
 10
18.9447332427
 20
28.5492003946
 30
0.0
 10
17.7299693009
 20
28.2919031713
 30
0.0
 10
16.6058457125
 20
27.7695392575
 30
0.0
 10
15.6317515619
 20
27.01065483
 30
0.0
 10
14.8515795827
 20
26.0578822859
 30
0.0
 10
14.3026731008
 20
24.9534311292
 30
0.0
 10
14.0135938352
 20
23.7489062362
 30
0.0
 10
14.0003006901
 20
22.505622026
 30
0.0
 10
14.2685947309
 20
21.2921923524
 30
0.0
 10
14.8002101663
 20
20.1729264324
 30
0.0
 10
15.5662322623
 20
19.2013132072
 30
0.0
 10
16.5316002158
 20
18.4269240546
 30
0.0
 10
17.6437680684
 20
17.8876901745
 30
0.0
 10
18.8432421862
 20
17.6108788663
 30
0.0
 10
20.0689260593
 20
17.6086883013
 30
0.0
 10
21.2650783739
 20
17.875771334
 30
0.0
 10
22.376486309
 20
18.4039502236
 30
0.0
 10
23.3466163885
 20
19.1716163433
 30
0.0
 10
24.1247473416
 20
20.1398459184
 30
0.0
 10
24.6647193553
 20
21.2602987879
 30
0.0
 10
24.9382386971
 20
22.4703505441
 30
0.0
 10
24.9360329924
 20
23.7053142305
 30
0.0
 10
24.658434519
 20
24.9019283008
 30
0.0
 10
24.1260423446
 20
26.002344663
 30
0.0
 10
23.3671586328
 20
26.9568712786
 30
0.0
 10
22.4151337007
 20
27.7190029689
 30
0.0
 10
21.3162788968
 20
28.2550597548
 30
0.0
 10
20.1203139992
 20
28.5366865221
 30
0.0
 10
18.885138913
 20
28.5428482493
 30
0.0
 10
17.6743220139
 20
28.2731332162
 30
0.0
 10
16.552625655
 20
27.7371057462
 30
0.0
 10
15.5826449658
 20
26.9629070246
 30
0.0
 10
14.8121497986
 20
25.9963681622
 30
0.0
 10
14.2797369223
 20
24.8871669123
 30
0.0
 10
14.008256354
 20
23.691869785
 30
0.0
 10
14.0059927265
 20
22.4682104031
 30
0.0
 10
14.2765264134
 20
21.271988581
 30
0.0
 10
14.8078945133
 20
20.1607972758
 30
0.0
 10
15.5758888513
 20
19.1914148717
 30
0.0
 10
16.5436774146
 20
18.419342907
 30
0.0
 10
17.6568498022
 20
17.8832190684
 30
0.0
 10
18.8583178491
 20
17.6088558443
 30
0.0
 10
20.0889111911
 20
17.6103903763
 30
0.0
 10
21.2899480365
 20
17.8839453735
 30
0.0
 10
22.4031648674
 20
18.4202576942
 30
0.0
 10
23.3744676167
 20
19.1985331484
 30
0.0
 10
24.1511005024
 20
20.1801522053
 30
0.0
 10
24.6847253604
 20
21.3163743602
 30
0.0
 10
24.9454251372
 20
22.53593555
 30
0.0
 10
24.9277563471
 20
23.7733710389
 30
0.0
 10
24.6336211265
 20
24.9729540746
 30
0.0
 10
24.0784612076
 20
26.0799956886
 30
0.0
 10
23.2859226427
 20
27.0395063485
 30
0.0
 10
22.2954430081
 20
27.7948274121
 30
0.0
 10
21.161326646
 20
28.3093718171
 30
0.0
 10
19.9406805836
 20
28.5559019371
 30
0.0
 10
18.698517967
 20
28.5197286666
 30
0.0
 10
17.4987082327
 20
28.2087346121
 30
0.0
 10
16.4013316126
 20
27.6380432337
 30
0.0
 10
15.4608303583
 20
26.8366685407
 30
0.0
 10
14.7221894273
 20
25.8480453213
 30
0.0
 10
14.2237533638
 20
24.7191100998
 30
0.0
 10
13.9895002859
 20
23.5066043247
 30
0.0
 10
14.0303680595
 20
22.270409137
 30
0.0
 10
14.348679274
 20
21.0748170369
 30
0.0
 10
14.9249081254
 20
19.9815180352
 30
0.0
 10
15.7282866006
 20
19.0442087994
 30
0.0
 10
16.3922995458
 20
18.5561603959
 30
0.0
 10
16.7452561429
 20
18.3517779773
 30
0.0
  0
SPLINE
  5
28F
100
AcDbEntity
  8
0
100
AcDbSpline
 62
7
  6
BYLAYER
 70
0
 71
3
 72
12
 73
8
 74
0
 42
0.0000001
 43
0.0000001
 44
0.0000000001
 40
0.0
 40
0.0
 40
0.0
 40
0.0
 40
0.1967664876
 40
0.3947197982
 40
0.5966095132
 40
0.7997666896
 40
1.0
 40
1.0
 40
1.0
 40
1.0
 10
16.5918521883
 20
18.0861231351
 30
0.0
 10
16.2431504425
 20
18.2791819092
 30
0.0
 10
15.5822268378
 20
18.7412362299
 30
0.0
 10
14.7508039647
 20
19.6297491357
 30
0.0
 10
14.1153031915
 20
20.6837050436
 30
0.0
 10
13.7123927744
 20
21.8509542472
 30
0.0
 10
13.6127369361
 20
22.6691202693
 30
0.0
 10
13.6060659651
 20
23.0746661644
 30
0.0
  0
SPLINE
  5
290
100
AcDbEntity
  8
0
100
AcDbSpline
 62
7
  6
BYLAYER
 70
0
 71
3
 72
14
 73
10
 74
0
 42
0.0000001
 43
0.0000001
 44
0.0000000001
 40
0.0
 40
0.0
 40
0.0
 40
0.0
 40
0.1413699607
 40
0.285019665
 40
0.4291737328
 40
0.5710858505
 40
0.711905324
 40
0.8544945555
 40
1.0
 40
1.0
 40
1.0
 40
1.0
 10
13.6060659651
 20
23.0746661644
 30
0.0
 10
13.5999643094
 20
23.4456018861
 30
0.0
 10
13.6595465253
 20
24.1964125839
 30
0.0
 10
13.9589652658
 20
25.2889523528
 30
0.0
 10
14.4641850949
 20
26.3051939352
 30
0.0
 10
15.1481637444
 20
27.2006115367
 30
0.0
 10
15.9828060091
 20
27.9514400102
 30
0.0
 10
16.950997803
 20
28.5378473537
 30
0.0
 10
17.6651372277
 20
28.8023323597
 30
0.0
 10
18.0343062083
 20
28.8998760335
 30
0.0
  0
SPLINE
  5
291
100
AcDbEntity
  8
0
100
AcDbSpline
 62
7
  6
BYLAYER
 70
0
 71
3
 72
12
 73
8
 74
0
 42
0.0000001
 43
0.0000001
 44
0.0000000001
 40
0.0
 40
0.0
 40
0.0
 40
0.0
 40
0.1969626302
 40
0.3966925431
 40
0.5968478746
 40
0.7970895826
 40
1.0
 40
1.0
 40
1.0
 40
1.0
 10
15.2208808166
 20
26.491406806
 30
0.0
 10
15.4089321258
 20
26.7628452274
 30
0.0
 10
15.8405992182
 20
27.2745756277
 30
0.0
 10
16.6159007836
 20
27.9152271793
 30
0.0
 10
17.4991046463
 20
28.408846903
 30
0.0
 10
18.4603795025
 20
28.739020949
 30
0.0
 10
19.1324762068
 20
28.843851833
 30
0.0
 10
19.4719883663
 20
28.8652678786
 30
0.0
  0
SPLINE
  5
292
100
AcDbEntity
  8
0
100
AcDbSpline
 62
7
  6
BYLAYER
 70
0
 71
3
 72
10
 73
6
 74
0
 42
0.0000001
 43
0.0000001
 44
0.0000000001
 40
0.0
 40
0.0
 40
0.0
 40
0.0
 40
0.3342358004
 40
0.6675644857
 40
1.0
 40
1.0
 40
1.0
 40
1.0
 10
19.4719883663
 20
28.478740172
 30
0.0
 10
19.8520821185
 20
28.4833456163
 30
0.0
 10
20.6146732457
 20
28.4113533524
 30
0.0
 10
21.7071495801
 20
28.0700050408
 30
0.0
 10
22.3744967103
 20
27.6990427949
 30
0.0
 10
22.6842598815
 20
27.4822782041
 30
0.0
  0
SPLINE
  5
293
100
AcDbEntity
  8
0
100
AcDbSpline
 62
7
  6
BYLAYER
 70
0
 71
3
 72
72
 73
68
 74
0
 42
0.0000001
 43
0.0000001
 44
0.0000000001
 40
0.0
 40
0.0
 40
0.0
 40
0.0
 40
0.0806127475
 40
0.153590379
 40
0.2199351627
 40
0.2804877384
 40
0.3357390926
 40
0.3861960703
 40
0.4323494669
 40
0.4746234526
 40
0.5134026251
 40
0.5490096948
 40
0.5817398751
 40
0.6118421073
 40
0.639551211
 40
0.665086113
 40
0.6886396601
 40
0.7103473151
 40
0.7303647405
 40
0.7487991905
 40
0.7659107252
 40
0.7817489541
 40
0.7965416208
 40
0.8099946311
 40
0.8223243932
 40
0.8333844492
 40
0.8436565844
 40
0.8535630473
 40
0.8629882423
 40
0.8716496746
 40
0.8804653562
 40
0.8889286325
 40
0.8957354109
 40
0.9009688098
 40
0.9056198287
 40
0.910163235
 40
0.91365348
 40
0.9174771811
 40
0.921629259
 40
0.9260783223
 40
0.9307795102
 40
0.9350519327
 40
0.9383206899
 40
0.9413504697
 40
0.9440864509
 40
0.946505505
 40
0.9486054161
 40
0.9503966941
 40
0.9524064099
 40
0.9542721553
 40
0.9555858657
 40
0.9566386564
 40
0.9583715087
 40
0.9593911142
 40
0.9606671671
 40
0.9622493997
 40
0.9641786072
 40
0.9664965743
 40
0.969244511
 40
0.972458707
 40
0.976164531
 40
0.9797853314
 40
0.9832810103
 40
0.9871060906
 40
0.9912230538
 40
0.995560114
 40
1.0
 40
1.0
 40
1.0
 40
1.0
 10
19.4719883663
 20
28.4786137189
 30
0.0
 10
19.3300200246
 20
28.4768935451
 30
0.0
 10
19.0595921414
 20
28.4620414205
 30
0.0
 10
18.6749064548
 20
28.4144023583
 30
0.0
 10
18.3290352452
 20
28.3475002714
 30
0.0
 10
18.0181499358
 20
28.267621125
 30
0.0
 10
17.7389037181
 20
28.1790173097
 30
0.0
 10
17.4883249316
 20
28.0851830957
 30
0.0
 10
17.2634503825
 20
27.9887174226
 30
0.0
 10
17.0615015492
 20
27.8915591584
 30
0.0
 10
16.879938033
 20
27.7952731122
 30
0.0
 10
16.7164873536
 20
27.7009891848
 30
0.0
 10
16.5691721071
 20
27.6095175643
 30
0.0
 10
16.4362301059
 20
27.5214124161
 30
0.0
 10
16.3160933839
 20
27.4370312895
 30
0.0
 10
16.2073553503
 20
27.3565668837
 30
0.0
 10
16.1088239778
 20
27.2801376982
 30
0.0
 10
16.0194590092
 20
27.2077904686
 30
0.0
 10
15.9383875639
 20
27.1395610423
 30
0.0
 10
15.8646134016
 20
27.0752573576
 30
0.0
 10
15.7973364052
 20
27.0147204534
 30
0.0
 10
15.7356604744
 20
26.9575625762
 30
0.0
 10
15.679445383
 20
26.9040033
 30
0.0
 10
15.6283495208
 20
26.8540386122
 30
0.0
 10
15.5824760019
 20
26.8081432911
 30
0.0
 10
15.5409458366
 20
26.7658317947
 30
0.0
 10
15.5027065262
 20
26.7262731609
 30
0.0
 10
15.4667216378
 20
26.6885417832
 30
0.0
 10
15.4329370999
 20
26.65263357
 30
0.0
 10
15.4007157175
 20
26.6178941241
 30
0.0
 10
15.3698894998
 20
26.5841728844
 30
0.0
 10
15.3415094147
 20
26.5526430209
 30
0.0
 10
15.3175362955
 20
26.5256362656
 30
0.0
 10
15.2981877799
 20
26.5035039492
 30
0.0
 10
15.2814632558
 20
26.4843726335
 30
0.0
 10
15.2666719125
 20
26.467629539
 30
0.0
 10
15.2528193719
 20
26.4520015034
 30
0.0
 10
15.2394238448
 20
26.4368893667
 30
0.0
 10
15.2249286116
 20
26.420495384
 30
0.0
 10
15.2094490256
 20
26.4029088903
 30
0.0
 10
15.193880689
 20
26.3851181568
 30
0.0
 10
15.1797393492
 20
26.3688415443
 30
0.0
 10
15.1675279086
 20
26.3547870889
 30
0.0
 10
15.1570640866
 20
26.342801287
 30
0.0
 10
15.1475310027
 20
26.3319823664
 30
0.0
 10
15.1390242728
 20
26.3224651782
 30
0.0
 10
15.131506274
 20
26.3142261012
 30
0.0
 10
15.124479912
 20
26.3067412453
 30
0.0
 10
15.117140375
 20
26.2992553757
 30
0.0
 10
15.1115409664
 20
26.2942143035
 30
0.0
 10
15.1027083038
 20
26.2868858929
 30
0.0
 10
15.1029702507
 20
26.2973072644
 30
0.0
 10
15.1060809433
 20
26.3023145401
 30
0.0
 10
15.10902931
 20
26.3089479765
 30
0.0
 10
15.1121596298
 20
26.3149691099
 30
0.0
 10
15.1161340232
 20
26.3224242211
 30
0.0
 10
15.1211332964
 20
26.3313858573
 30
0.0
 10
15.1272645948
 20
26.3420744806
 30
0.0
 10
15.1346601458
 20
26.3546429242
 30
0.0
 10
15.1434307681
 20
26.3692385155
 30
0.0
 10
15.153123228
 20
26.3850726108
 30
0.0
 10
15.163184011
 20
26.4012619907
 30
0.0
 10
15.1734402708
 20
26.417576892
 30
0.0
 10
15.1842437437
 20
26.434579404
 30
0.0
 10
15.195881956
 20
26.4528082595
 30
0.0
 10
15.2082666124
 20
26.4718405516
 30
0.0
 10
15.2164203374
 20
26.4849840164
 30
0.0
 10
15.2208808166
 20
26.491406806
 30
0.0
  0
SPLINE
  5
294
100
AcDbEntity
  8
0
100
AcDbSpline
 62
7
  6
BYLAYER
 70
0
 71
3
 72
14
 73
10
 74
0
 42
0.0000001
 43
0.0000001
 44
0.0000000001
 40
0.0
 40
0.0
 40
0.0
 40
0.0
 40
0.1449502192
 40
0.2918502676
 40
0.4397833477
 40
0.5874412896
 40
0.7359898336
 40
0.8846376483
 40
1.0
 40
1.0
 40
1.0
 40
1.0
 10
16.7450446732
 20
18.3514734124
 30
0.0
 10
17.0789530216
 20
18.1579983852
 30
0.0
 10
17.7966626709
 20
17.8422664204
 30
0.0
 10
18.9515866097
 20
17.6041886756
 30
0.0
 10
20.1390898436
 20
17.6180683598
 30
0.0
 10
21.2993818297
 20
17.8907030522
 30
0.0
 10
22.3748794284
 20
18.4086618358
 30
0.0
 10
23.2460309057
 20
19.0915892082
 30
0.0
 10
23.7083733249
 20
19.6263352485
 30
0.0
 10
23.8890683281
 20
19.8754366778
 30
0.0
  0
SPLINE
  5
295
100
AcDbEntity
  8
0
100
AcDbSpline
 62
7
  6
BYLAYER
 70
0
 71
3
 72
10
 73
6
 74
0
 42
0.0000001
 43
0.0000001
 44
0.0000000001
 40
0.0
 40
0.0
 40
0.0
 40
0.0
 40
0.3341456282
 40
0.6674434576
 40
1.0
 40
1.0
 40
1.0
 40
1.0
 10
19.4719883663
 20
17.3669762447
 30
0.0
 10
19.138075967
 20
17.361574424
 30
0.0
 10
18.4687997202
 20
17.411347906
 30
0.0
 10
17.4947332188
 20
17.6537288459
 30
0.0
 10
16.8827090518
 20
17.9252793922
 30
0.0
 10
16.5918521883
 20
18.0861231351
 30
0.0
  0
SPLINE
  5
296
100
AcDbEntity
  8
0
100
AcDbSpline
 62
7
  6
BYLAYER
 70
0
 71
3
 72
14
 73
10
 74
0
 42
0.0000001
 43
0.0000001
 44
0.0000000001
 40
0.0
 40
0.0
 40
0.0
 40
0.0
 40
0.1401729254
 40
0.2828064924
 40
0.4256002101
 40
0.566903452
 40
0.7093222168
 40
0.8534153837
 40
1.0
 40
1.0
 40
1.0
 40
1.0
 10
25.0209268729
 20
23.0746661655
 30
0.0
 10
25.0277416918
 20
22.6625224451
 30
0.0
 10
24.9466240172
 20
21.8268695093
 30
0.0
 10
24.5552533591
 20
20.6276368428
 30
0.0
 10
23.9008259029
 20
19.5437662537
 30
0.0
 10
23.0209035241
 20
18.635736113
 30
0.0
 10
21.9611729013
 20
17.9387478625
 30
0.0
 10
20.7592249728
 20
17.4876899542
 30
0.0
 10
19.9029865945
 20
17.3739881006
 30
0.0
 10
19.4719883663
 20
17.3670156876
 30
0.0
  0
SPLINE
  5
297
100
AcDbEntity
  8
0
100
AcDbSpline
 62
7
  6
BYLAYER
 70
0
 71
3
 72
12
 73
8
 74
0
 42
0.0000001
 43
0.0000001
 44
0.0000000001
 40
0.0
 40
0.0
 40
0.0
 40
0.0
 40
0.1940738452
 40
0.3926334959
 40
0.5952638325
 40
0.7983309239
 40
1.0
 40
1.0
 40
1.0
 40
1.0
 10
22.6842598815
 20
27.4822782041
 30
0.0
 10
22.9579287965
 20
27.2900961426
 30
0.0
 10
23.4764910935
 20
26.8485528835
 30
0.0
 10
24.1256647534
 20
26.047255957
 30
0.0
 10
24.6224253014
 20
25.1248464078
 30
0.0
 10
24.9358810187
 20
24.1200051717
 30
0.0
 10
25.0151818065
 20
23.4221138476
 30
0.0
 10
25.0209268729
 20
23.0746661655
 30
0.0
  0
SPLINE
  5
298
100
AcDbEntity
  8
0
100
AcDbSpline
 62
7
  6
BYLAYER
 70
0
 71
3
 72
89
 73
85
 74
0
 42
0.0000001
 43
0.0000001
 44
0.0000000001
 40
0.0
 40
0.0
 40
0.0
 40
0.0
 40
0.0124242017
 40
0.0246481428
 40
0.0367770181
 40
0.0488858073
 40
0.0611251315
 40
0.0733315231
 40
0.085512877
 40
0.0977004537
 40
0.109890345
 40
0.1220763047
 40
0.1342927877
 40
0.1465828016
 40
0.1588094226
 40
0.1709518238
 40
0.1830815097
 40
0.1952165888
 40
0.2073686007
 40
0.2195531084
 40
0.231716937
 40
0.2439311983
 40
0.2561716068
 40
0.2683415705
 40
0.2804988074
 40
0.2927581018
 40
0.3050662831
 40
0.3172899398
 40
0.329423177
 40
0.3415336225
 40
0.3536585278
 40
0.365815797
 40
0.37801599
 40
0.3902061168
 40
0.4024288359
 40
0.4146515069
 40
0.4268311849
 40
0.4389660013
 40
0.4511722506
 40
0.4634001508
 40
0.4756310569
 40
0.4878828047
 40
0.5001484348
 40
0.5124000981
 40
0.5246116456
 40
0.5367791569
 40
0.548926288
 40
0.5610422526
 40
0.5730922864
 40
0.5852235247
 40
0.597447253
 40
0.6096721773
 40
0.6218240354
 40
0.6339648031
 40
0.646108075
 40
0.6583407177
 40
0.6706136617
 40
0.6827780719
 40
0.6948933603
 40
0.7069029399
 40
0.71908731
 40
0.7312999184
 40
0.7437346668
 40
0.7560823417
 40
0.7683669448
 40
0.7805106424
 40
0.7925047754
 40
0.8046450676
 40
0.8169249314
 40
0.8291732859
 40
0.8413656802
 40
0.8535148079
 40
0.8656009564
 40
0.877789702
 40
0.8900824928
 40
0.9023237808
 40
0.9145176865
 40
0.9267104776
 40
0.9389204203
 40
0.9510998265
 40
0.9632908515
 40
0.9755513596
 40
0.9878098879
 40
1.0
 40
1.0
 40
1.0
 40
1.0
 10
16.4849820428
 20
18.5118401542
 30
0.0
 10
16.8318408056
 20
18.2852572988
 30
0.0
 10
17.5732400357
 20
17.9112125433
 30
0.0
 10
18.7748730497
 20
17.6201222053
 30
0.0
 10
20.0006789029
 20
17.6011031345
 30
0.0
 10
21.2009493806
 20
17.8536843353
 30
0.0
 10
22.3171775924
 20
18.3686194522
 30
0.0
 10
23.2936366813
 20
19.1192675676
 30
0.0
 10
24.0766722748
 20
20.0678420898
 30
0.0
 10
24.6292398978
 20
21.1658829512
 30
0.0
 10
24.925424228
 20
22.3592566604
 30
0.0
 10
24.9470370678
 20
23.5895957946
 30
0.0
 10
24.6952778163
 20
24.7974156568
 30
0.0
 10
24.1792766995
 20
25.9200395886
 30
0.0
 10
23.4262017226
 20
26.8960127519
 30
0.0
 10
22.4806488852
 20
27.6783192754
 30
0.0
 10
21.3873867407
 20
28.2293494806
 30
0.0
 10
20.1992922635
 20
28.5251586743
 30
0.0
 10
18.9731596825
 20
28.5520376329
 30
0.0
 10
17.771040935
 20
28.3039761975
 30
0.0
 10
16.6516083124
 20
27.7959496255
 30
0.0
 10
15.671319722
 20
27.050487063
 30
0.0
 10
14.8827787977
 20
26.1043965065
 30
0.0
 10
14.3236792271
 20
25.0092785619
 30
0.0
 10
14.0226053701
 20
23.8163386529
 30
0.0
 10
13.9942747949
 20
22.5817318989
 30
0.0
 10
14.2421759583
 20
21.3693576027
 30
0.0
 10
14.755083374
 20
20.2480528048
 30
0.0
 10
15.4985842904
 20
19.273150753
 30
0.0
 10
16.4368234764
 20
18.4887247743
 30
0.0
 10
17.5263419918
 20
17.9317936669
 30
0.0
 10
18.7146104862
 20
17.6271587467
 30
0.0
 10
19.9433321534
 20
17.5953720796
 30
0.0
 10
21.1502751079
 20
17.8377814305
 30
0.0
 10
22.2745809362
 20
18.3416945301
 30
0.0
 10
23.2566802236
 20
19.0850539358
 30
0.0
 10
24.0480094349
 20
20.0247294222
 30
0.0
 10
24.6112151839
 20
21.1160713356
 30
0.0
 10
24.9173246274
 20
22.3070525989
 30
0.0
 10
24.9525853592
 20
23.5395067354
 30
0.0
 10
24.7104383094
 20
24.7501851964
 30
0.0
 10
24.2039141787
 20
25.8773065901
 30
0.0
 10
23.4590205959
 20
26.8644176393
 30
0.0
 10
22.511958036
 20
27.6574531924
 30
0.0
 10
21.4158333033
 20
28.2192054652
 30
0.0
 10
20.2255149101
 20
28.5225000578
 30
0.0
 10
19.0009627298
 20
28.5529855768
 30
0.0
 10
17.8035217473
 20
28.3145928554
 30
0.0
 10
16.6890422568
 20
27.8171969238
 30
0.0
 10
15.7087632964
 20
27.0842988175
 30
0.0
 10
14.9103938979
 20
26.1483553965
 30
0.0
 10
14.3423742888
 20
25.056356788
 30
0.0
 10
14.0304766253
 20
23.8688652161
 30
0.0
 10
13.9892281829
 20
22.644287663
 30
0.0
 10
14.2220112645
 20
21.4387387361
 30
0.0
 10
14.7168535613
 20
20.3100331383
 30
0.0
 10
15.4529472288
 20
19.3203824829
 30
0.0
 10
16.3876473005
 20
18.5224414917
 30
0.0
 10
17.4673024648
 20
17.9538075727
 30
0.0
 10
18.6465831762
 20
17.6385398288
 30
0.0
 10
19.8697348725
 20
17.5895364437
 30
0.0
 10
21.0874841066
 20
17.8161844902
 30
0.0
 10
22.2278931493
 20
18.3143426993
 30
0.0
 10
23.2292840243
 20
19.0568838389
 30
0.0
 10
24.0311239918
 20
19.9987555505
 30
0.0
 10
24.5973936457
 20
21.0845483546
 30
0.0
 10
24.9110540421
 20
22.2631428403
 30
0.0
 10
24.9558197502
 20
23.4868082557
 30
0.0
 10
24.7268957058
 20
24.6984670172
 30
0.0
 10
24.2322400332
 20
25.8301002169
 30
0.0
 10
23.4995288484
 20
26.8185067057
 30
0.0
 10
22.571223181
 20
27.6175581886
 30
0.0
 10
21.4888168417
 20
28.1906367994
 30
0.0
 10
20.3018029396
 20
28.5112206615
 30
0.0
 10
19.0676655438
 20
28.5605551301
 30
0.0
 10
17.8540598611
 20
28.3306369135
 30
0.0
 10
16.7248881173
 20
27.8389662363
 30
0.0
 10
15.7338683194
 20
27.1091488484
 30
0.0
 10
14.9314310364
 20
26.1767580781
 30
0.0
 10
14.3547382732
 20
25.0903032776
 30
0.0
 10
14.034564061
 20
23.900750999
 30
0.0
 10
13.9875341845
 20
22.667116694
 30
0.0
 10
14.2153854727
 20
21.4541145543
 30
0.0
 10
14.5461578289
 20
20.7001476393
 30
0.0
 10
14.7490463004
 20
20.3478981453
 30
0.0
  0
SPLINE
  5
299
100
AcDbEntity
  8
0
100
AcDbSpline
 62
7
  6
BYLAYER
 70
0
 71
3
 72
11
 73
7
 74
0
 42
0.0000001
 43
0.0000001
 44
0.0000000001
 40
0.0
 40
0.0
 40
0.0
 40
0.0
 40
0.2516217676
 40
0.5002645895
 40
0.7514670889
 40
1.0
 40
1.0
 40
1.0
 40
1.0
 10
24.0590701167
 20
19.2070207553
 30
0.0
 10
23.7642587445
 20
18.8994452074
 30
0.0
 10
23.1115416734
 20
18.3476057429
 30
0.0
 10
21.9772557467
 20
17.7501974321
 30
0.0
 10
20.7453461872
 20
17.4130037967
 30
0.0
 10
19.8919137014
 20
17.3749695525
 30
0.0
 10
19.4719883663
 20
17.4023559111
 30
0.0
  0
SPLINE
  5
29A
100
AcDbEntity
  8
0
100
AcDbSpline
 62
7
  6
BYLAYER
 70
0
 71
3
 72
59
 73
55
 74
0
 42
0.0000001
 43
0.0000001
 44
0.0000000001
 40
0.0
 40
0.0
 40
0.0
 40
0.0
 40
0.0851504195
 40
0.1615647177
 40
0.2303794694
 40
0.2925450598
 40
0.3488586637
 40
0.3999946591
 40
0.4465276574
 40
0.4889499582
 40
0.5276856998
 40
0.5631043042
 40
0.5955302805
 40
0.6252507001
 40
0.652521492
 40
0.6775704925
 40
0.7006001443
 40
0.7217910404
 40
0.7413047383
 40
0.7592863248
 40
0.7758637628
 40
0.7911524208
 40
0.8052649267
 40
0.8182982724
 40
0.8303387894
 40
0.841468267
 40
0.851764215
 40
0.8612938834
 40
0.8701096445
 40
0.8782644781
 40
0.8858043258
 40
0.892771747
 40
0.8992151749
 40
0.9051719388
 40
0.9106750836
 40
0.9157546989
 40
0.9204372357
 40
0.9247457169
 40
0.9287106499
 40
0.9323204244
 40
0.9356374524
 40
0.9383399954
 40
0.9405720952
 40
0.9439267597
 40
0.9476548036
 40
0.9517363337
 40
0.9561901319
 40
0.9610308258
 40
0.9662866192
 40
0.9719860668
 40
0.9781651796
 40
0.9848645247
 40
0.9921268729
 40
1.0
 40
1.0
 40
1.0
 40
1.0
 10
19.4719883663
 20
17.6856243848
 30
0.0
 10
19.3709739029
 20
17.6865645707
 30
0.0
 10
19.1793213459
 20
17.6935617667
 30
0.0
 10
18.9069163842
 20
17.7169951076
 30
0.0
 10
18.6629675253
 20
17.7496775666
 30
0.0
 10
18.4441079508
 20
17.7883787351
 30
0.0
 10
18.2473882141
 20
17.8309250102
 30
0.0
 10
18.0702362063
 20
17.8756502971
 30
0.0
 10
17.9104138495
 20
17.9213315094
 30
0.0
 10
17.7659759072
 20
17.967065369
 30
0.0
 10
17.635228034
 20
18.0121888616
 30
0.0
 10
17.5166892532
 20
18.0562213743
 30
0.0
 10
17.4090591028
 20
18.0988234538
 30
0.0
 10
17.3111903437
 20
18.1397635931
 30
0.0
 10
17.2220677307
 20
18.1788912326
 30
0.0
 10
17.1407948255
 20
18.2161221324
 30
0.0
 10
17.0665804529
 20
18.2514200798
 30
0.0
 10
16.9987258946
 20
18.2847842052
 30
0.0
 10
16.936612367
 20
18.3162396423
 30
0.0
 10
16.879693391
 20
18.3458291351
 30
0.0
 10
16.827485377
 20
18.3736072471
 30
0.0
 10
16.7795509035
 20
18.3996405526
 30
0.0
 10
16.73549675
 20
18.4240053226
 30
0.0
 10
16.6949667269
 20
18.4467776092
 30
0.0
 10
16.6576483573
 20
18.4680395399
 30
0.0
 10
16.6232526521
 20
18.4878698459
 30
0.0
 10
16.5915165637
 20
18.5063486419
 30
0.0
 10
16.5622153762
 20
18.5235536066
 30
0.0
 10
16.5351478234
 20
18.5395456867
 30
0.0
 10
16.5101438383
 20
18.5543895507
 30
0.0
 10
16.4870411026
 20
18.5681403859
 30
0.0
 10
16.4656873859
 20
18.5808601441
 30
0.0
 10
16.4459392457
 20
18.5926051273
 30
0.0
 10
16.4276644006
 20
18.6034298089
 30
0.0
 10
16.4107522332
 20
18.6133770339
 30
0.0
 10
16.3950922164
 20
18.622481424
 30
0.0
 10
16.3806197048
 20
18.6307732055
 30
0.0
 10
16.3671426023
 20
18.638257071
 30
0.0
 10
16.3549193795
 20
18.6449797477
 30
0.0
 10
16.3427769584
 20
18.6507067746
 30
0.0
 10
16.3342133179
 20
18.6555867938
 30
0.0
 10
16.3200550317
 20
18.6592026856
 30
0.0
 10
16.3243704836
 20
18.6459702509
 30
0.0
 10
16.3325238052
 20
18.6399025786
 30
0.0
 10
16.3415132032
 20
18.6296864129
 30
0.0
 10
16.3521649338
 20
18.6199123181
 30
0.0
 10
16.3639034888
 20
18.609191582
 30
0.0
 10
16.3768941921
 20
18.5978356294
 30
0.0
 10
16.3911634744
 20
18.5856836767
 30
0.0
 10
16.4068016454
 20
18.5726974393
 30
0.0
 10
16.4239073505
 20
18.5587983034
 30
0.0
 10
16.4426078843
 20
18.5439243191
 30
0.0
 10
16.4630222076
 20
18.5279777377
 30
0.0
 10
16.4773134935
 20
18.5171057694
 30
0.0
 10
16.4847757538
 20
18.5114882356
 30
0.0
  0
SPLINE
  5
29B
100
AcDbEntity
  8
0
100
AcDbSpline
 62
7
  6
BYLAYER
 70
0
 71
3
 72
26
 73
22
 74
0
 42
0.0000001
 43
0.0000001
 44
0.0000000001
 40
0.0
 40
0.0
 40
0.0
 40
0.0
 40
0.046934675
 40
0.0938717898
 40
0.1408061973
 40
0.1877356428
 40
0.2487363769
 40
0.2792491136
 40
0.3097631604
 40
0.3707714182
 40
0.4317718186
 40
0.4927722724
 40
0.5537806205
 40
0.614788976
 40
0.6757894647
 40
0.7367899497
 40
0.7977982984
 40
0.8588066505
 40
0.9198071422
 40
0.9808076319
 40
1.0
 40
1.0
 40
1.0
 40
1.0
 10
22.8615209587
 20
41.5693246452
 30
0.0
 10
23.2059225047
 20
41.4832621403
 30
0.0
 10
23.8881890443
 20
41.2849956546
 30
0.0
 10
24.886234835
 20
40.9112586633
 30
0.0
 10
25.8532217546
 20
40.4632700383
 30
0.0
 10
26.8762141468
 20
39.8912211313
 30
0.0
 10
27.7427780444
 20
39.3004002536
 30
0.0
 10
28.4649145184
 20
38.7255095021
 30
0.0
 10
29.1580159804
 20
38.1158122948
 30
0.0
 10
29.9670469629
 20
37.291044505
 30
0.0
 10
30.8355618022
 20
36.2108151038
 30
0.0
 10
31.5918864355
 20
35.049193575
 30
0.0
 10
32.230210598
 20
33.8188006629
 30
0.0
 10
32.7450141218
 20
32.5318218253
 30
0.0
 10
33.1306682892
 20
31.2004210024
 30
0.0
 10
33.3814116738
 20
29.837158112
 30
0.0
 10
33.4967773587
 20
28.4558451688
 30
0.0
 10
33.4763545526
 20
27.0698733923
 30
0.0
 10
33.3196358877
 20
25.6926307856
 30
0.0
 10
33.09320175
 20
24.6474656945
 30
0.0
 10
32.9266149657
 20
24.0640797363
 30
0.0
 10
32.8845954898
 20
23.9251099962
 30
0.0
  0
SPLINE
  5
29C
100
AcDbEntity
  8
0
100
AcDbSpline
 62
7
  6
BYLAYER
 70
0
 71
3
 72
16
 73
12
 74
0
 42
0.0000001
 43
0.0000001
 44
0.0000000001
 40
0.0
 40
0.0
 40
0.0
 40
0.0
 40
0.0357531869
 40
0.157776203
 40
0.2797834938
 40
0.4017907845
 40
0.5238138006
 40
0.6458368168
 40
0.7678441075
 40
0.8898513982
 40
1.0
 40
1.0
 40
1.0
 40
1.0
 10
20.1563982249
 20
41.9683740181
 30
0.0
 10
20.2914582287
 20
41.961742197
 30
0.0
 10
20.8870471122
 20
41.923902607
 30
0.0
 10
21.9379812771
 20
41.7898676509
 30
0.0
 10
23.2890418722
 20
41.4800403136
 30
0.0
 10
24.6024004734
 20
41.0368170118
 30
0.0
 10
25.8657585658
 20
40.4665004434
 30
0.0
 10
27.0672120824
 20
39.7752377543
 30
0.0
 10
28.194812978
 20
38.9690901679
 30
0.0
 10
29.202471486
 20
38.0840225264
 30
0.0
 10
29.8056026951
 20
37.4447253507
 30
0.0
 10
30.0777934678
 20
37.1293470494
 30
0.0
  0
SPLINE
  5
29D
100
AcDbEntity
  8
0
100
AcDbSpline
 62
7
  6
BYLAYER
 70
0
 71
3
 72
18
 73
14
 74
0
 42
0.0000001
 43
0.0000001
 44
0.0000000001
 40
0.0
 40
0.0
 40
0.0
 40
0.0
 40
0.0938649555
 40
0.1877347902
 40
0.2815992109
 40
0.3754537078
 40
0.4974494643
 40
0.558472081
 40
0.6194973175
 40
0.7415081209
 40
0.86350321
 40
0.9854984062
 40
1.0
 40
1.0
 40
1.0
 40
1.0
 10
8.0230989976
 20
19.8983673459
 30
0.0
 10
7.8186237441
 20
20.1885553028
 30
0.0
 10
7.4317027539
 20
20.7844490666
 30
0.0
 10
6.9203944756
 20
21.7195098045
 30
0.0
 10
6.4811151565
 20
22.6904841557
 30
0.0
 10
6.0805035159
 20
23.7919666567
 30
0.0
 10
5.8105734649
 20
24.8054458452
 30
0.0
 10
5.6395651866
 20
25.7124941526
 30
0.0
 10
5.5132795242
 20
26.6269187
 30
0.0
 10
5.4397673379
 20
27.7799013521
 30
0.0
 10
5.4881500466
 20
29.1651351587
 30
0.0
 10
5.6198628084
 20
30.1352107497
 30
0.0
 10
5.7174210818
 20
30.6422226952
 30
0.0
 10
5.7281008627
 20
30.6960256083
 30
0.0
  0
ENDSEC
  0
SECTION
  2
OBJECTS
  0
DICTIONARY
  5
C
100
AcDbDictionary
280
0
281
1
  3
ACAD_GROUP
350
D
  3
ACAD_MLINESTYLE
350
17
  3
ACAD_LAYOUT
350
1A
  3
ACAD_PLOTSETTINGS
350
19
  3
ACAD_PLOTSTYLENAME
350
E
  0
DICTIONARY
  5
D
102
{ACAD_REACTORS
330
C
102
}
100
AcDbDictionary
280
0
281
1
  0
ACDBDICTIONARYWDFLT
  5
E
102
{ACAD_REACTORS
330
C
102
}
100
AcDbDictionary
281
1
  3
Normal
350
F
100
AcDbDictionaryWithDefault
340
F
  0
DICTIONARY
  5
17
102
{ACAD_REACTORS
330
C
102
}
100
AcDbDictionary
280
0
281
1
  3
Standard
350
18
  0
DICTIONARY
  5
19
102
{ACAD_REACTORS
330
C
102
}
100
AcDbDictionary
281
1
  0
DICTIONARY
  5
1A
102
{ACAD_REACTORS
330
C
102
}
100
AcDbDictionary
281
1
  3
Model
350
29E
  3
Layout1
350
29F
  0
ACDBPLACEHOLDER
  5
F
102
{ACAD_REACTORS
330
E
102
}
  0
MLINESTYLE
  5
18
102
{ACAD_REACTORS
330
17
102
}
100
AcDbMlineStyle
  2
STANDARD
 70
0
  3

 62
256
 51
90.0
 52
90.0
 71
2
 49
0.5
 62
256
  6
BYLAYER
 49
-0.5
 62
256
  6
BYLAYER
  0
LAYOUT
  5
29E
102
{ACAD_REACTORS
330
1A
102
}
100
AcDbPlotSettings
  1

  2
none_device
  4

  6

 40
0.0
 41
0.0
 42
0.0
 43
0.0
 44
210.0
 45
297.0
 46
0.0
 47
0.0
 48
0.0
 49
0.0
140
0.0
141
0.0
142
1.0
143
1.0
 70
1024
 72
1
 73
0
 74
0
  7

 75
0
147
1.0
148
0.0
149
0.0
100
AcDbLayout
  1
Model
 70
0
 71
0
 10
0.0
 20
0.0
 11
210.0
 21
297.0
 12
0.0
 22
0.0
 32
0.0
 14
0.0
 24
0.0
 34
0.0
 15
0.0
 25
0.0
 35
0.0
146
0.0
 13
0.0
 23
0.0
 33
0.0
 16
1.0
 26
0.0
 36
0.0
 17
0.0
 27
1.0
 37
0.0
 76
0
330
210
345
0
346
0
  0
LAYOUT
  5
29F
102
{ACAD_REACTORS
330
1A
102
}
100
AcDbPlotSettings
  1

  2
none_device
  4

  6

 40
0.0
 41
0.0
 42
0.0
 43
0.0
 44
210.0
 45
297.0
 46
0.0
 47
0.0
 48
0.0
 49
0.0
140
0.0
141
0.0
142
1.0
143
1.0
 70
0
 72
1
 73
0
 74
0
  7

 75
0
147
1.0
148
0.0
149
0.0
100
AcDbLayout
  1
Layout1
 70
0
 71
1
 10
0.0
 20
0.0
 11
210.0
 21
297.0
 12
0.0
 22
0.0
 32
0.0
 14
0.0
 24
0.0
 34
0.0
 15
0.0
 25
0.0
 35
0.0
146
0.0
 13
0.0
 23
0.0
 33
0.0
 16
1.0
 26
0.0
 36
0.0
 17
0.0
 27
1.0
 37
0.0
 76
0
330
211
345
0
346
0
  0
ENDSEC
  0
EOF
