999
DXF file: C:\Users\sesa63760\Dev\_Creo\CAD\MCADID0004086_3D-CAD\drw0001_2.dxf
999
Pro/ENGINEER 2019471 by Parametric Technology Corporation
  0
SECTION
  2
HEADER
  9
$ACADVER
  1
AC1024
  9
$DWGCODEPAGE
  3
ANSI_1252
  9
$EXTMAX
 10
52.3171509526
 20
73.9913992044
 30
0.0
  9
$EXTMIN
 10
0.0
 20
0.0
 30
0.0
  9
$LIMMIN
 10
0.0
 20
0.0
  9
$LIMMAX
 10
52.3171509526
 20
73.9913992044
  9
$VIEWCTR
 10
26.1585754763
 20
36.9956996022
  9
$VIEWSIZE
 40
73.9913992044
  9
$CLAYER
  8
0
  9
$LTSCALE
 40
4.8231430592
  9
$CELTYPE
  6
BYLAYER
  9
$DIMSCALE
 40
1.0
  9
$DIMASZ
 40
0.6228232256
  9
$DIMEXO
 40
1.0
  9
$DIMDLI
 40
3.3323533864
  9
$DIMEXE
 40
1.0
  9
$DIMCEN
 40
0.7892415915
  9
$DIMLFAC
 40
1.0
  9
$DIMBLK
  1
_FILLED
  9
$DIMALT
 70
0
  9
$DIMALTF
 40
0.0393700787
  9
$DIMTXT
 40
0.8719525159
  9
$DIMTOL
 70
1
  9
$DIMLIM
 70
0
  9
$DIMTFAC
 40
1.0
  9
$DIMTP
 40
0.01
  9
$DIMTM
 40
0.01
  9
$DIMGAP
 40
0.625
  9
$DIMDSEP
 70
46
  9
$AUNITS
 70
0
  9
$PDMODE
 70
3
  9
$PDSIZE
 40
0.3125
  9
$HANDSEED
  5
270
  9
$TILEMODE
 70
1
  9
$MEASUREMENT
 70
1
  9
$INSUNITS
 70
4
  0
ENDSEC
  0
SECTION
  2
CLASSES
  0
CLASS
  1
ACDBDICTIONARYWDFLT
  2
AcDbDictionaryWithDefault
  3
AutoCAD 2000
 90
0
 91
1
280
0
281
0
  0
CLASS
  1
ACDBPLACEHOLDER
  2
AcDbPlaceHolder
  3
AutoCAD 2000
 90
0
 91
1
280
0
281
0
  0
CLASS
  1
LAYOUT
  2
AcDbLayout
  3
AutoCAD 2000
 90
0
 91
0
280
0
281
0
  0
ENDSEC
  0
SECTION
  2
TABLES
  0
TABLE
  2
VPORT
  5
8
100
AcDbSymbolTable
 70
2
  0
VPORT
  5
1F4
100
AcDbSymbolTableRecord
100
AcDbViewportTableRecord
  2
*ACTIVE
 70
0
 10
0.0
 20
0.0
 11
1.0
 21
1.0
 12
26.1585754763
 22
36.9956996022
 13
0.0
 23
0.0
 14
1.0
 24
1.0
 15
0.0
 25
0.0
 16
0.0
 26
0.0
 36
1.0
 17
0.0
 27
0.0
 37
0.0
 40
73.9913992044
 41
0.7070707071
 42
50.0
 43
0.0
 44
0.0
 50
0.0
 51
0.0
 71
0
 72
100
 73
1
 74
1
 75
0
 76
0
 77
0
 78
0
  0
ENDTAB
  0
TABLE
  2
LTYPE
  5
5
100
AcDbSymbolTable
 70
6
  0
LTYPE
  5
14
100
AcDbSymbolTableRecord
100
AcDbLinetypeTableRecord
  2
BYBLOCK
 70
0
  3

 72
65
 73
0
 40
0.0
  0
LTYPE
  5
15
100
AcDbSymbolTableRecord
100
AcDbLinetypeTableRecord
  2
BYLAYER
 70
0
  3

 72
65
 73
0
 40
0.0
  0
LTYPE
  5
16
100
AcDbSymbolTableRecord
100
AcDbLinetypeTableRecord
  2
CONTINUOUS
 70
64
  3
Solid line
 72
65
 73
0
 40
0.0
  0
LTYPE
  5
1F5
100
AcDbSymbolTableRecord
100
AcDbLinetypeTableRecord
  2
CENTER
 70
64
  3
____ _ ____ _ ____ _ ____ _ ____ _ ____ _ ____
 72
65
 73
4
 40
0.6
 49
0.375
 74
0
 49
-0.075
 74
0
 49
0.075
 74
0
 49
-0.075
 74
0
  0
LTYPE
  5
1F6
100
AcDbSymbolTableRecord
100
AcDbLinetypeTableRecord
  2
HIDDEN
 70
64
  3
- - - - - - - - - - - - - - - - - - - -
 72
65
 73
2
 40
0.2
 49
0.1
 74
0
 49
-0.1
 74
0
  0
LTYPE
  5
1F7
100
AcDbSymbolTableRecord
100
AcDbLinetypeTableRecord
  2
PHANTOM
 70
64
  3
_____ _ _ _____ _ _ _____ _ _ _____
 72
65
 73
6
 40
0.8
 49
0.45
 74
0
 49
-0.05
 74
0
 49
0.1
 74
0
 49
-0.05
 74
0
 49
0.1
 74
0
 49
-0.05
 74
0
  0
LTYPE
  5
1F8
100
AcDbSymbolTableRecord
100
AcDbLinetypeTableRecord
  2
DOT
 70
64
  3
. . . . . . . . . . . . . . . . . . . .
 72
65
 73
2
 40
0.2
 49
0.1
 74
0
 49
-0.1
 74
0
  0
LTYPE
  5
1F9
100
AcDbSymbolTableRecord
100
AcDbLinetypeTableRecord
  2
DASHED
 70
64
  3
- - - - - - - - - - - - - - - - - - - -
 72
65
 73
2
 40
0.2
 49
0.1
 74
0
 49
-0.1
 74
0
  0
ENDTAB
  0
TABLE
  2
LAYER
  5
2
100
AcDbSymbolTable
 70
36
  0
LAYER
  5
10
100
AcDbSymbolTableRecord
100
AcDbLayerTableRecord
  2
0
 70
0
 62
7
  6
CONTINUOUS
370
-3
390
F
  0
LAYER
  5
1FA
100
AcDbSymbolTableRecord
100
AcDbLayerTableRecord
  2
DEFAULT_1
 70
0
 62
7
  6
CENTER
370
-3
390
F
  0
LAYER
  5
1FB
100
AcDbSymbolTableRecord
100
AcDbLayerTableRecord
  2
DEFAULT_2
 70
0
 62
7
  6
HIDDEN
370
-3
390
F
  0
LAYER
  5
1FC
100
AcDbSymbolTableRecord
100
AcDbLayerTableRecord
  2
DEFAULT_3
 70
0
 62
7
  6
PHANTOM
370
-3
390
F
  0
LAYER
  5
1FD
100
AcDbSymbolTableRecord
100
AcDbLayerTableRecord
  2
00_COMPONENTS
 70
0
 62
7
  6
CONTINUOUS
370
-3
390
F
  0
LAYER
  5
1FE
100
AcDbSymbolTableRecord
100
AcDbLayerTableRecord
  2
01_1_DEFAULT_DATUMS
 70
0
 62
7
  6
CONTINUOUS
370
-3
390
F
  0
LAYER
  5
1FF
100
AcDbSymbolTableRecord
100
AcDbLayerTableRecord
  2
01_PLANES
 70
0
 62
7
  6
CONTINUOUS
370
-3
390
F
  0
LAYER
  5
200
100
AcDbSymbolTableRecord
100
AcDbLayerTableRecord
  2
02_COORD_SYS
 70
0
 62
7
  6
CONTINUOUS
370
-3
390
F
  0
LAYER
  5
201
100
AcDbSymbolTableRecord
100
AcDbLayerTableRecord
  2
03_AXES
 70
0
 62
7
  6
CONTINUOUS
370
-3
390
F
  0
LAYER
  5
202
100
AcDbSymbolTableRecord
100
AcDbLayerTableRecord
  2
04_POINTS
 70
0
 62
7
  6
CONTINUOUS
370
-3
390
F
  0
LAYER
  5
203
100
AcDbSymbolTableRecord
100
AcDbLayerTableRecord
  2
05_CURVES
 70
0
 62
7
  6
CONTINUOUS
370
-3
390
F
  0
LAYER
  5
204
100
AcDbSymbolTableRecord
100
AcDbLayerTableRecord
  2
06_SURFS
 70
0
 62
7
  6
CONTINUOUS
370
-3
390
F
  0
LAYER
  5
205
100
AcDbSymbolTableRecord
100
AcDbLayerTableRecord
  2
07_COSMETICS
 70
0
 62
7
  6
CONTINUOUS
370
-3
390
F
  0
LAYER
  5
206
100
AcDbSymbolTableRecord
100
AcDbLayerTableRecord
  2
10_NOTES
 70
0
 62
7
  6
CONTINUOUS
370
-3
390
F
  0
LAYER
  5
207
100
AcDbSymbolTableRecord
100
AcDbLayerTableRecord
  2
11_NOTES_PUB
 70
0
 62
7
  6
CONTINUOUS
370
-3
390
F
  0
LAYER
  5
208
100
AcDbSymbolTableRecord
100
AcDbLayerTableRecord
  2
13_REF_GTOL
 70
0
 62
7
  6
CONTINUOUS
370
-3
390
F
  0
LAYER
  5
209
100
AcDbSymbolTableRecord
100
AcDbLayerTableRecord
  2
16_MISC
 70
0
 62
7
  6
CONTINUOUS
370
-3
390
F
  0
LAYER
  5
20A
100
AcDbSymbolTableRecord
100
AcDbLayerTableRecord
  2
17_NO_PRINT
 70
0
 62
7
  6
CONTINUOUS
370
-3
390
F
  0
LAYER
  5
20B
100
AcDbSymbolTableRecord
100
AcDbLayerTableRecord
  2
18_DATUM_CAMS_JOINTS
 70
0
 62
7
  6
CONTINUOUS
370
-3
390
F
  0
LAYER
  5
20C
100
AcDbSymbolTableRecord
100
AcDbLayerTableRecord
  2
19_DATUM_FUNCTIONAL
 70
0
 62
7
  6
CONTINUOUS
370
-3
390
F
  0
LAYER
  5
20D
100
AcDbSymbolTableRecord
100
AcDbLayerTableRecord
  2
20_DATUM_KINEMATIC_SCHEME
 70
0
 62
7
  6
CONTINUOUS
370
-3
390
F
  0
ENDTAB
  0
TABLE
  2
STYLE
  5
3
100
AcDbSymbolTable
 70
1
  0
STYLE
  5
11
100
AcDbSymbolTableRecord
100
AcDbTextStyleTableRecord
  2
STANDARD
 70
0
 40
0.0
 41
1.0
 50
0.0
 71
0
 42
0.2
  3
ARIAL.TTF
  4

  0
STYLE
  5
20E
100
AcDbSymbolTableRecord
100
AcDbTextStyleTableRecord
  2
TEXTSTYLE_1
 70
0
 40
0.0
 41
0.8
 50
0.0
 71
0
 42
0.2
  3
gdt
  4

  0
ENDTAB
  0
TABLE
  2
VIEW
  5
6
100
AcDbSymbolTable
 70
0
  0
ENDTAB
  0
TABLE
  2
UCS
  5
7
100
AcDbSymbolTable
 70
0
  0
ENDTAB
  0
TABLE
  2
APPID
  5
9
100
AcDbSymbolTable
 70
1
  0
APPID
  5
20F
100
AcDbSymbolTableRecord
100
AcDbRegAppTableRecord
  2
ACAD
 70
0
  0
ENDTAB
  0
TABLE
  2
BLOCK_RECORD
  5
1
100
AcDbSymbolTable
 70
0
  0
BLOCK_RECORD
  5
210
100
AcDbSymbolTableRecord
100
AcDbBlockTableRecord
  2
*Model_Space
  0
BLOCK_RECORD
  5
211
100
AcDbSymbolTableRecord
100
AcDbBlockTableRecord
  2
*Paper_Space
  0
BLOCK_RECORD
  5
212
100
AcDbSymbolTableRecord
100
AcDbBlockTableRecord
  2
_FILLED
  0
ENDTAB
  0
TABLE
  2
DIMSTYLE
  5
A
100
AcDbSymbolTable
 70
1
100
AcDbDimStyleTable
 71
0
  0
DIMSTYLE
105
213
100
AcDbSymbolTableRecord
100
AcDbDimStyleTableRecord
  2
STANDARD
 70
0
  3

  4

 40
1.0
 41
0.6228232256
 42
1.0
 43
0.38
 44
1.0
 45
0.0
 46
0.0
 47
0.01
 48
0.01
140
0.8719525159
141
0.09
142
0.0
143
25.4
144
1.0
145
0.0
146
1.0
147
0.625
 71
1
 72
0
 73
0
 74
0
 75
0
 76
0
 77
1
 78
8
 79
2
170
0
171
1
172
0
173
0
174
0
175
0
176
0
177
0
178
0
270
2
179
2
271
2
272
2
273
2
274
2
275
0
280
0
281
0
282
0
283
1
284
8
285
0
286
0
287
3
288
0
340
11
278
46
341
212
342
212
343
212
344
212
  0
ENDTAB
  0
ENDSEC
  0
SECTION
  2
BLOCKS
  0
BLOCK
  5
20
100
AcDbEntity
  8
0
100
AcDbBlockBegin
  2
*Model_Space
 70
0
 10
0.0
 20
0.0
 30
0.0
  3
*Model_Space
  1

  0
ENDBLK
  5
21
100
AcDbEntity
  8
0
100
AcDbBlockEnd
  0
BLOCK
  5
1C
100
AcDbEntity
  8
0
100
AcDbBlockBegin
  2
*Paper_Space
 70
0
 10
0.0
 20
0.0
 30
0.0
  3
*Paper_Space
  1

  0
ENDBLK
  5
1D
100
AcDbEntity
  8
0
100
AcDbBlockEnd
  0
BLOCK
  5
214
100
AcDbEntity
  8
0
100
AcDbBlockBegin
  2
_FILLED
 70
64
 10
0.0
 20
0.0
  3
_FILLED
  1

  0
SOLID
  5
215
100
AcDbEntity
  8
0
  6
BYBLOCK
 62
0
100
AcDbTrace
 10
0.0
 20
0.0
 11
-1.0
 21
0.25
 12
-1.0
 22
-0.25
 13
-1.0
 23
-0.25
  0
ENDBLK
  5
216
100
AcDbEntity
  8
0
  6
BYBLOCK
 62
0
100
AcDbBlockEnd
  0
ENDSEC
  0
SECTION
  2
ENTITIES
  0
LINE
  5
217
100
AcDbEntity
  8
0
100
AcDbLine
 62
7
  6
BYLAYER
 10
8.5208344687
 20
68.60985248
 11
5.7362247779
 21
67.0021573254
  0
LINE
  5
218
100
AcDbEntity
  8
0
100
AcDbLine
 62
7
  6
BYLAYER
 10
8.5208344687
 20
63.60985248
 11
5.7362247779
 21
62.0021573254
  0
LINE
  5
219
100
AcDbEntity
  8
0
100
AcDbLine
 62
7
  6
BYLAYER
 10
32.0208344687
 20
5.10985248
 11
21.0208344687
 21
5.10985248
  0
LINE
  5
21A
100
AcDbEntity
  8
0
100
AcDbLine
 62
7
  6
BYLAYER
 10
32.5208344687
 20
6.10985248
 11
20.5208344687
 21
6.10985248
  0
LINE
  5
21B
100
AcDbEntity
  8
0
100
AcDbLine
 62
7
  6
BYLAYER
 10
20.5208344687
 20
12.10985248
 11
32.5208344687
 21
12.10985248
  0
LINE
  5
21C
100
AcDbEntity
  8
0
100
AcDbLine
 62
7
  6
BYLAYER
 10
32.0208344687
 20
13.10985248
 11
21.0208344687
 21
13.10985248
  0
LINE
  5
21D
100
AcDbEntity
  8
0
100
AcDbLine
 62
7
  6
BYLAYER
 10
13.7708344687
 20
18.10985248
 11
12.7708344687
 21
18.60985248
  0
LINE
  5
21E
100
AcDbEntity
  8
0
100
AcDbLine
 62
7
  6
BYLAYER
 10
5.7362247779
 20
67.0021573254
 11
5.7362247779
 21
65.2175476346
  0
LINE
  5
21F
100
AcDbEntity
  8
0
100
AcDbLine
 62
7
  6
BYLAYER
 10
5.7362247779
 20
62.0021573254
 11
5.7362247779
 21
60.2175476346
  0
LINE
  5
220
100
AcDbEntity
  8
0
100
AcDbLine
 62
7
  6
BYLAYER
 10
39.2708344687
 20
18.10985248
 11
13.7708344687
 21
18.10985248
  0
LINE
  5
221
100
AcDbEntity
  8
0
100
AcDbLine
 62
7
  6
BYLAYER
 10
40.2708344687
 20
18.60985248
 11
12.7708344687
 21
18.60985248
  0
LINE
  5
222
100
AcDbEntity
  8
0
100
AcDbLine
 62
7
  6
BYLAYER
 10
21.0208344687
 20
5.10985248
 11
20.5208344687
 21
6.10985248
  0
LINE
  5
223
100
AcDbEntity
  8
0
100
AcDbLine
 62
7
  6
BYLAYER
 10
11.5208344687
 20
27.85985248
 11
11.5208344687
 21
58.60985248
  0
LINE
  5
224
100
AcDbEntity
  8
0
100
AcDbLine
 62
7
  6
BYLAYER
 10
12.7708344687
 20
26.60985248
 11
11.5208344687
 21
27.85985248
  0
LINE
  5
225
100
AcDbEntity
  8
0
100
AcDbLine
 62
7
  6
BYLAYER
 10
12.7708344687
 20
18.60985248
 11
12.7708344687
 21
26.60985248
  0
LINE
  5
226
100
AcDbEntity
  8
0
100
AcDbLine
 62
7
  6
BYLAYER
 10
44.5208344687
 20
63.60985248
 11
47.3054441596
 21
65.2175476346
  0
LINE
  5
227
100
AcDbEntity
  8
0
100
AcDbLine
 62
7
  6
BYLAYER
 10
16.1285296233
 20
67.0021573254
 11
16.1285296233
 21
65.2175476346
  0
LINE
  5
228
100
AcDbEntity
  8
0
100
AcDbLine
 62
7
  6
BYLAYER
 10
16.1285296233
 20
62.0021573254
 11
16.1285296233
 21
60.2175476346
  0
LINE
  5
229
100
AcDbEntity
  8
0
100
AcDbLine
 62
7
  6
BYLAYER
 10
44.5208344687
 20
58.60985248
 11
47.3054441596
 21
60.2175476346
  0
LINE
  5
22A
100
AcDbEntity
  8
0
100
AcDbLine
 62
7
  6
BYLAYER
 10
12.7708344687
 20
26.60985248
 11
40.2708344687
 21
26.60985248
  0
LINE
  5
22B
100
AcDbEntity
  8
0
100
AcDbLine
 62
7
  6
BYLAYER
 10
41.5208344687
 20
27.85985248
 11
11.5208344687
 21
27.85985248
  0
LINE
  5
22C
100
AcDbEntity
  8
0
100
AcDbLine
 62
7
  6
BYLAYER
 10
20.5208344687
 20
6.10985248
 11
20.5208344687
 21
12.10985248
  0
LINE
  5
22D
100
AcDbEntity
  8
0
100
AcDbLine
 62
7
  6
BYLAYER
 10
21.0208344687
 20
13.10985248
 11
21.0208344687
 21
18.10985248
  0
LINE
  5
22E
100
AcDbEntity
  8
0
100
AcDbLine
 62
7
  6
BYLAYER
 10
32.0208344687
 20
13.10985248
 11
32.5208344687
 21
12.10985248
  0
LINE
  5
22F
100
AcDbEntity
  8
0
100
AcDbLine
 62
7
  6
BYLAYER
 10
32.0208344687
 20
18.10985248
 11
32.0208344687
 21
13.10985248
  0
LINE
  5
230
100
AcDbEntity
  8
0
100
AcDbLine
 62
7
  6
BYLAYER
 10
32.5208344687
 20
12.10985248
 11
32.5208344687
 21
6.10985248
  0
LINE
  5
231
100
AcDbEntity
  8
0
100
AcDbLine
 62
7
  6
BYLAYER
 10
20.5208344687
 20
12.10985248
 11
21.0208344687
 21
13.10985248
  0
LINE
  5
232
100
AcDbEntity
  8
0
100
AcDbLine
 62
7
  6
BYLAYER
 10
36.9131393141
 20
67.0021573254
 11
36.9131393141
 21
65.2175476346
  0
LINE
  5
233
100
AcDbEntity
  8
0
100
AcDbLine
 62
7
  6
BYLAYER
 10
36.9131393141
 20
62.0021573254
 11
36.9131393141
 21
60.2175476346
  0
LINE
  5
234
100
AcDbEntity
  8
0
100
AcDbLine
 62
7
  6
BYLAYER
 10
5.7362247779
 20
60.2175476346
 11
8.5208344687
 21
58.60985248
  0
LINE
  5
235
100
AcDbEntity
  8
0
100
AcDbLine
 62
7
  6
BYLAYER
 10
40.2708344687
 20
26.60985248
 11
40.2708344687
 21
18.60985248
  0
LINE
  5
236
100
AcDbEntity
  8
0
100
AcDbLine
 62
7
  6
BYLAYER
 10
41.5208344687
 20
58.60985248
 11
41.5208344687
 21
27.85985248
  0
LINE
  5
237
100
AcDbEntity
  8
0
100
AcDbLine
 62
7
  6
BYLAYER
 10
5.7362247779
 20
65.2175476346
 11
8.5208344687
 21
63.60985248
  0
LINE
  5
238
100
AcDbEntity
  8
0
100
AcDbLine
 62
7
  6
BYLAYER
 10
41.5208344687
 20
27.85985248
 11
40.2708344687
 21
26.60985248
  0
LINE
  5
239
100
AcDbEntity
  8
0
100
AcDbLine
 62
7
  6
BYLAYER
 10
32.5208344687
 20
6.10985248
 11
32.0208344687
 21
5.10985248
  0
LINE
  5
23A
100
AcDbEntity
  8
0
100
AcDbLine
 62
7
  6
BYLAYER
 10
47.3054441596
 20
67.0021573254
 11
47.3054441596
 21
65.2175476346
  0
LINE
  5
23B
100
AcDbEntity
  8
0
100
AcDbLine
 62
7
  6
BYLAYER
 10
47.3054441596
 20
62.0021573254
 11
47.3054441596
 21
60.2175476346
  0
LINE
  5
23C
100
AcDbEntity
  8
0
100
AcDbLine
 62
7
  6
BYLAYER
 10
40.2708344687
 20
18.60985248
 11
39.2708344687
 21
18.10985248
  0
LINE
  5
23D
100
AcDbEntity
  8
0
100
AcDbLine
 62
7
  6
BYLAYER
 10
44.5208344687
 20
58.60985248
 11
8.5208344687
 21
58.60985248
  0
LINE
  5
23E
100
AcDbEntity
  8
0
100
AcDbLine
 62
7
  6
BYLAYER
 10
44.5208344687
 20
63.60985248
 11
8.5208344687
 21
63.60985248
  0
LINE
  5
23F
100
AcDbEntity
  8
0
100
AcDbLine
 62
7
  6
BYLAYER
 10
8.5208344687
 20
68.60985248
 11
44.5208344687
 21
68.60985248
  0
LINE
  5
240
100
AcDbEntity
  8
0
100
AcDbLine
 62
7
  6
BYLAYER
 10
47.3054441596
 20
62.0021573254
 11
44.5208344687
 21
63.60985248
  0
LINE
  5
241
100
AcDbEntity
  8
0
100
AcDbLine
 62
7
  6
BYLAYER
 10
47.3054441596
 20
67.0021573254
 11
44.5208344687
 21
68.60985248
  0
ARC
  5
242
100
AcDbEntity
  8
0
100
AcDbCircle
 62
7
  6
BYLAYER
 10
22.9853005628
 20
16.10985248
 40
0.5
100
AcDbArc
 50
111.4503982285
 51
248.0404864918
  0
ARC
  5
243
100
AcDbEntity
  8
0
100
AcDbCircle
 62
7
  6
BYLAYER
 10
30.0563683747
 20
16.10985248
 40
0.5
100
AcDbArc
 50
291.4503982285
 51
68.0404864918
  0
ARC
  5
244
100
AcDbEntity
  8
0
100
AcDbCircle
 62
7
  6
BYLAYER
 10
30.5407097494
 20
16.0492520875
 40
0.4868211725
100
AcDbArc
 50
212.4067889916
 51
219.0137850777
  0
ARC
  5
245
100
AcDbEntity
  8
0
100
AcDbCircle
 62
7
  6
BYLAYER
 10
22.500959188
 20
16.1704528726
 40
0.4868211725
100
AcDbArc
 50
32.4067889916
 51
39.0137850777
  0
ARC
  5
246
100
AcDbEntity
  8
0
100
AcDbCircle
 62
7
  6
BYLAYER
 10
30.5351416519
 20
16.1744633268
 40
0.4799706306
100
AcDbArc
 50
140.9611134615
 51
147.5921130651
  0
ARC
  5
247
100
AcDbEntity
  8
0
100
AcDbCircle
 62
7
  6
BYLAYER
 10
22.5065272856
 20
16.0452416332
 40
0.4799706306
100
AcDbArc
 50
320.9611134616
 51
327.5921130651
  0
SPLINE
  5
248
100
AcDbEntity
  8
0
100
AcDbSpline
 62
7
  6
BYLAYER
 70
0
 71
3
 72
14
 73
10
 74
0
 42
0.0000001
 43
0.0000001
 44
0.0000000001
 40
0.0
 40
0.0
 40
0.0
 40
0.0
 40
0.1199286093
 40
0.2404930608
 40
0.3622461737
 40
0.485641672
 40
0.610991295
 40
0.7384771918
 40
1.0
 40
1.0
 40
1.0
 40
1.0
 10
10.9323772006
 20
63.60985248
 30
0.0
 10
10.7124215844
 20
63.60985248
 30
0.0
 10
10.2711209022
 20
63.6285462166
 30
0.0
 10
9.6112995509
 20
63.7120840058
 30
0.0
 10
8.9540605817
 20
63.8493235703
 30
0.0
 10
8.3004354964
 20
64.0371171173
 30
0.0
 10
7.650969728
 20
64.2716026319
 30
0.0
 10
6.7838888735
 20
64.6442786141
 30
0.0
 10
6.1516113568
 20
64.9777240815
 30
0.0
 10
5.7362247779
 20
65.2175476346
 30
0.0
  0
SPLINE
  5
249
100
AcDbEntity
  8
0
100
AcDbSpline
 62
7
  6
BYLAYER
 70
0
 71
3
 72
14
 73
10
 74
0
 42
0.0000001
 43
0.0000001
 44
0.0000000001
 40
0.0
 40
0.0
 40
0.0
 40
0.0
 40
0.2615228632
 40
0.3890087986
 40
0.5143584456
 40
0.6377539801
 40
0.7595070544
 40
0.8800714271
 40
1.0
 40
1.0
 40
1.0
 40
1.0
 10
36.9131393141
 20
67.0021573254
 30
0.0
 10
37.3285259784
 20
67.2419809279
 30
0.0
 10
37.960803895
 20
67.5754259955
 30
0.0
 10
38.8278849532
 20
67.9481020359
 30
0.0
 10
39.4773508277
 20
68.1825876976
 30
0.0
 10
40.1309756396
 20
68.3703824416
 30
0.0
 10
40.788214716
 20
68.5076207774
 30
0.0
 10
41.4480356879
 20
68.591159135
 30
0.0
 10
41.8893361884
 20
68.60985248
 30
0.0
 10
42.1092917368
 20
68.60985248
 30
0.0
  0
SPLINE
  5
24A
100
AcDbEntity
  8
0
100
AcDbSpline
 62
7
  6
BYLAYER
 70
0
 71
3
 72
13
 73
9
 74
0
 42
0.0000001
 43
0.0000001
 44
0.0000000001
 40
0.0
 40
0.0
 40
0.0
 40
0.0
 40
0.1250057515
 40
0.2500202242
 40
0.3750288535
 40
0.5000355765
 40
0.7500130495
 40
1.0
 40
1.0
 40
1.0
 40
1.0
 10
26.5208344687
 20
63.60985248
 30
0.0
 10
26.0812158697
 20
63.60985248
 30
0.0
 10
25.2018351861
 20
63.6284308543
 30
0.0
 10
23.8852029812
 20
63.7115599712
 30
0.0
 10
22.5730412169
 20
63.8482419882
 30
0.0
 10
20.8321085301
 20
64.0978402681
 30
0.0
 10
18.6746720741
 20
64.5267494477
 30
0.0
 10
16.9731904404
 20
64.9737150596
 30
0.0
 10
16.1285296233
 20
65.2175476346
 30
0.0
  0
SPLINE
  5
24B
100
AcDbEntity
  8
0
100
AcDbSpline
 62
7
  6
BYLAYER
 70
0
 71
3
 72
14
 73
10
 74
0
 42
0.0000001
 43
0.0000001
 44
0.0000000001
 40
0.0
 40
0.0
 40
0.0
 40
0.0
 40
0.2615228632
 40
0.3890087986
 40
0.5143584456
 40
0.6377539801
 40
0.7595070544
 40
0.8800714271
 40
1.0
 40
1.0
 40
1.0
 40
1.0
 10
16.1285296233
 20
65.2175476346
 30
0.0
 10
15.7131429591
 20
64.9777240322
 30
0.0
 10
15.0808650424
 20
64.6442789646
 30
0.0
 10
14.2137839842
 20
64.2716029242
 30
0.0
 10
13.5643181098
 20
64.0371172625
 30
0.0
 10
12.9106932979
 20
63.8493225184
 30
0.0
 10
12.2534542215
 20
63.7120841827
 30
0.0
 10
11.5936332496
 20
63.6285458251
 30
0.0
 10
11.152332749
 20
63.60985248
 30
0.0
 10
10.9323772006
 20
63.60985248
 30
0.0
  0
SPLINE
  5
24C
100
AcDbEntity
  8
0
100
AcDbSpline
 62
7
  6
BYLAYER
 70
0
 71
3
 72
14
 73
10
 74
0
 42
0.0000001
 43
0.0000001
 44
0.0000000001
 40
0.0
 40
0.0
 40
0.0
 40
0.0
 40
0.1199286093
 40
0.2404930608
 40
0.3622461737
 40
0.485641672
 40
0.610991295
 40
0.7384771918
 40
1.0
 40
1.0
 40
1.0
 40
1.0
 10
42.1092917368
 20
63.60985248
 30
0.0
 10
41.8893361206
 20
63.60985248
 30
0.0
 10
41.4480354384
 20
63.6285462166
 30
0.0
 10
40.7882140872
 20
63.7120840058
 30
0.0
 10
40.1309751179
 20
63.8493235703
 30
0.0
 10
39.4773500327
 20
64.0371171173
 30
0.0
 10
38.8278842643
 20
64.2716026319
 30
0.0
 10
37.9608034098
 20
64.6442786141
 30
0.0
 10
37.3285258931
 20
64.9777240815
 30
0.0
 10
36.9131393141
 20
65.2175476346
 30
0.0
  0
SPLINE
  5
24D
100
AcDbEntity
  8
0
100
AcDbSpline
 62
7
  6
BYLAYER
 70
0
 71
3
 72
13
 73
9
 74
0
 42
0.0000001
 43
0.0000001
 44
0.0000000001
 40
0.0
 40
0.0
 40
0.0
 40
0.0
 40
0.2499870333
 40
0.499964558
 40
0.6249712931
 40
0.7499798971
 40
0.8749942858
 40
1.0
 40
1.0
 40
1.0
 40
1.0
 10
36.9131393141
 20
65.2175476346
 30
0.0
 10
36.0684782182
 20
64.973714979
 30
0.0
 10
34.3669959408
 20
64.526749887
 30
0.0
 10
32.209559015
 20
64.097840791
 30
0.0
 10
30.468626401
 20
63.848240915
 30
0.0
 10
29.156464847
 20
63.7115601625
 30
0.0
 10
27.8398332081
 20
63.6284304581
 30
0.0
 10
26.9604529361
 20
63.60985248
 30
0.0
 10
26.5208344687
 20
63.60985248
 30
0.0
  0
SPLINE
  5
24E
100
AcDbEntity
  8
0
100
AcDbSpline
 62
7
  6
BYLAYER
 70
0
 71
3
 72
14
 73
10
 74
0
 42
0.0000001
 43
0.0000001
 44
0.0000000001
 40
0.0
 40
0.0
 40
0.0
 40
0.0
 40
0.2615228632
 40
0.3890087986
 40
0.5143584456
 40
0.6377539801
 40
0.7595070544
 40
0.8800714271
 40
1.0
 40
1.0
 40
1.0
 40
1.0
 10
5.7362247779
 20
67.0021573254
 30
0.0
 10
6.1516114422
 20
67.2419809279
 30
0.0
 10
6.7838893588
 20
67.5754259955
 30
0.0
 10
7.650970417
 20
67.9481020359
 30
0.0
 10
8.3004362914
 20
68.1825876976
 30
0.0
 10
8.9540611033
 20
68.3703824416
 30
0.0
 10
9.6113001797
 20
68.5076207774
 30
0.0
 10
10.2711211516
 20
68.591159135
 30
0.0
 10
10.7124216522
 20
68.60985248
 30
0.0
 10
10.9323772006
 20
68.60985248
 30
0.0
  0
SPLINE
  5
24F
100
AcDbEntity
  8
0
100
AcDbSpline
 62
7
  6
BYLAYER
 70
0
 71
3
 72
14
 73
10
 74
0
 42
0.0000001
 43
0.0000001
 44
0.0000000001
 40
0.0
 40
0.0
 40
0.0
 40
0.0
 40
0.2615228632
 40
0.3890087986
 40
0.5143584456
 40
0.6377539801
 40
0.7595070544
 40
0.8800714271
 40
1.0
 40
1.0
 40
1.0
 40
1.0
 10
47.3054441596
 20
65.2175476346
 30
0.0
 10
46.8900574953
 20
64.9777240322
 30
0.0
 10
46.2577795787
 20
64.6442789646
 30
0.0
 10
45.3906985205
 20
64.2716029242
 30
0.0
 10
44.741232646
 20
64.0371172625
 30
0.0
 10
44.0876078341
 20
63.8493225184
 30
0.0
 10
43.4303687577
 20
63.7120841827
 30
0.0
 10
42.7705477858
 20
63.6285458251
 30
0.0
 10
42.3292472853
 20
63.60985248
 30
0.0
 10
42.1092917368
 20
63.60985248
 30
0.0
  0
SPLINE
  5
250
100
AcDbEntity
  8
0
100
AcDbSpline
 62
7
  6
BYLAYER
 70
0
 71
3
 72
13
 73
9
 74
0
 42
0.0000001
 43
0.0000001
 44
0.0000000001
 40
0.0
 40
0.0
 40
0.0
 40
0.0
 40
0.1250057515
 40
0.2500202242
 40
0.3750288535
 40
0.5000355765
 40
0.7500130495
 40
1.0
 40
1.0
 40
1.0
 40
1.0
 10
26.5208344687
 20
68.60985248
 30
0.0
 10
26.9604530678
 20
68.60985248
 30
0.0
 10
27.8398337513
 20
68.5912741058
 30
0.0
 10
29.1564659562
 20
68.5081449888
 30
0.0
 10
30.4686277206
 20
68.3714629719
 30
0.0
 10
32.2095604073
 20
68.1218646919
 30
0.0
 10
34.3669968634
 20
67.6929555123
 30
0.0
 10
36.068478497
 20
67.2459899005
 30
0.0
 10
36.9131393141
 20
67.0021573254
 30
0.0
  0
SPLINE
  5
251
100
AcDbEntity
  8
0
100
AcDbSpline
 62
7
  6
BYLAYER
 70
0
 71
3
 72
13
 73
9
 74
0
 42
0.0000001
 43
0.0000001
 44
0.0000000001
 40
0.0
 40
0.0
 40
0.0
 40
0.0
 40
0.2499870333
 40
0.499964558
 40
0.6249712931
 40
0.7499798971
 40
0.8749942858
 40
1.0
 40
1.0
 40
1.0
 40
1.0
 10
16.1285296233
 20
67.0021573254
 30
0.0
 10
16.9731907193
 20
67.245989981
 30
0.0
 10
18.6746729966
 20
67.692955073
 30
0.0
 10
20.8321099225
 20
68.1218641691
 30
0.0
 10
22.5730425364
 20
68.3714640451
 30
0.0
 10
23.8852040904
 20
68.5081447976
 30
0.0
 10
25.2018357294
 20
68.5912745019
 30
0.0
 10
26.0812160013
 20
68.60985248
 30
0.0
 10
26.5208344687
 20
68.60985248
 30
0.0
  0
SPLINE
  5
252
100
AcDbEntity
  8
0
100
AcDbSpline
 62
7
  6
BYLAYER
 70
0
 71
3
 72
14
 73
10
 74
0
 42
0.0000001
 43
0.0000001
 44
0.0000000001
 40
0.0
 40
0.0
 40
0.0
 40
0.0
 40
0.1199286093
 40
0.2404930608
 40
0.3622461737
 40
0.485641672
 40
0.610991295
 40
0.7384771918
 40
1.0
 40
1.0
 40
1.0
 40
1.0
 10
42.1092917368
 20
68.60985248
 30
0.0
 10
42.3292473531
 20
68.60985248
 30
0.0
 10
42.7705480353
 20
68.5911587434
 30
0.0
 10
43.4303693865
 20
68.5076209543
 30
0.0
 10
44.0876083558
 20
68.3703813898
 30
0.0
 10
44.741233441
 20
68.1825878427
 30
0.0
 10
45.3906992094
 20
67.9481023281
 30
0.0
 10
46.2577800639
 20
67.575426346
 30
0.0
 10
46.8900575806
 20
67.2419808786
 30
0.0
 10
47.3054441596
 20
67.0021573254
 30
0.0
  0
SPLINE
  5
253
100
AcDbEntity
  8
0
100
AcDbSpline
 62
7
  6
BYLAYER
 70
0
 71
3
 72
14
 73
10
 74
0
 42
0.0000001
 43
0.0000001
 44
0.0000000001
 40
0.0
 40
0.0
 40
0.0
 40
0.0
 40
0.1199286093
 40
0.2404930608
 40
0.3622461737
 40
0.485641672
 40
0.610991295
 40
0.7384771918
 40
1.0
 40
1.0
 40
1.0
 40
1.0
 10
10.9323772006
 20
68.60985248
 30
0.0
 10
11.1523328168
 20
68.60985248
 30
0.0
 10
11.5936334991
 20
68.5911587434
 30
0.0
 10
12.2534548503
 20
68.5076209543
 30
0.0
 10
12.9106938195
 20
68.3703813898
 30
0.0
 10
13.5643189048
 20
68.1825878427
 30
0.0
 10
14.2137846732
 20
67.9481023281
 30
0.0
 10
15.0808655277
 20
67.575426346
 30
0.0
 10
15.7131430444
 20
67.2419808786
 30
0.0
 10
16.1285296233
 20
67.0021573254
 30
0.0
  0
SPLINE
  5
254
100
AcDbEntity
  8
0
100
AcDbSpline
 62
7
  6
BYLAYER
 70
0
 71
3
 72
14
 73
10
 74
0
 42
0.0000001
 43
0.0000001
 44
0.0000000001
 40
0.0
 40
0.0
 40
0.0
 40
0.0
 40
0.1199286093
 40
0.2404930608
 40
0.3622461737
 40
0.485641672
 40
0.610991295
 40
0.7384771918
 40
1.0
 40
1.0
 40
1.0
 40
1.0
 10
10.9323772006
 20
58.60985248
 30
0.0
 10
10.7124215844
 20
58.60985248
 30
0.0
 10
10.2711209022
 20
58.6285462166
 30
0.0
 10
9.6112995509
 20
58.7120840058
 30
0.0
 10
8.9540605817
 20
58.8493235703
 30
0.0
 10
8.3004354964
 20
59.0371171173
 30
0.0
 10
7.650969728
 20
59.2716026319
 30
0.0
 10
6.7838888735
 20
59.6442786141
 30
0.0
 10
6.1516113568
 20
59.9777240815
 30
0.0
 10
5.7362247779
 20
60.2175476346
 30
0.0
  0
SPLINE
  5
255
100
AcDbEntity
  8
0
100
AcDbSpline
 62
7
  6
BYLAYER
 70
0
 71
3
 72
14
 73
10
 74
0
 42
0.0000001
 43
0.0000001
 44
0.0000000001
 40
0.0
 40
0.0
 40
0.0
 40
0.0
 40
0.2615228632
 40
0.3890087986
 40
0.5143584456
 40
0.6377539801
 40
0.7595070544
 40
0.8800714271
 40
1.0
 40
1.0
 40
1.0
 40
1.0
 10
36.9131393141
 20
62.0021573254
 30
0.0
 10
37.3285259784
 20
62.2419809279
 30
0.0
 10
37.960803895
 20
62.5754259955
 30
0.0
 10
38.8278849532
 20
62.9481020359
 30
0.0
 10
39.4773508277
 20
63.1825876976
 30
0.0
 10
40.1309756396
 20
63.3703824416
 30
0.0
 10
40.788214716
 20
63.5076207774
 30
0.0
 10
41.4480356879
 20
63.591159135
 30
0.0
 10
41.8893361884
 20
63.60985248
 30
0.0
 10
42.1092917368
 20
63.60985248
 30
0.0
  0
SPLINE
  5
256
100
AcDbEntity
  8
0
100
AcDbSpline
 62
7
  6
BYLAYER
 70
0
 71
3
 72
13
 73
9
 74
0
 42
0.0000001
 43
0.0000001
 44
0.0000000001
 40
0.0
 40
0.0
 40
0.0
 40
0.0
 40
0.1250057515
 40
0.2500202242
 40
0.3750288535
 40
0.5000355765
 40
0.7500130495
 40
1.0
 40
1.0
 40
1.0
 40
1.0
 10
26.5208344687
 20
58.60985248
 30
0.0
 10
26.0812158697
 20
58.60985248
 30
0.0
 10
25.2018351861
 20
58.6284308543
 30
0.0
 10
23.8852029812
 20
58.7115599712
 30
0.0
 10
22.5730412169
 20
58.8482419882
 30
0.0
 10
20.8321085301
 20
59.0978402681
 30
0.0
 10
18.6746720741
 20
59.5267494477
 30
0.0
 10
16.9731904404
 20
59.9737150596
 30
0.0
 10
16.1285296233
 20
60.2175476346
 30
0.0
  0
SPLINE
  5
257
100
AcDbEntity
  8
0
100
AcDbSpline
 62
7
  6
BYLAYER
 70
0
 71
3
 72
14
 73
10
 74
0
 42
0.0000001
 43
0.0000001
 44
0.0000000001
 40
0.0
 40
0.0
 40
0.0
 40
0.0
 40
0.2615228632
 40
0.3890087986
 40
0.5143584456
 40
0.6377539801
 40
0.7595070544
 40
0.8800714271
 40
1.0
 40
1.0
 40
1.0
 40
1.0
 10
16.1285296233
 20
60.2175476346
 30
0.0
 10
15.7131429591
 20
59.9777240322
 30
0.0
 10
15.0808650424
 20
59.6442789646
 30
0.0
 10
14.2137839842
 20
59.2716029242
 30
0.0
 10
13.5643181098
 20
59.0371172625
 30
0.0
 10
12.9106932979
 20
58.8493225184
 30
0.0
 10
12.2534542215
 20
58.7120841827
 30
0.0
 10
11.5936332496
 20
58.6285458251
 30
0.0
 10
11.152332749
 20
58.60985248
 30
0.0
 10
10.9323772006
 20
58.60985248
 30
0.0
  0
SPLINE
  5
258
100
AcDbEntity
  8
0
100
AcDbSpline
 62
7
  6
BYLAYER
 70
0
 71
3
 72
14
 73
10
 74
0
 42
0.0000001
 43
0.0000001
 44
0.0000000001
 40
0.0
 40
0.0
 40
0.0
 40
0.0
 40
0.1199286093
 40
0.2404930608
 40
0.3622461737
 40
0.485641672
 40
0.610991295
 40
0.7384771918
 40
1.0
 40
1.0
 40
1.0
 40
1.0
 10
42.1092917368
 20
58.60985248
 30
0.0
 10
41.8893361206
 20
58.60985248
 30
0.0
 10
41.4480354384
 20
58.6285462166
 30
0.0
 10
40.7882140872
 20
58.7120840058
 30
0.0
 10
40.1309751179
 20
58.8493235703
 30
0.0
 10
39.4773500327
 20
59.0371171173
 30
0.0
 10
38.8278842643
 20
59.2716026319
 30
0.0
 10
37.9608034098
 20
59.6442786141
 30
0.0
 10
37.3285258931
 20
59.9777240815
 30
0.0
 10
36.9131393141
 20
60.2175476346
 30
0.0
  0
SPLINE
  5
259
100
AcDbEntity
  8
0
100
AcDbSpline
 62
7
  6
BYLAYER
 70
0
 71
3
 72
13
 73
9
 74
0
 42
0.0000001
 43
0.0000001
 44
0.0000000001
 40
0.0
 40
0.0
 40
0.0
 40
0.0
 40
0.2499870333
 40
0.499964558
 40
0.6249712931
 40
0.7499798971
 40
0.8749942858
 40
1.0
 40
1.0
 40
1.0
 40
1.0
 10
36.9131393141
 20
60.2175476346
 30
0.0
 10
36.0684782182
 20
59.973714979
 30
0.0
 10
34.3669959408
 20
59.526749887
 30
0.0
 10
32.209559015
 20
59.097840791
 30
0.0
 10
30.468626401
 20
58.848240915
 30
0.0
 10
29.156464847
 20
58.7115601625
 30
0.0
 10
27.8398332081
 20
58.6284304581
 30
0.0
 10
26.9604529361
 20
58.60985248
 30
0.0
 10
26.5208344687
 20
58.60985248
 30
0.0
  0
SPLINE
  5
25A
100
AcDbEntity
  8
0
100
AcDbSpline
 62
7
  6
BYLAYER
 70
0
 71
3
 72
14
 73
10
 74
0
 42
0.0000001
 43
0.0000001
 44
0.0000000001
 40
0.0
 40
0.0
 40
0.0
 40
0.0
 40
0.2615228632
 40
0.3890087986
 40
0.5143584456
 40
0.6377539801
 40
0.7595070544
 40
0.8800714271
 40
1.0
 40
1.0
 40
1.0
 40
1.0
 10
5.7362247779
 20
62.0021573254
 30
0.0
 10
6.1516114422
 20
62.2419809279
 30
0.0
 10
6.7838893588
 20
62.5754259955
 30
0.0
 10
7.650970417
 20
62.9481020359
 30
0.0
 10
8.3004362914
 20
63.1825876976
 30
0.0
 10
8.9540611033
 20
63.3703824416
 30
0.0
 10
9.6113001797
 20
63.5076207774
 30
0.0
 10
10.2711211516
 20
63.591159135
 30
0.0
 10
10.7124216522
 20
63.60985248
 30
0.0
 10
10.9323772006
 20
63.60985248
 30
0.0
  0
SPLINE
  5
25B
100
AcDbEntity
  8
0
100
AcDbSpline
 62
7
  6
BYLAYER
 70
0
 71
3
 72
14
 73
10
 74
0
 42
0.0000001
 43
0.0000001
 44
0.0000000001
 40
0.0
 40
0.0
 40
0.0
 40
0.0
 40
0.2615228632
 40
0.3890087986
 40
0.5143584456
 40
0.6377539801
 40
0.7595070544
 40
0.8800714271
 40
1.0
 40
1.0
 40
1.0
 40
1.0
 10
47.3054441596
 20
60.2175476346
 30
0.0
 10
46.8900574953
 20
59.9777240322
 30
0.0
 10
46.2577795787
 20
59.6442789646
 30
0.0
 10
45.3906985205
 20
59.2716029242
 30
0.0
 10
44.741232646
 20
59.0371172625
 30
0.0
 10
44.0876078341
 20
58.8493225184
 30
0.0
 10
43.4303687577
 20
58.7120841827
 30
0.0
 10
42.7705477858
 20
58.6285458251
 30
0.0
 10
42.3292472853
 20
58.60985248
 30
0.0
 10
42.1092917368
 20
58.60985248
 30
0.0
  0
SPLINE
  5
25C
100
AcDbEntity
  8
0
100
AcDbSpline
 62
7
  6
BYLAYER
 70
0
 71
3
 72
13
 73
9
 74
0
 42
0.0000001
 43
0.0000001
 44
0.0000000001
 40
0.0
 40
0.0
 40
0.0
 40
0.0
 40
0.1250057515
 40
0.2500202242
 40
0.3750288535
 40
0.5000355765
 40
0.7500130495
 40
1.0
 40
1.0
 40
1.0
 40
1.0
 10
26.5208344687
 20
63.60985248
 30
0.0
 10
26.9604530678
 20
63.60985248
 30
0.0
 10
27.8398337513
 20
63.5912741058
 30
0.0
 10
29.1564659562
 20
63.5081449888
 30
0.0
 10
30.4686277206
 20
63.3714629719
 30
0.0
 10
32.2095604073
 20
63.1218646919
 30
0.0
 10
34.3669968634
 20
62.6929555123
 30
0.0
 10
36.068478497
 20
62.2459899005
 30
0.0
 10
36.9131393141
 20
62.0021573254
 30
0.0
  0
SPLINE
  5
25D
100
AcDbEntity
  8
0
100
AcDbSpline
 62
7
  6
BYLAYER
 70
0
 71
3
 72
13
 73
9
 74
0
 42
0.0000001
 43
0.0000001
 44
0.0000000001
 40
0.0
 40
0.0
 40
0.0
 40
0.0
 40
0.2499870333
 40
0.499964558
 40
0.6249712931
 40
0.7499798971
 40
0.8749942858
 40
1.0
 40
1.0
 40
1.0
 40
1.0
 10
16.1285296233
 20
62.0021573254
 30
0.0
 10
16.9731907193
 20
62.245989981
 30
0.0
 10
18.6746729966
 20
62.692955073
 30
0.0
 10
20.8321099225
 20
63.1218641691
 30
0.0
 10
22.5730425364
 20
63.3714640451
 30
0.0
 10
23.8852040904
 20
63.5081447976
 30
0.0
 10
25.2018357294
 20
63.5912745019
 30
0.0
 10
26.0812160013
 20
63.60985248
 30
0.0
 10
26.5208344687
 20
63.60985248
 30
0.0
  0
SPLINE
  5
25E
100
AcDbEntity
  8
0
100
AcDbSpline
 62
7
  6
BYLAYER
 70
0
 71
3
 72
14
 73
10
 74
0
 42
0.0000001
 43
0.0000001
 44
0.0000000001
 40
0.0
 40
0.0
 40
0.0
 40
0.0
 40
0.1199286093
 40
0.2404930608
 40
0.3622461737
 40
0.485641672
 40
0.610991295
 40
0.7384771918
 40
1.0
 40
1.0
 40
1.0
 40
1.0
 10
42.1092917368
 20
63.60985248
 30
0.0
 10
42.3292473531
 20
63.60985248
 30
0.0
 10
42.7705480353
 20
63.5911587434
 30
0.0
 10
43.4303693865
 20
63.5076209543
 30
0.0
 10
44.0876083558
 20
63.3703813898
 30
0.0
 10
44.741233441
 20
63.1825878427
 30
0.0
 10
45.3906992094
 20
62.9481023281
 30
0.0
 10
46.2577800639
 20
62.575426346
 30
0.0
 10
46.8900575806
 20
62.2419808786
 30
0.0
 10
47.3054441596
 20
62.0021573254
 30
0.0
  0
SPLINE
  5
25F
100
AcDbEntity
  8
0
100
AcDbSpline
 62
7
  6
BYLAYER
 70
0
 71
3
 72
14
 73
10
 74
0
 42
0.0000001
 43
0.0000001
 44
0.0000000001
 40
0.0
 40
0.0
 40
0.0
 40
0.0
 40
0.1199286093
 40
0.2404930608
 40
0.3622461737
 40
0.485641672
 40
0.610991295
 40
0.7384771918
 40
1.0
 40
1.0
 40
1.0
 40
1.0
 10
10.9323772006
 20
63.60985248
 30
0.0
 10
11.1523328168
 20
63.60985248
 30
0.0
 10
11.5936334991
 20
63.5911587434
 30
0.0
 10
12.2534548503
 20
63.5076209543
 30
0.0
 10
12.9106938195
 20
63.3703813898
 30
0.0
 10
13.5643189048
 20
63.1825878427
 30
0.0
 10
14.2137846732
 20
62.9481023281
 30
0.0
 10
15.0808655277
 20
62.575426346
 30
0.0
 10
15.7131430444
 20
62.2419808786
 30
0.0
 10
16.1285296233
 20
62.0021573254
 30
0.0
  0
SPLINE
  5
260
100
AcDbEntity
  8
0
100
AcDbSpline
 62
7
  6
BYLAYER
 70
0
 71
3
 72
9
 73
5
 74
0
 42
0.0000001
 43
0.0000001
 44
0.0000000001
 40
0.0
 40
0.0
 40
0.0
 40
0.0
 40
0.5124904447
 40
1.0
 40
1.0
 40
1.0
 40
1.0
 10
30.0402644243
 20
16.10985248
 30
0.0
 10
30.0402644243
 20
16.0522833715
 30
0.0
 10
30.0552193524
 20
15.9394416985
 30
0.0
 10
30.1003375774
 20
15.834574898
 30
0.0
 10
30.1297039501
 20
15.7883515569
 30
0.0
  0
SPLINE
  5
261
100
AcDbEntity
  8
0
100
AcDbSpline
 62
7
  6
BYLAYER
 70
0
 71
3
 72
10
 73
6
 74
0
 42
0.0000001
 43
0.0000001
 44
0.0000000001
 40
0.0
 40
0.0
 40
0.0
 40
0.0
 40
0.5275313033
 40
0.7691285322
 40
1.0
 40
1.0
 40
1.0
 40
1.0
 10
30.1624523625
 20
15.7427945812
 30
0.0
 10
30.1944955394
 20
15.7033451598
 30
0.0
 10
30.2519506984
 20
15.6524550973
 30
0.0
 10
30.3419390151
 20
15.6160443618
 30
0.0
 10
30.3876633943
 20
15.609875349
 30
0.0
 10
30.4099060216
 20
15.6098752803
 30
0.0
  0
SPLINE
  5
262
100
AcDbEntity
  8
0
100
AcDbSpline
 62
7
  6
BYLAYER
 70
0
 71
3
 72
9
 73
5
 74
0
 42
0.0000001
 43
0.0000001
 44
0.0000000001
 40
0.0
 40
0.0
 40
0.0
 40
0.0
 40
0.2567628323
 40
1.0
 40
1.0
 40
1.0
 40
1.0
 10
30.2978144318
 20
16.4750695923
 30
0.0
 10
30.29353593
 20
16.4807234017
 30
0.0
 10
30.2763528478
 20
16.5023407284
 30
0.0
 10
30.257040911
 20
16.5222972699
 30
0.0
 10
30.2415587908
 20
16.5357703618
 30
0.0
  0
SPLINE
  5
263
100
AcDbEntity
  8
0
100
AcDbSpline
 62
7
  6
BYLAYER
 70
0
 71
3
 72
9
 73
5
 74
0
 42
0.0000001
 43
0.0000001
 44
0.0000000001
 40
0.0
 40
0.0
 40
0.0
 40
0.0
 40
0.5124904447
 40
1.0
 40
1.0
 40
1.0
 40
1.0
 10
23.0014045131
 20
16.10985248
 30
0.0
 10
23.0014045131
 20
16.1674215886
 30
0.0
 10
22.9864495851
 20
16.2802632616
 30
0.0
 10
22.94133136
 20
16.3851300621
 30
0.0
 10
22.9119649874
 20
16.4313534031
 30
0.0
  0
SPLINE
  5
264
100
AcDbEntity
  8
0
100
AcDbSpline
 62
7
  6
BYLAYER
 70
0
 71
3
 72
10
 73
6
 74
0
 42
0.0000001
 43
0.0000001
 44
0.0000000001
 40
0.0
 40
0.0
 40
0.0
 40
0.0
 40
0.5275313033
 40
0.7691285322
 40
1.0
 40
1.0
 40
1.0
 40
1.0
 10
22.879216575
 20
16.4769103789
 30
0.0
 10
22.847173398
 20
16.5163598002
 30
0.0
 10
22.789718239
 20
16.5672498627
 30
0.0
 10
22.6997299223
 20
16.6036605982
 30
0.0
 10
22.6540055431
 20
16.6098296111
 30
0.0
 10
22.6317629159
 20
16.6098296798
 30
0.0
  0
SPLINE
  5
265
100
AcDbEntity
  8
0
100
AcDbSpline
 62
7
  6
BYLAYER
 70
0
 71
3
 72
9
 73
5
 74
0
 42
0.0000001
 43
0.0000001
 44
0.0000000001
 40
0.0
 40
0.0
 40
0.0
 40
0.0
 40
0.2567628323
 40
1.0
 40
1.0
 40
1.0
 40
1.0
 10
22.7438545057
 20
15.7446353677
 30
0.0
 10
22.7481330075
 20
15.7389815584
 30
0.0
 10
22.7653160897
 20
15.7173642316
 30
0.0
 10
22.7846280265
 20
15.6974076901
 30
0.0
 10
22.8001101466
 20
15.6839345983
 30
0.0
  0
SPLINE
  5
266
100
AcDbEntity
  8
0
100
AcDbSpline
 62
7
  6
BYLAYER
 70
0
 71
3
 72
10
 73
6
 74
0
 42
0.0000001
 43
0.0000001
 44
0.0000000001
 40
0.0
 40
0.0
 40
0.0
 40
0.0
 40
0.2308589866
 40
0.4724533944
 40
1.0
 40
1.0
 40
1.0
 40
1.0
 10
30.4099060211
 20
16.6098296798
 30
0.0
 10
30.387650985
 20
16.6098297484
 30
0.0
 10
30.3418999261
 20
16.603653317
 30
0.0
 10
30.2518633735
 20
16.5672016234
 30
0.0
 10
30.1943879984
 20
16.5162587906
 30
0.0
 10
30.162339505
 20
16.4767717215
 30
0.0
  0
SPLINE
  5
267
100
AcDbEntity
  8
0
100
AcDbSpline
 62
7
  6
BYLAYER
 70
0
 71
3
 72
9
 73
5
 74
0
 42
0.0000001
 43
0.0000001
 44
0.0000000001
 40
0.0
 40
0.0
 40
0.0
 40
0.0
 40
0.4874738741
 40
1.0
 40
1.0
 40
1.0
 40
1.0
 10
30.1299244507
 20
16.4317002333
 30
0.0
 10
30.100487354
 20
16.385448351
 30
0.0
 10
30.0552561671
 20
16.2804741782
 30
0.0
 10
30.0402644243
 20
16.1674950329
 30
0.0
 10
30.0402644243
 20
16.10985248
 30
0.0
  0
SPLINE
  5
268
100
AcDbEntity
  8
0
100
AcDbSpline
 62
7
  6
BYLAYER
 70
0
 71
3
 72
10
 73
6
 74
0
 42
0.0000001
 43
0.0000001
 44
0.0000000001
 40
0.0
 40
0.0
 40
0.0
 40
0.0
 40
0.2308589866
 40
0.4724533944
 40
1.0
 40
1.0
 40
1.0
 40
1.0
 10
22.6317629164
 20
15.6098752803
 30
0.0
 10
22.6540179525
 20
15.6098752116
 30
0.0
 10
22.6997690113
 20
15.616051643
 30
0.0
 10
22.7898055639
 20
15.6525033367
 30
0.0
 10
22.8472809391
 20
15.7034461694
 30
0.0
 10
22.8793294325
 20
15.7429332385
 30
0.0
  0
SPLINE
  5
269
100
AcDbEntity
  8
0
100
AcDbSpline
 62
7
  6
BYLAYER
 70
0
 71
3
 72
9
 73
5
 74
0
 42
0.0000001
 43
0.0000001
 44
0.0000000001
 40
0.0
 40
0.0
 40
0.0
 40
0.0
 40
0.4874738741
 40
1.0
 40
1.0
 40
1.0
 40
1.0
 10
22.9117444868
 20
15.7880047267
 30
0.0
 10
22.9411815835
 20
15.834256609
 30
0.0
 10
22.9864127704
 20
15.9392307818
 30
0.0
 10
23.0014045131
 20
16.0522099272
 30
0.0
 10
23.0014045131
 20
16.10985248
 30
0.0
  0
SPLINE
  5
26A
100
AcDbEntity
  8
0
100
AcDbSpline
 62
7
  6
BYLAYER
 70
0
 71
3
 72
13
 73
9
 74
0
 42
0.0000001
 43
0.0000001
 44
0.0000000001
 40
0.0
 40
0.0
 40
0.0
 40
0.0
 40
0.29056889
 40
0.5569640399
 40
0.6775129465
 40
0.7897453878
 40
0.8960145059
 40
1.0
 40
1.0
 40
1.0
 40
1.0
 10
30.7473712055
 20
16.10985248
 30
0.0
 10
30.7473712055
 20
16.1741869044
 30
0.0
 10
30.7324426656
 20
16.2980089202
 30
0.0
 10
30.6741104577
 20
16.4392584686
 30
0.0
 10
30.6047601761
 20
16.5262456686
 30
0.0
 10
30.5456650252
 20
16.5737022322
 30
0.0
 10
30.4797593172
 20
16.6032793124
 30
0.0
 10
30.4329292942
 20
16.6098296087
 30
0.0
 10
30.4099060211
 20
16.6098296798
 30
0.0
  0
SPLINE
  5
26B
100
AcDbEntity
  8
0
100
AcDbSpline
 62
7
  6
BYLAYER
 70
0
 71
3
 72
13
 73
9
 74
0
 42
0.0000001
 43
0.0000001
 44
0.0000000001
 40
0.0
 40
0.0
 40
0.0
 40
0.0
 40
0.1039852613
 40
0.2102545401
 40
0.322486112
 40
0.4430325975
 40
0.7094265575
 40
1.0
 40
1.0
 40
1.0
 40
1.0
 10
30.4099060216
 20
15.6098752803
 30
0.0
 10
30.4329292439
 20
15.6098752092
 30
0.0
 10
30.4797592452
 20
15.6164257575
 30
0.0
 10
30.5456647607
 20
15.6460026687
 30
0.0
 10
30.6047594342
 20
15.6934586745
 30
0.0
 10
30.6741099006
 20
15.7804444548
 30
0.0
 10
30.7324419735
 20
15.9216943897
 30
0.0
 10
30.7473712055
 20
16.0455170457
 30
0.0
 10
30.7473712055
 20
16.10985248
 30
0.0
  0
SPLINE
  5
26C
100
AcDbEntity
  8
0
100
AcDbSpline
 62
7
  6
BYLAYER
 70
0
 71
3
 72
13
 73
9
 74
0
 42
0.0000001
 43
0.0000001
 44
0.0000000001
 40
0.0
 40
0.0
 40
0.0
 40
0.0
 40
0.1039852613
 40
0.2102545401
 40
0.322486112
 40
0.4430325975
 40
0.7094265575
 40
1.0
 40
1.0
 40
1.0
 40
1.0
 10
22.6317629159
 20
16.6098296798
 30
0.0
 10
22.6087396936
 20
16.6098297508
 30
0.0
 10
22.5619096923
 20
16.6032792025
 30
0.0
 10
22.4960041768
 20
16.5737022913
 30
0.0
 10
22.4369095032
 20
16.5262462855
 30
0.0
 10
22.3675590368
 20
16.4392605052
 30
0.0
 10
22.3092269639
 20
16.2980105704
 30
0.0
 10
22.2942977319
 20
16.1741879144
 30
0.0
 10
22.2942977319
 20
16.10985248
 30
0.0
  0
SPLINE
  5
26D
100
AcDbEntity
  8
0
100
AcDbSpline
 62
7
  6
BYLAYER
 70
0
 71
3
 72
13
 73
9
 74
0
 42
0.0000001
 43
0.0000001
 44
0.0000000001
 40
0.0
 40
0.0
 40
0.0
 40
0.0
 40
0.29056889
 40
0.5569640399
 40
0.6775129465
 40
0.7897453878
 40
0.8960145059
 40
1.0
 40
1.0
 40
1.0
 40
1.0
 10
22.2942977319
 20
16.10985248
 30
0.0
 10
22.2942977319
 20
16.0455180557
 30
0.0
 10
22.3092262719
 20
15.9216960399
 30
0.0
 10
22.3675584798
 20
15.7804464914
 30
0.0
 10
22.4369087614
 20
15.6934592914
 30
0.0
 10
22.4960039122
 20
15.6460027279
 30
0.0
 10
22.5619096202
 20
15.6164256477
 30
0.0
 10
22.6087396433
 20
15.6098753514
 30
0.0
 10
22.6317629164
 20
15.6098752803
 30
0.0
  0
ENDSEC
  0
SECTION
  2
OBJECTS
  0
DICTIONARY
  5
C
100
AcDbDictionary
280
0
281
1
  3
ACAD_GROUP
350
D
  3
ACAD_MLINESTYLE
350
17
  3
ACAD_LAYOUT
350
1A
  3
ACAD_PLOTSETTINGS
350
19
  3
ACAD_PLOTSTYLENAME
350
E
  0
DICTIONARY
  5
D
102
{ACAD_REACTORS
330
C
102
}
100
AcDbDictionary
280
0
281
1
  0
ACDBDICTIONARYWDFLT
  5
E
102
{ACAD_REACTORS
330
C
102
}
100
AcDbDictionary
281
1
  3
Normal
350
F
100
AcDbDictionaryWithDefault
340
F
  0
DICTIONARY
  5
17
102
{ACAD_REACTORS
330
C
102
}
100
AcDbDictionary
280
0
281
1
  3
Standard
350
18
  0
DICTIONARY
  5
19
102
{ACAD_REACTORS
330
C
102
}
100
AcDbDictionary
281
1
  0
DICTIONARY
  5
1A
102
{ACAD_REACTORS
330
C
102
}
100
AcDbDictionary
281
1
  3
Model
350
26E
  3
Layout1
350
26F
  0
ACDBPLACEHOLDER
  5
F
102
{ACAD_REACTORS
330
E
102
}
  0
MLINESTYLE
  5
18
102
{ACAD_REACTORS
330
17
102
}
100
AcDbMlineStyle
  2
STANDARD
 70
0
  3

 62
256
 51
90.0
 52
90.0
 71
2
 49
0.5
 62
256
  6
BYLAYER
 49
-0.5
 62
256
  6
BYLAYER
  0
LAYOUT
  5
26E
102
{ACAD_REACTORS
330
1A
102
}
100
AcDbPlotSettings
  1

  2
none_device
  4

  6

 40
0.0
 41
0.0
 42
0.0
 43
0.0
 44
210.0
 45
297.0
 46
0.0
 47
0.0
 48
0.0
 49
0.0
140
0.0
141
0.0
142
1.0
143
1.0
 70
1024
 72
1
 73
0
 74
0
  7

 75
0
147
1.0
148
0.0
149
0.0
100
AcDbLayout
  1
Model
 70
0
 71
0
 10
0.0
 20
0.0
 11
210.0
 21
297.0
 12
0.0
 22
0.0
 32
0.0
 14
0.0
 24
0.0
 34
0.0
 15
0.0
 25
0.0
 35
0.0
146
0.0
 13
0.0
 23
0.0
 33
0.0
 16
1.0
 26
0.0
 36
0.0
 17
0.0
 27
1.0
 37
0.0
 76
0
330
210
345
0
346
0
  0
LAYOUT
  5
26F
102
{ACAD_REACTORS
330
1A
102
}
100
AcDbPlotSettings
  1

  2
none_device
  4

  6

 40
0.0
 41
0.0
 42
0.0
 43
0.0
 44
210.0
 45
297.0
 46
0.0
 47
0.0
 48
0.0
 49
0.0
140
0.0
141
0.0
142
1.0
143
1.0
 70
0
 72
1
 73
0
 74
0
  7

 75
0
147
1.0
148
0.0
149
0.0
100
AcDbLayout
  1
Layout1
 70
0
 71
1
 10
0.0
 20
0.0
 11
210.0
 21
297.0
 12
0.0
 22
0.0
 32
0.0
 14
0.0
 24
0.0
 34
0.0
 15
0.0
 25
0.0
 35
0.0
146
0.0
 13
0.0
 23
0.0
 33
0.0
 16
1.0
 26
0.0
 36
0.0
 17
0.0
 27
1.0
 37
0.0
 76
0
330
211
345
0
346
0
  0
ENDSEC
  0
EOF
