999
DXF file: C:\Users\sesa63760\Dev\_Creo\CAD\MCADID0003627_3D-CAD\drw0001_3.dxf
999
Pro/ENGINEER 2019471 by Parametric Technology Corporation
  0
SECTION
  2
HEADER
  9
$ACADVER
  1
AC1024
  9
$DWGCODEPAGE
  3
ANSI_1252
  9
$EXTMAX
 10
173.0501461622
 20
244.7423495723
 30
0.0
  9
$EXTMIN
 10
0.0
 20
0.0
 30
0.0
  9
$LIMMIN
 10
0.0
 20
0.0
  9
$LIMMAX
 10
173.0501461622
 20
244.7423495723
  9
$VIEWCTR
 10
86.5250730811
 20
122.3711747861
  9
$VIEWSIZE
 40
244.7423495723
  9
$CLAYER
  8
0
  9
$LTSCALE
 40
15.9535753795
  9
$CELTYPE
  6
BYLAYER
  9
$DIMSCALE
 40
1.0
  9
$DIMASZ
 40
2.0601207876
  9
$DIMEXO
 40
1.0
  9
$DIMDLI
 40
11.0224702622
  9
$DIMEXE
 40
1.0
  9
$DIMCEN
 40
2.6105850621
  9
$DIMLFAC
 40
1.0
  9
$DIMBLK
  1
_FILLED
  9
$DIMALT
 70
0
  9
$DIMALTF
 40
0.0393700787
  9
$DIMTXT
 40
2.8841691027
  9
$DIMTOL
 70
1
  9
$DIMLIM
 70
0
  9
$DIMTFAC
 40
1.0
  9
$DIMTP
 40
0.01
  9
$DIMTM
 40
0.01
  9
$DIMGAP
 40
0.625
  9
$DIMDSEP
 70
46
  9
$AUNITS
 70
0
  9
$PDMODE
 70
3
  9
$PDSIZE
 40
0.3125
  9
$HANDSEED
  5
2B1
  9
$TILEMODE
 70
1
  9
$MEASUREMENT
 70
1
  9
$INSUNITS
 70
4
  0
ENDSEC
  0
SECTION
  2
CLASSES
  0
CLASS
  1
ACDBDICTIONARYWDFLT
  2
AcDbDictionaryWithDefault
  3
AutoCAD 2000
 90
0
 91
1
280
0
281
0
  0
CLASS
  1
ACDBPLACEHOLDER
  2
AcDbPlaceHolder
  3
AutoCAD 2000
 90
0
 91
1
280
0
281
0
  0
CLASS
  1
LAYOUT
  2
AcDbLayout
  3
AutoCAD 2000
 90
0
 91
0
280
0
281
0
  0
ENDSEC
  0
SECTION
  2
TABLES
  0
TABLE
  2
VPORT
  5
8
100
AcDbSymbolTable
 70
2
  0
VPORT
  5
1F4
100
AcDbSymbolTableRecord
100
AcDbViewportTableRecord
  2
*ACTIVE
 70
0
 10
0.0
 20
0.0
 11
1.0
 21
1.0
 12
86.5250730811
 22
122.3711747861
 13
0.0
 23
0.0
 14
1.0
 24
1.0
 15
0.0
 25
0.0
 16
0.0
 26
0.0
 36
1.0
 17
0.0
 27
0.0
 37
0.0
 40
244.7423495723
 41
0.7070707071
 42
50.0
 43
0.0
 44
0.0
 50
0.0
 51
0.0
 71
0
 72
100
 73
1
 74
1
 75
0
 76
0
 77
0
 78
0
  0
ENDTAB
  0
TABLE
  2
LTYPE
  5
5
100
AcDbSymbolTable
 70
6
  0
LTYPE
  5
14
100
AcDbSymbolTableRecord
100
AcDbLinetypeTableRecord
  2
BYBLOCK
 70
0
  3

 72
65
 73
0
 40
0.0
  0
LTYPE
  5
15
100
AcDbSymbolTableRecord
100
AcDbLinetypeTableRecord
  2
BYLAYER
 70
0
  3

 72
65
 73
0
 40
0.0
  0
LTYPE
  5
16
100
AcDbSymbolTableRecord
100
AcDbLinetypeTableRecord
  2
CONTINUOUS
 70
64
  3
Solid line
 72
65
 73
0
 40
0.0
  0
LTYPE
  5
1F5
100
AcDbSymbolTableRecord
100
AcDbLinetypeTableRecord
  2
CENTER
 70
64
  3
____ _ ____ _ ____ _ ____ _ ____ _ ____ _ ____
 72
65
 73
4
 40
0.6
 49
0.375
 74
0
 49
-0.075
 74
0
 49
0.075
 74
0
 49
-0.075
 74
0
  0
LTYPE
  5
1F6
100
AcDbSymbolTableRecord
100
AcDbLinetypeTableRecord
  2
HIDDEN
 70
64
  3
- - - - - - - - - - - - - - - - - - - -
 72
65
 73
2
 40
0.2
 49
0.1
 74
0
 49
-0.1
 74
0
  0
LTYPE
  5
1F7
100
AcDbSymbolTableRecord
100
AcDbLinetypeTableRecord
  2
PHANTOM
 70
64
  3
_____ _ _ _____ _ _ _____ _ _ _____
 72
65
 73
6
 40
0.8
 49
0.45
 74
0
 49
-0.05
 74
0
 49
0.1
 74
0
 49
-0.05
 74
0
 49
0.1
 74
0
 49
-0.05
 74
0
  0
LTYPE
  5
1F8
100
AcDbSymbolTableRecord
100
AcDbLinetypeTableRecord
  2
DOT
 70
64
  3
. . . . . . . . . . . . . . . . . . . .
 72
65
 73
2
 40
0.2
 49
0.1
 74
0
 49
-0.1
 74
0
  0
LTYPE
  5
1F9
100
AcDbSymbolTableRecord
100
AcDbLinetypeTableRecord
  2
DASHED
 70
64
  3
- - - - - - - - - - - - - - - - - - - -
 72
65
 73
2
 40
0.2
 49
0.1
 74
0
 49
-0.1
 74
0
  0
ENDTAB
  0
TABLE
  2
LAYER
  5
2
100
AcDbSymbolTable
 70
36
  0
LAYER
  5
10
100
AcDbSymbolTableRecord
100
AcDbLayerTableRecord
  2
0
 70
0
 62
7
  6
CONTINUOUS
370
-3
390
F
  0
LAYER
  5
1FA
100
AcDbSymbolTableRecord
100
AcDbLayerTableRecord
  2
DEFAULT_1
 70
0
 62
7
  6
CENTER
370
-3
390
F
  0
LAYER
  5
1FB
100
AcDbSymbolTableRecord
100
AcDbLayerTableRecord
  2
DEFAULT_2
 70
0
 62
7
  6
HIDDEN
370
-3
390
F
  0
LAYER
  5
1FC
100
AcDbSymbolTableRecord
100
AcDbLayerTableRecord
  2
DEFAULT_3
 70
0
 62
7
  6
PHANTOM
370
-3
390
F
  0
LAYER
  5
1FD
100
AcDbSymbolTableRecord
100
AcDbLayerTableRecord
  2
00_COMPONENTS
 70
0
 62
7
  6
CONTINUOUS
370
-3
390
F
  0
LAYER
  5
1FE
100
AcDbSymbolTableRecord
100
AcDbLayerTableRecord
  2
01_1_DEFAULT_DATUMS
 70
0
 62
7
  6
CONTINUOUS
370
-3
390
F
  0
LAYER
  5
1FF
100
AcDbSymbolTableRecord
100
AcDbLayerTableRecord
  2
01_PLANES
 70
0
 62
7
  6
CONTINUOUS
370
-3
390
F
  0
LAYER
  5
200
100
AcDbSymbolTableRecord
100
AcDbLayerTableRecord
  2
02_COORD_SYS
 70
0
 62
7
  6
CONTINUOUS
370
-3
390
F
  0
LAYER
  5
201
100
AcDbSymbolTableRecord
100
AcDbLayerTableRecord
  2
03_AXES
 70
0
 62
7
  6
CONTINUOUS
370
-3
390
F
  0
LAYER
  5
202
100
AcDbSymbolTableRecord
100
AcDbLayerTableRecord
  2
04_POINTS
 70
0
 62
7
  6
CONTINUOUS
370
-3
390
F
  0
LAYER
  5
203
100
AcDbSymbolTableRecord
100
AcDbLayerTableRecord
  2
05_CURVES
 70
0
 62
7
  6
CONTINUOUS
370
-3
390
F
  0
LAYER
  5
204
100
AcDbSymbolTableRecord
100
AcDbLayerTableRecord
  2
06_SURFS
 70
0
 62
7
  6
CONTINUOUS
370
-3
390
F
  0
LAYER
  5
205
100
AcDbSymbolTableRecord
100
AcDbLayerTableRecord
  2
07_COSMETICS
 70
0
 62
7
  6
CONTINUOUS
370
-3
390
F
  0
LAYER
  5
206
100
AcDbSymbolTableRecord
100
AcDbLayerTableRecord
  2
1
 70
0
 62
7
  6
CONTINUOUS
370
-3
390
F
  0
LAYER
  5
207
100
AcDbSymbolTableRecord
100
AcDbLayerTableRecord
  2
10_NOTES
 70
0
 62
7
  6
CONTINUOUS
370
-3
390
F
  0
LAYER
  5
208
100
AcDbSymbolTableRecord
100
AcDbLayerTableRecord
  2
11_NOTES_PUB
 70
0
 62
7
  6
CONTINUOUS
370
-3
390
F
  0
LAYER
  5
209
100
AcDbSymbolTableRecord
100
AcDbLayerTableRecord
  2
13_REF_GTOL
 70
0
 62
7
  6
CONTINUOUS
370
-3
390
F
  0
LAYER
  5
20A
100
AcDbSymbolTableRecord
100
AcDbLayerTableRecord
  2
16_MISC
 70
0
 62
7
  6
CONTINUOUS
370
-3
390
F
  0
LAYER
  5
20B
100
AcDbSymbolTableRecord
100
AcDbLayerTableRecord
  2
17_NO_PRINT
 70
0
 62
7
  6
CONTINUOUS
370
-3
390
F
  0
LAYER
  5
20C
100
AcDbSymbolTableRecord
100
AcDbLayerTableRecord
  2
18_DATUM_CAMS_JOINTS
 70
0
 62
7
  6
CONTINUOUS
370
-3
390
F
  0
LAYER
  5
20D
100
AcDbSymbolTableRecord
100
AcDbLayerTableRecord
  2
19_DATUM_FUNCTIONAL
 70
0
 62
7
  6
CONTINUOUS
370
-3
390
F
  0
LAYER
  5
20E
100
AcDbSymbolTableRecord
100
AcDbLayerTableRecord
  2
2
 70
0
 62
7
  6
CONTINUOUS
370
-3
390
F
  0
LAYER
  5
20F
100
AcDbSymbolTableRecord
100
AcDbLayerTableRecord
  2
20_DATUM_KINEMATIC_SCHEME
 70
0
 62
7
  6
CONTINUOUS
370
-3
390
F
  0
ENDTAB
  0
TABLE
  2
STYLE
  5
3
100
AcDbSymbolTable
 70
1
  0
STYLE
  5
11
100
AcDbSymbolTableRecord
100
AcDbTextStyleTableRecord
  2
STANDARD
 70
0
 40
0.0
 41
1.0
 50
0.0
 71
0
 42
0.2
  3
ARIAL.TTF
  4

  0
STYLE
  5
210
100
AcDbSymbolTableRecord
100
AcDbTextStyleTableRecord
  2
TEXTSTYLE_1
 70
0
 40
0.0
 41
0.8
 50
0.0
 71
0
 42
0.2
  3
gdt
  4

  0
ENDTAB
  0
TABLE
  2
VIEW
  5
6
100
AcDbSymbolTable
 70
0
  0
ENDTAB
  0
TABLE
  2
UCS
  5
7
100
AcDbSymbolTable
 70
0
  0
ENDTAB
  0
TABLE
  2
APPID
  5
9
100
AcDbSymbolTable
 70
1
  0
APPID
  5
211
100
AcDbSymbolTableRecord
100
AcDbRegAppTableRecord
  2
ACAD
 70
0
  0
ENDTAB
  0
TABLE
  2
BLOCK_RECORD
  5
1
100
AcDbSymbolTable
 70
0
  0
BLOCK_RECORD
  5
212
100
AcDbSymbolTableRecord
100
AcDbBlockTableRecord
  2
*Model_Space
  0
BLOCK_RECORD
  5
213
100
AcDbSymbolTableRecord
100
AcDbBlockTableRecord
  2
*Paper_Space
  0
BLOCK_RECORD
  5
214
100
AcDbSymbolTableRecord
100
AcDbBlockTableRecord
  2
_FILLED
  0
ENDTAB
  0
TABLE
  2
DIMSTYLE
  5
A
100
AcDbSymbolTable
 70
1
100
AcDbDimStyleTable
 71
0
  0
DIMSTYLE
105
215
100
AcDbSymbolTableRecord
100
AcDbDimStyleTableRecord
  2
STANDARD
 70
0
  3

  4

 40
1.0
 41
2.0601207876
 42
1.0
 43
0.38
 44
1.0
 45
0.0
 46
0.0
 47
0.01
 48
0.01
140
2.8841691027
141
0.09
142
0.0
143
25.4
144
1.0
145
0.0
146
1.0
147
0.625
 71
1
 72
0
 73
0
 74
0
 75
0
 76
0
 77
1
 78
8
 79
2
170
0
171
1
172
0
173
0
174
0
175
0
176
0
177
0
178
0
270
2
179
2
271
2
272
2
273
2
274
2
275
0
280
0
281
0
282
0
283
1
284
8
285
0
286
0
287
3
288
0
340
11
278
46
341
214
342
214
343
214
344
214
  0
ENDTAB
  0
ENDSEC
  0
SECTION
  2
BLOCKS
  0
BLOCK
  5
20
100
AcDbEntity
  8
0
100
AcDbBlockBegin
  2
*Model_Space
 70
0
 10
0.0
 20
0.0
 30
0.0
  3
*Model_Space
  1

  0
ENDBLK
  5
21
100
AcDbEntity
  8
0
100
AcDbBlockEnd
  0
BLOCK
  5
1C
100
AcDbEntity
  8
0
100
AcDbBlockBegin
  2
*Paper_Space
 70
0
 10
0.0
 20
0.0
 30
0.0
  3
*Paper_Space
  1

  0
ENDBLK
  5
1D
100
AcDbEntity
  8
0
100
AcDbBlockEnd
  0
BLOCK
  5
216
100
AcDbEntity
  8
0
100
AcDbBlockBegin
  2
_FILLED
 70
64
 10
0.0
 20
0.0
  3
_FILLED
  1

  0
SOLID
  5
217
100
AcDbEntity
  8
0
  6
BYBLOCK
 62
0
100
AcDbTrace
 10
0.0
 20
0.0
 11
-1.0
 21
0.25
 12
-1.0
 22
-0.25
 13
-1.0
 23
-0.25
  0
ENDBLK
  5
218
100
AcDbEntity
  8
0
  6
BYBLOCK
 62
0
100
AcDbBlockEnd
  0
ENDSEC
  0
SECTION
  2
ENTITIES
  0
LINE
  5
219
100
AcDbEntity
  8
1
100
AcDbLine
 62
7
  6
BYLAYER
 10
69.5680176055
 20
19.6213266793
 11
108.421553052
 21
19.6213266793
  0
LINE
  5
21A
100
AcDbEntity
  8
1
100
AcDbLine
 62
7
  6
BYLAYER
 10
111.0695161674
 20
55.0213266793
 11
108.421553052
 21
55.0213266793
  0
LINE
  5
21B
100
AcDbEntity
  8
1
100
AcDbLine
 62
7
  6
BYLAYER
 10
69.5680176055
 20
55.0213266793
 11
66.7736258249
 21
55.0213266793
  0
LINE
  5
21C
100
AcDbEntity
  8
1
100
AcDbLine
 62
7
  6
BYLAYER
 10
69.5680176055
 20
55.0213266793
 11
108.421553052
 21
55.0213266793
  0
LINE
  5
21D
100
AcDbEntity
  8
1
100
AcDbLine
 62
7
  6
BYLAYER
 10
111.0695161674
 20
70.8713266793
 11
102.079105662
 21
70.8713266793
  0
LINE
  5
21E
100
AcDbEntity
  8
1
100
AcDbLine
 62
7
  6
BYLAYER
 10
75.8839641226
 20
70.8713266793
 11
66.7736258249
 21
70.8713266793
  0
LINE
  5
21F
100
AcDbEntity
  8
1
100
AcDbLine
 62
7
  6
BYLAYER
 10
84.5977732221
 20
57.5901523195
 11
77.6226481185
 21
69.8597486351
  0
LINE
  5
220
100
AcDbEntity
  8
2
100
AcDbLine
 62
7
  6
BYLAYER
 10
64.0239545654
 20
192.6183557341
 11
64.0239545654
 21
216.6241983496
  0
LINE
  5
221
100
AcDbEntity
  8
1
100
AcDbLine
 62
7
  6
BYLAYER
 10
66.7736258249
 20
225.0192718505
 11
66.7736258249
 21
55.0213266793
  0
LINE
  5
222
100
AcDbEntity
  8
2
100
AcDbLine
 62
7
  6
BYLAYER
 10
66.7736258249
 20
216.6241983496
 11
66.7736258249
 21
192.618455009
  0
LINE
  5
223
100
AcDbEntity
  8
1
100
AcDbLine
 62
7
  6
BYLAYER
 10
91.6452238561
 20
156.1069307957
 11
93.2722483272
 21
157.2929589647
  0
LINE
  5
224
100
AcDbEntity
  8
1
100
AcDbLine
 62
7
  6
BYLAYER
 10
93.2432438117
 20
157.2031480828
 11
91.6270661704
 21
156.0250267683
  0
LINE
  5
225
100
AcDbEntity
  8
1
100
AcDbLine
 62
7
  6
BYLAYER
 10
84.1215709961
 20
99.7095061829
 11
93.7599638641
 21
99.7095061829
  0
LINE
  5
226
100
AcDbEntity
  8
1
100
AcDbLine
 62
7
  6
BYLAYER
 10
69.5680176055
 20
19.6213266793
 11
69.5680176055
 21
55.0213266793
  0
LINE
  5
227
100
AcDbEntity
  8
1
100
AcDbLine
 62
7
  6
BYLAYER
 10
70.9759870316
 20
68.9581025851
 11
70.9759870316
 21
63.9490703948
  0
LINE
  5
228
100
AcDbEntity
  8
1
100
AcDbLine
 62
7
  6
BYLAYER
 10
87.1712659209
 20
157.8694476147
 11
86.1979181362
 21
156.1069307957
  0
LINE
  5
229
100
AcDbEntity
  8
1
100
AcDbLine
 62
7
  6
BYLAYER
 10
86.2160758219
 20
156.0250267683
 11
87.1829346214
 21
157.7757934752
  0
LINE
  5
22A
100
AcDbEntity
  8
1
100
AcDbLine
 62
7
  6
BYLAYER
 10
76.8671549607
 20
63.9490703948
 11
76.8671549607
 21
68.9581025851
  0
LINE
  5
22B
100
AcDbEntity
  8
2
100
AcDbLine
 62
7
  6
BYLAYER
 10
76.9215709961
 20
226.3192718505
 11
76.9215709961
 21
225.0192718505
  0
LINE
  5
22C
100
AcDbEntity
  8
1
100
AcDbLine
 62
7
  6
BYLAYER
 10
78.0779366572
 20
225.0192718505
 11
78.0779366572
 21
218.9149610183
  0
LINE
  5
22D
100
AcDbEntity
  8
2
100
AcDbLine
 62
7
  6
BYLAYER
 10
79.0215709961
 20
224.8192718505
 11
79.0215709961
 21
218.3192718505
  0
LINE
  5
22E
100
AcDbEntity
  8
1
100
AcDbLine
 62
7
  6
BYLAYER
 10
79.6715709961
 20
216.6213266793
 11
79.6715709961
 21
225.0192718505
  0
LINE
  5
22F
100
AcDbEntity
  8
1
100
AcDbLine
 62
7
  6
BYLAYER
 10
93.2722483272
 20
157.2929589647
 11
93.2432438117
 21
157.2031480828
  0
LINE
  5
230
100
AcDbEntity
  8
1
100
AcDbLine
 62
7
  6
BYLAYER
 10
84.5708936651
 20
130.3496943939
 11
84.5998981806
 21
130.4395052758
  0
LINE
  5
231
100
AcDbEntity
  8
1
100
AcDbLine
 62
7
  6
BYLAYER
 10
84.5998981806
 20
130.4395052758
 11
86.2160758219
 21
131.6176265903
  0
LINE
  5
232
100
AcDbEntity
  8
1
100
AcDbLine
 62
7
  6
BYLAYER
 10
86.1979181362
 20
131.5357225629
 11
84.5708936651
 21
130.3496943939
  0
LINE
  5
233
100
AcDbEntity
  8
1
100
AcDbLine
 62
7
  6
BYLAYER
 10
84.1215709961
 20
92.3417525807
 11
84.1215709961
 21
99.7095061829
  0
LINE
  5
234
100
AcDbEntity
  8
1
100
AcDbLine
 62
7
  6
BYLAYER
 10
92.2989005425
 20
159.0554757837
 11
92.2763850122
 21
158.9539147897
  0
LINE
  5
235
100
AcDbEntity
  8
1
100
AcDbLine
 62
7
  6
BYLAYER
 10
91.6452238561
 20
156.1069307957
 11
91.6270661704
 21
156.0250267683
  0
LINE
  5
236
100
AcDbEntity
  8
1
100
AcDbLine
 62
7
  6
BYLAYER
 10
85.5442414498
 20
128.5871775749
 11
85.5667569801
 21
128.6887385689
  0
LINE
  5
237
100
AcDbEntity
  8
1
100
AcDbLine
 62
7
  6
BYLAYER
 10
86.1979181362
 20
131.5357225629
 11
86.2160758219
 21
131.6176265903
  0
LINE
  5
238
100
AcDbEntity
  8
1
100
AcDbLine
 62
7
  6
BYLAYER
 10
91.6270661704
 20
131.6176265903
 11
90.6602073709
 21
129.8668598834
  0
LINE
  5
239
100
AcDbEntity
  8
1
100
AcDbLine
 62
7
  6
BYLAYER
 10
90.6718760714
 20
129.7732057439
 11
91.6452238561
 21
131.5357225629
  0
LINE
  5
23A
100
AcDbEntity
  8
1
100
AcDbLine
 62
7
  6
BYLAYER
 10
84.5708936651
 20
130.3496943939
 11
85.5442414498
 21
128.5871775749
  0
LINE
  5
23B
100
AcDbEntity
  8
1
100
AcDbLine
 62
7
  6
BYLAYER
 10
85.5667569801
 20
128.6887385689
 11
84.5998981806
 21
130.4395052758
  0
LINE
  5
23C
100
AcDbEntity
  8
1
100
AcDbLine
 62
7
  6
BYLAYER
 10
93.7599638641
 20
99.7095061829
 11
93.7599638641
 21
92.3253239449
  0
LINE
  5
23D
100
AcDbEntity
  8
1
100
AcDbLine
 62
7
  6
BYLAYER
 10
92.2989005425
 20
128.5871775749
 11
90.6718760714
 21
129.7732057439
  0
LINE
  5
23E
100
AcDbEntity
  8
1
100
AcDbLine
 62
7
  6
BYLAYER
 10
90.6602073709
 20
129.8668598834
 11
92.2763850122
 21
128.6887385689
  0
LINE
  5
23F
100
AcDbEntity
  8
1
100
AcDbLine
 62
7
  6
BYLAYER
 10
85.5442414498
 20
159.0554757837
 11
85.5667569801
 21
158.9539147897
  0
LINE
  5
240
100
AcDbEntity
  8
1
100
AcDbLine
 62
7
  6
BYLAYER
 10
86.1979181362
 20
156.1069307957
 11
86.2160758219
 21
156.0250267683
  0
LINE
  5
241
100
AcDbEntity
  8
1
100
AcDbLine
 62
7
  6
BYLAYER
 10
92.2989005425
 20
128.5871775749
 11
92.2763850122
 21
128.6887385689
  0
LINE
  5
242
100
AcDbEntity
  8
1
100
AcDbLine
 62
7
  6
BYLAYER
 10
91.6452238561
 20
131.5357225629
 11
91.6270661704
 21
131.6176265903
  0
LINE
  5
243
100
AcDbEntity
  8
1
100
AcDbLine
 62
7
  6
BYLAYER
 10
87.1712659209
 20
157.8694476147
 11
87.1829346214
 21
157.7757934752
  0
LINE
  5
244
100
AcDbEntity
  8
1
100
AcDbLine
 62
7
  6
BYLAYER
 10
90.6718760714
 20
129.7732057439
 11
90.6602073709
 21
129.8668598834
  0
LINE
  5
245
100
AcDbEntity
  8
1
100
AcDbLine
 62
7
  6
BYLAYER
 10
98.1715709961
 20
216.6213266793
 11
98.1715709961
 21
225.0192718505
  0
LINE
  5
246
100
AcDbEntity
  8
2
100
AcDbLine
 62
7
  6
BYLAYER
 10
98.8215709961
 20
218.3192718505
 11
98.8215709961
 21
224.8192718505
  0
LINE
  5
247
100
AcDbEntity
  8
1
100
AcDbLine
 62
7
  6
BYLAYER
 10
99.7652053351
 20
225.0192718505
 11
99.7652053351
 21
218.9149610183
  0
LINE
  5
248
100
AcDbEntity
  8
2
100
AcDbLine
 62
7
  6
BYLAYER
 10
100.9215709961
 20
225.0192718505
 11
100.9215709961
 21
226.3192718505
  0
LINE
  5
249
100
AcDbEntity
  8
1
100
AcDbLine
 62
7
  6
BYLAYER
 10
101.4759870316
 20
222.1484995057
 11
101.4759870316
 21
217.2941538529
  0
LINE
  5
24A
100
AcDbEntity
  8
1
100
AcDbLine
 62
7
  6
BYLAYER
 10
106.3671549607
 20
222.1484995057
 11
106.3671549606
 21
217.2941538529
  0
LINE
  5
24B
100
AcDbEntity
  8
1
100
AcDbLine
 62
7
  6
BYLAYER
 10
108.421553052
 20
19.6213266793
 11
108.421553052
 21
55.0213266793
  0
LINE
  5
24C
100
AcDbEntity
  8
1
100
AcDbLine
 62
7
  6
BYLAYER
 10
111.0695161674
 20
225.0192718505
 11
111.0695161674
 21
55.0213266793
  0
LINE
  5
24D
100
AcDbEntity
  8
2
100
AcDbLine
 62
7
  6
BYLAYER
 10
111.0695161674
 20
192.618455009
 11
111.0695161674
 21
216.6241983496
  0
LINE
  5
24E
100
AcDbEntity
  8
1
100
AcDbLine
 62
7
  6
BYLAYER
 10
92.2763850122
 20
158.9539147897
 11
93.2432438117
 21
157.2031480828
  0
LINE
  5
24F
100
AcDbEntity
  8
1
100
AcDbLine
 62
7
  6
BYLAYER
 10
93.2722483272
 20
157.2929589647
 11
92.2989005425
 21
159.0554757837
  0
LINE
  5
250
100
AcDbEntity
  8
2
100
AcDbLine
 62
7
  6
BYLAYER
 10
113.8191874269
 20
216.6242976245
 11
113.8191874269
 21
192.6183557341
  0
LINE
  5
251
100
AcDbEntity
  8
1
100
AcDbLine
 62
7
  6
BYLAYER
 10
87.1829346214
 20
157.7757934752
 11
85.5667569801
 21
158.9539147897
  0
LINE
  5
252
100
AcDbEntity
  8
1
100
AcDbLine
 62
7
  6
BYLAYER
 10
85.5442414498
 20
159.0554757837
 11
87.1712659209
 21
157.8694476147
  0
LINE
  5
253
100
AcDbEntity
  8
1
100
AcDbLine
 62
7
  6
BYLAYER
 10
100.3449344727
 20
69.8676450453
 11
93.2799111848
 21
57.5704112939
  0
LINE
  5
254
100
AcDbEntity
  8
2
100
AcDbLine
 62
7
  6
BYLAYER
 10
113.8191874269
 20
192.6183557341
 11
111.0695161674
 21
192.6183557341
  0
LINE
  5
255
100
AcDbEntity
  8
2
100
AcDbLine
 62
7
  6
BYLAYER
 10
64.0239545654
 20
192.6183557341
 11
66.7736258249
 21
192.6183557341
  0
LINE
  5
256
100
AcDbEntity
  8
1
100
AcDbLine
 62
7
  6
BYLAYER
 10
78.7686213695
 20
193.1193282748
 11
78.7385540705
 21
193.1193282748
  0
LINE
  5
257
100
AcDbEntity
  8
1
100
AcDbLine
 62
7
  6
BYLAYER
 10
111.0695161674
 20
195.3713266793
 11
66.7736258249
 21
195.3713266793
  0
LINE
  5
258
100
AcDbEntity
  8
1
100
AcDbLine
 62
7
  6
BYLAYER
 10
78.7686213695
 20
197.1233250838
 11
78.7385540705
 21
197.1233250838
  0
LINE
  5
259
100
AcDbEntity
  8
1
100
AcDbLine
 62
7
  6
BYLAYER
 10
78.768621375
 20
198.6193282692
 11
78.738554076
 21
198.6193282692
  0
LINE
  5
25A
100
AcDbEntity
  8
1
100
AcDbLine
 62
7
  6
BYLAYER
 10
78.768621375
 20
202.6233250894
 11
78.738554076
 21
202.6233250894
  0
LINE
  5
25B
100
AcDbEntity
  8
1
100
AcDbLine
 62
7
  6
BYLAYER
 10
111.0695161674
 20
213.8713266793
 11
66.7736258249
 21
213.8713266793
  0
LINE
  5
25C
100
AcDbEntity
  8
1
100
AcDbLine
 62
7
  6
BYLAYER
 10
111.0695161674
 20
214.9149610183
 11
103.7652053351
 21
214.9149610183
  0
LINE
  5
25D
100
AcDbEntity
  8
1
100
AcDbLine
 62
7
  6
BYLAYER
 10
74.0779366572
 20
214.9149610183
 11
66.7736258249
 21
214.9149610183
  0
LINE
  5
25E
100
AcDbEntity
  8
2
100
AcDbLine
 62
7
  6
BYLAYER
 10
96.8215709961
 20
216.3192718505
 11
81.0215709961
 21
216.3192718505
  0
LINE
  5
25F
100
AcDbEntity
  8
1
100
AcDbLine
 62
7
  6
BYLAYER
 10
98.1715709961
 20
216.6213266793
 11
79.6715709961
 21
216.6213266793
  0
LINE
  5
260
100
AcDbEntity
  8
2
100
AcDbLine
 62
7
  6
BYLAYER
 10
113.8191874269
 20
216.6242976245
 11
111.0695161674
 21
216.6242976245
  0
LINE
  5
261
100
AcDbEntity
  8
2
100
AcDbLine
 62
7
  6
BYLAYER
 10
64.0239545654
 20
216.6242976245
 11
66.7736258249
 21
216.6242976245
  0
LINE
  5
262
100
AcDbEntity
  8
2
100
AcDbLine
 62
7
  6
BYLAYER
 10
98.8215709961
 20
218.3192718505
 11
79.0215709961
 21
218.3192718505
  0
LINE
  5
263
100
AcDbEntity
  8
2
100
AcDbLine
 62
7
  6
BYLAYER
 10
100.7215709961
 20
224.8192718505
 11
77.1215709961
 21
224.8192718505
  0
LINE
  5
264
100
AcDbEntity
  8
2
100
AcDbLine
 62
7
  6
BYLAYER
 10
100.9215709961
 20
225.0192718505
 11
76.9215709961
 21
225.0192718505
  0
LINE
  5
265
100
AcDbEntity
  8
1
100
AcDbLine
 62
7
  6
BYLAYER
 10
111.0695161674
 20
225.0192718505
 11
66.7736258249
 21
225.0192718505
  0
LINE
  5
266
100
AcDbEntity
  8
2
100
AcDbLine
 62
7
  6
BYLAYER
 10
76.9215709961
 20
226.3192718505
 11
100.9215709961
 21
226.3192718505
  0
ARC
  5
267
100
AcDbEntity
  8
1
100
AcDbCircle
 62
7
  6
BYLAYER
 10
73.9215709961
 20
64.9128967028
 40
5.004013941
100
AcDbArc
 50
53.9391419923
 51
126.0608580077
  0
ARC
  5
268
100
AcDbEntity
  8
1
100
AcDbCircle
 62
7
  6
BYLAYER
 10
73.9215709961
 20
66.4213266793
 40
3.8455839645
100
AcDbArc
 50
220.0070519427
 51
319.9929480573
  0
ARC
  5
269
100
AcDbEntity
  8
1
100
AcDbCircle
 62
7
  6
BYLAYER
 10
75.8839641226
 20
68.8713266793
 40
2.0
100
AcDbArc
 50
29.6177347754
 51
90.0
  0
ARC
  5
26A
100
AcDbEntity
  8
1
100
AcDbCircle
 62
7
  6
BYLAYER
 10
69.1478510629
 20
140.8213266793
 40
0.6
100
AcDbArc
 50
280.4309895675
 51
96.8228635499
  0
ARC
  5
26B
100
AcDbEntity
  8
1
100
AcDbCircle
 62
7
  6
BYLAYER
 10
72.8181191985
 20
131.9605155687
 40
0.6
100
AcDbArc
 50
308.1771364501
 51
124.5690104325
  0
ARC
  5
26C
100
AcDbEntity
  8
1
100
AcDbCircle
 62
7
  6
BYLAYER
 10
74.7794353724
 20
129.6791910556
 40
0.6
100
AcDbArc
 50
316.8040630084
 51
133.1959369916
  0
ARC
  5
26D
100
AcDbEntity
  8
1
100
AcDbCircle
 62
7
  6
BYLAYER
 10
77.0607598856
 20
127.7178748816
 40
0.6
100
AcDbArc
 50
325.4309895675
 51
141.8220378984
  0
ARC
  5
26E
100
AcDbEntity
  8
1
100
AcDbCircle
 62
7
  6
BYLAYER
 10
85.9215709961
 20
124.047606746
 40
0.6
100
AcDbArc
 50
353.1771364501
 51
169.5690104321
  0
ARC
  5
26F
100
AcDbEntity
  8
1
100
AcDbCircle
 62
7
  6
BYLAYER
 10
74.0779366572
 20
218.9149610183
 40
4.0
100
AcDbArc
 50
270.0
 51
360.0
  0
CIRCLE
  5
270
100
AcDbEntity
  8
1
100
AcDbCircle
 62
7
  6
BYLAYER
 10
70.1215709961
 20
143.8213266793
 40
2.7
  0
CIRCLE
  5
271
100
AcDbEntity
  8
1
100
AcDbCircle
 62
7
  6
BYLAYER
 10
73.9215709961
 20
219.7213266793
 40
2.4455839645
  0
ARC
  5
272
100
AcDbEntity
  8
2
100
AcDbCircle
 62
7
  6
BYLAYER
 10
81.0215709961
 20
218.3192718505
 40
2.0
100
AcDbArc
 50
180.0
 51
270.0
  0
ARC
  5
273
100
AcDbEntity
  8
1
100
AcDbCircle
 62
7
  6
BYLAYER
 10
78.7686213702
 20
195.1235387941
 40
1.9994954154
100
AcDbArc
 50
359.9366199483
 51
180.0633800517
  0
ARC
  5
274
100
AcDbEntity
  8
1
100
AcDbCircle
 62
7
  6
BYLAYER
 10
78.7686213738
 20
200.61911444
 40
1.9994953366
100
AcDbArc
 50
179.9366163808
 51
0.0633836192
  0
ARC
  5
275
100
AcDbEntity
  8
1
100
AcDbCircle
 62
7
  6
BYLAYER
 10
78.7686213762
 20
200.6235389186
 40
1.9994953366
100
AcDbArc
 50
359.9366163807
 51
180.0633836192
  0
ARC
  5
276
100
AcDbEntity
  8
1
100
AcDbCircle
 62
7
  6
BYLAYER
 10
78.7686213725
 20
195.1191136346
 40
1.9994953232
100
AcDbArc
 50
179.936593305
 51
0.0634066952
  0
ARC
  5
277
100
AcDbEntity
  8
1
100
AcDbCircle
 62
7
  6
BYLAYER
 10
85.9215709961
 20
163.5950466126
 40
0.6
100
AcDbArc
 50
190.4309895675
 51
6.8228635499
  0
ARC
  5
278
100
AcDbEntity
  8
1
100
AcDbCircle
 62
7
  6
BYLAYER
 10
77.0607598856
 20
159.924778477
 40
0.6
100
AcDbArc
 50
218.1782012802
 51
34.5690104325
  0
ARC
  5
279
100
AcDbEntity
  8
1
100
AcDbCircle
 62
7
  6
BYLAYER
 10
74.7794353724
 20
157.963462303
 40
0.6
100
AcDbArc
 50
226.8040630084
 51
43.1959369916
  0
ARC
  5
27A
100
AcDbEntity
  8
1
100
AcDbCircle
 62
7
  6
BYLAYER
 10
72.8181191985
 20
155.6821377899
 40
0.6
100
AcDbArc
 50
235.4309895675
 51
51.8228635499
  0
ARC
  5
27B
100
AcDbEntity
  8
1
100
AcDbCircle
 62
7
  6
BYLAYER
 10
69.1478510629
 20
146.8213266793
 40
0.6
100
AcDbArc
 50
263.1771364501
 51
79.5690104325
  0
ARC
  5
27C
100
AcDbEntity
  8
1
100
AcDbCircle
 62
7
  6
BYLAYER
 10
68.9215709961
 20
143.8213266793
 40
0.6
100
AcDbArc
 50
271.8040630084
 51
88.2810621394
  0
ARC
  5
27D
100
AcDbEntity
  8
2
100
AcDbCircle
 62
7
  6
BYLAYER
 10
77.1215709961
 20
225.0192718505
 40
0.2
100
AcDbArc
 50
180.0
 51
270.0
  0
CIRCLE
  5
27E
100
AcDbEntity
  8
2
100
AcDbCircle
 62
7
  6
BYLAYER
 10
88.9215709961
 20
81.0713266793
 40
12.25
  0
CIRCLE
  5
27F
100
AcDbEntity
  8
1
100
AcDbCircle
 62
7
  6
BYLAYER
 10
88.9215709961
 20
81.0713266793
 40
12.25
  0
ARC
  5
280
100
AcDbEntity
  8
1
100
AcDbCircle
 62
7
  6
BYLAYER
 10
88.9444832117
 20
60.0612072089
 40
5.0
100
AcDbArc
 50
209.6177347754
 51
330.1217129265
  0
ARC
  5
281
100
AcDbEntity
  8
1
100
AcDbCircle
 62
7
  6
BYLAYER
 10
102.079105662
 20
68.8713266793
 40
2.0
100
AcDbArc
 50
90.0
 51
150.1217129265
  0
ARC
  5
282
100
AcDbEntity
  8
1
100
AcDbCircle
 62
7
  6
BYLAYER
 10
108.6952909294
 20
140.8213266793
 40
0.6
100
AcDbArc
 50
83.1771364501
 51
259.5690104325
  0
ARC
  5
283
100
AcDbEntity
  8
1
100
AcDbCircle
 62
7
  6
BYLAYER
 10
105.0250227938
 20
131.9605155687
 40
0.6
100
AcDbArc
 50
55.4309895675
 51
231.8228635499
  0
ARC
  5
284
100
AcDbEntity
  8
1
100
AcDbCircle
 62
7
  6
BYLAYER
 10
103.0637066199
 20
129.6791910556
 40
0.6
100
AcDbArc
 50
46.8040630084
 51
223.1959369916
  0
ARC
  5
285
100
AcDbEntity
  8
1
100
AcDbCircle
 62
7
  6
BYLAYER
 10
100.7823821067
 20
127.7178748816
 40
0.6
100
AcDbArc
 50
38.1779621016
 51
214.5690104325
  0
ARC
  5
286
100
AcDbEntity
  8
1
100
AcDbCircle
 62
7
  6
BYLAYER
 10
91.9215709961
 20
124.047606746
 40
0.6
100
AcDbArc
 50
10.4309895675
 51
186.8228635499
  0
ARC
  5
287
100
AcDbEntity
  8
1
100
AcDbCircle
 62
7
  6
BYLAYER
 10
88.9215709961
 20
123.8213266793
 40
0.6
100
AcDbArc
 50
1.8040630084
 51
178.1959369916
  0
CIRCLE
  5
288
100
AcDbEntity
  8
1
100
AcDbCircle
 62
7
  6
BYLAYER
 10
88.9215709961
 20
143.8213266793
 40
21.75
  0
CIRCLE
  5
289
100
AcDbEntity
  8
1
100
AcDbCircle
 62
7
  6
BYLAYER
 10
88.9215709961
 20
143.8213266793
 40
19.990854535
  0
CIRCLE
  5
28A
100
AcDbEntity
  8
1
100
AcDbCircle
 62
7
  6
BYLAYER
 10
88.9215709961
 20
143.8213266793
 40
19.4
  0
ARC
  5
28B
100
AcDbEntity
  8
1
100
AcDbCircle
 62
7
  6
BYLAYER
 10
88.9215709961
 20
143.8213266793
 40
19.0
100
AcDbArc
 50
180.0
 51
360.0
  0
ARC
  5
28C
100
AcDbEntity
  8
1
100
AcDbCircle
 62
7
  6
BYLAYER
 10
88.9215709961
 20
143.8213266793
 40
18.9946
100
AcDbArc
 50
0.0
 51
180.0
  0
CIRCLE
  5
28D
100
AcDbEntity
  8
1
100
AcDbCircle
 62
7
  6
BYLAYER
 10
88.9215709961
 20
143.8213266793
 40
18.2608695652
  0
CIRCLE
  5
28E
100
AcDbEntity
  8
1
100
AcDbCircle
 62
7
  6
BYLAYER
 10
88.9215709961
 20
143.8213266793
 40
18.0307336141
  0
CIRCLE
  5
28F
100
AcDbEntity
  8
1
100
AcDbCircle
 62
7
  6
BYLAYER
 10
88.9215709961
 20
143.8213266793
 40
15.8417615707
  0
ARC
  5
290
100
AcDbEntity
  8
1
100
AcDbCircle
 62
7
  6
BYLAYER
 10
88.9215709961
 20
143.8213266793
 40
15.6040268456
100
AcDbArc
 50
282.5
 51
77.5
  0
ARC
  5
291
100
AcDbEntity
  8
1
100
AcDbCircle
 62
7
  6
BYLAYER
 10
88.9215709961
 20
143.8213266793
 40
15.6040268456
100
AcDbArc
 50
102.5
 51
257.5
  0
ARC
  5
292
100
AcDbEntity
  8
1
100
AcDbCircle
 62
7
  6
BYLAYER
 10
88.9215709961
 20
143.8213266793
 40
15.5
100
AcDbArc
 50
282.5
 51
77.5
  0
ARC
  5
293
100
AcDbEntity
  8
1
100
AcDbCircle
 62
7
  6
BYLAYER
 10
88.9215709961
 20
143.8213266793
 40
15.5
100
AcDbArc
 50
102.5
 51
257.5
  0
CIRCLE
  5
294
100
AcDbEntity
  8
1
100
AcDbCircle
 62
7
  6
BYLAYER
 10
88.9215709961
 20
143.8213266793
 40
15.0091271843
  0
CIRCLE
  5
295
100
AcDbEntity
  8
1
100
AcDbCircle
 62
7
  6
BYLAYER
 10
88.9215709961
 20
143.8213266793
 40
15.0
  0
CIRCLE
  5
296
100
AcDbEntity
  8
1
100
AcDbCircle
 62
7
  6
BYLAYER
 10
88.9215709961
 20
143.8213266793
 40
14.5
  0
CIRCLE
  5
297
100
AcDbEntity
  8
1
100
AcDbCircle
 62
7
  6
BYLAYER
 10
88.9215709961
 20
143.8213266793
 40
14.25
  0
CIRCLE
  5
298
100
AcDbEntity
  8
1
100
AcDbCircle
 62
7
  6
BYLAYER
 10
88.9215709961
 20
143.8213266793
 40
13.5
  0
ARC
  5
299
100
AcDbEntity
  8
1
100
AcDbCircle
 62
7
  6
BYLAYER
 10
88.9215709961
 20
143.8213266793
 40
12.5838926174
100
AcDbArc
 50
282.5
 51
77.5
  0
ARC
  5
29A
100
AcDbEntity
  8
1
100
AcDbCircle
 62
7
  6
BYLAYER
 10
88.9215709961
 20
143.8213266793
 40
12.5838926174
100
AcDbArc
 50
102.5
 51
257.5
  0
ARC
  5
29B
100
AcDbEntity
  8
1
100
AcDbCircle
 62
7
  6
BYLAYER
 10
88.9215709961
 20
143.8213266793
 40
12.5
100
AcDbArc
 50
282.5
 51
77.5
  0
ARC
  5
29C
100
AcDbEntity
  8
1
100
AcDbCircle
 62
7
  6
BYLAYER
 10
88.9215709961
 20
143.8213266793
 40
12.5
100
AcDbArc
 50
102.5
 51
257.5
  0
CIRCLE
  5
29D
100
AcDbEntity
  8
1
100
AcDbCircle
 62
7
  6
BYLAYER
 10
88.9215709961
 20
143.8213266793
 40
9.5
  0
CIRCLE
  5
29E
100
AcDbEntity
  8
1
100
AcDbCircle
 62
7
  6
BYLAYER
 10
88.9215709961
 20
143.8213266793
 40
8.5
  0
ARC
  5
29F
100
AcDbEntity
  8
1
100
AcDbCircle
 62
7
  6
BYLAYER
 10
88.9215709961
 20
163.8213266793
 40
0.6
100
AcDbArc
 50
181.8040630084
 51
358.1959369916
  0
ARC
  5
2A0
100
AcDbEntity
  8
1
100
AcDbCircle
 62
7
  6
BYLAYER
 10
91.9215709961
 20
163.5950466126
 40
0.6
100
AcDbArc
 50
173.1771364501
 51
349.5690104325
  0
ARC
  5
2A1
100
AcDbEntity
  8
2
100
AcDbCircle
 62
7
  6
BYLAYER
 10
96.8215709961
 20
218.3192718505
 40
2.0
100
AcDbArc
 50
270.0
 51
360.0
  0
CIRCLE
  5
2A2
100
AcDbEntity
  8
1
100
AcDbCircle
 62
7
  6
BYLAYER
 10
107.7215709961
 20
143.8213266793
 40
2.7
  0
ARC
  5
2A3
100
AcDbEntity
  8
1
100
AcDbCircle
 62
7
  6
BYLAYER
 10
100.7823821067
 20
159.924778477
 40
0.6
100
AcDbArc
 50
145.4309895675
 51
321.8217987198
  0
ARC
  5
2A4
100
AcDbEntity
  8
1
100
AcDbCircle
 62
7
  6
BYLAYER
 10
103.0637066199
 20
157.963462303
 40
0.6
100
AcDbArc
 50
136.8040630084
 51
313.1959369917
  0
ARC
  5
2A5
100
AcDbEntity
  8
1
100
AcDbCircle
 62
7
  6
BYLAYER
 10
105.0250227938
 20
155.6821377899
 40
0.6
100
AcDbArc
 50
128.1771364501
 51
304.5690104325
  0
ARC
  5
2A6
100
AcDbEntity
  8
1
100
AcDbCircle
 62
7
  6
BYLAYER
 10
108.6952909294
 20
146.8213266793
 40
0.6
100
AcDbArc
 50
100.4309895675
 51
276.8228635499
  0
ARC
  5
2A7
100
AcDbEntity
  8
1
100
AcDbCircle
 62
7
  6
BYLAYER
 10
108.9215709961
 20
143.8213266793
 40
0.6
100
AcDbArc
 50
91.8040630084
 51
268.1959369916
  0
ARC
  5
2A8
100
AcDbEntity
  8
1
100
AcDbCircle
 62
7
  6
BYLAYER
 10
103.7652053351
 20
218.9149610183
 40
4.0
100
AcDbArc
 50
180.0
 51
270.0
  0
ARC
  5
2A9
100
AcDbEntity
  8
1
100
AcDbCircle
 62
7
  6
BYLAYER
 10
103.9215709961
 20
219.7213266793
 40
3.4455839645
100
AcDbArc
 50
44.7835156698
 51
135.2164843302
  0
ARC
  5
2AA
100
AcDbEntity
  8
1
100
AcDbCircle
 62
7
  6
BYLAYER
 10
103.9215709961
 20
219.7213266793
 40
3.4455839645
100
AcDbArc
 50
224.7835156698
 51
315.2164843302
  0
ARC
  5
2AB
100
AcDbEntity
  8
2
100
AcDbCircle
 62
7
  6
BYLAYER
 10
100.7215709961
 20
225.0192718505
 40
0.2
100
AcDbArc
 50
270.0
 51
360.0
  0
ELLIPSE
  5
2AC
100
AcDbEntity
  8
1
100
AcDbEllipse
 62
7
  6
BYLAYER
 10
103.9215709961
 20
66.4213266793
 30
0.0
 11
2.9955839645
 21
0.0
 31
0.0
 40
0.9882365806
 41
0.0
 42
6.2831853072
  0
ELLIPSE
  5
2AD
100
AcDbEntity
  8
1
100
AcDbEllipse
 62
7
  6
BYLAYER
 10
78.738554076
 20
200.6213266793
 30
0.0
 11
2.0042409394
 21
0.0
 31
0.0
 40
0.9988811079
 41
0.0
 42
6.2831853072
  0
ELLIPSE
  5
2AE
100
AcDbEntity
  8
1
100
AcDbEllipse
 62
7
  6
BYLAYER
 10
78.7385540705
 20
195.1213266793
 30
0.0
 11
2.0042409338
 21
0.0
 31
0.0
 40
0.9988811079
 41
0.0
 42
6.2831853072
  0
ENDSEC
  0
SECTION
  2
OBJECTS
  0
DICTIONARY
  5
C
100
AcDbDictionary
280
0
281
1
  3
ACAD_GROUP
350
D
  3
ACAD_MLINESTYLE
350
17
  3
ACAD_LAYOUT
350
1A
  3
ACAD_PLOTSETTINGS
350
19
  3
ACAD_PLOTSTYLENAME
350
E
  0
DICTIONARY
  5
D
102
{ACAD_REACTORS
330
C
102
}
100
AcDbDictionary
280
0
281
1
  0
ACDBDICTIONARYWDFLT
  5
E
102
{ACAD_REACTORS
330
C
102
}
100
AcDbDictionary
281
1
  3
Normal
350
F
100
AcDbDictionaryWithDefault
340
F
  0
DICTIONARY
  5
17
102
{ACAD_REACTORS
330
C
102
}
100
AcDbDictionary
280
0
281
1
  3
Standard
350
18
  0
DICTIONARY
  5
19
102
{ACAD_REACTORS
330
C
102
}
100
AcDbDictionary
281
1
  0
DICTIONARY
  5
1A
102
{ACAD_REACTORS
330
C
102
}
100
AcDbDictionary
281
1
  3
Model
350
2AF
  3
Layout1
350
2B0
  0
ACDBPLACEHOLDER
  5
F
102
{ACAD_REACTORS
330
E
102
}
  0
MLINESTYLE
  5
18
102
{ACAD_REACTORS
330
17
102
}
100
AcDbMlineStyle
  2
STANDARD
 70
0
  3

 62
256
 51
90.0
 52
90.0
 71
2
 49
0.5
 62
256
  6
BYLAYER
 49
-0.5
 62
256
  6
BYLAYER
  0
LAYOUT
  5
2AF
102
{ACAD_REACTORS
330
1A
102
}
100
AcDbPlotSettings
  1

  2
none_device
  4

  6

 40
0.0
 41
0.0
 42
0.0
 43
0.0
 44
210.0
 45
297.0
 46
0.0
 47
0.0
 48
0.0
 49
0.0
140
0.0
141
0.0
142
1.0
143
1.0
 70
1024
 72
1
 73
0
 74
0
  7

 75
0
147
1.0
148
0.0
149
0.0
100
AcDbLayout
  1
Model
 70
0
 71
0
 10
0.0
 20
0.0
 11
210.0
 21
297.0
 12
0.0
 22
0.0
 32
0.0
 14
0.0
 24
0.0
 34
0.0
 15
0.0
 25
0.0
 35
0.0
146
0.0
 13
0.0
 23
0.0
 33
0.0
 16
1.0
 26
0.0
 36
0.0
 17
0.0
 27
1.0
 37
0.0
 76
0
330
212
345
0
346
0
  0
LAYOUT
  5
2B0
102
{ACAD_REACTORS
330
1A
102
}
100
AcDbPlotSettings
  1

  2
none_device
  4

  6

 40
0.0
 41
0.0
 42
0.0
 43
0.0
 44
210.0
 45
297.0
 46
0.0
 47
0.0
 48
0.0
 49
0.0
140
0.0
141
0.0
142
1.0
143
1.0
 70
0
 72
1
 73
0
 74
0
  7

 75
0
147
1.0
148
0.0
149
0.0
100
AcDbLayout
  1
Layout1
 70
0
 71
1
 10
0.0
 20
0.0
 11
210.0
 21
297.0
 12
0.0
 22
0.0
 32
0.0
 14
0.0
 24
0.0
 34
0.0
 15
0.0
 25
0.0
 35
0.0
146
0.0
 13
0.0
 23
0.0
 33
0.0
 16
1.0
 26
0.0
 36
0.0
 17
0.0
 27
1.0
 37
0.0
 76
0
330
213
345
0
346
0
  0
ENDSEC
  0
EOF
