999
DXF file: C:\Users\sesa63760\Dev\_Creo\CAD\MCADID0004123_3D-CAD\drw0001_2.dxf
999
Pro/ENGINEER 2019471 by Parametric Technology Corporation
  0
SECTION
  2
HEADER
  9
$ACADVER
  1
AC1024
  9
$DWGCODEPAGE
  3
ANSI_1252
  9
$EXTMAX
 10
72.9961928655
 20
103.2374727669
 30
0.0
  9
$EXTMIN
 10
0.0
 20
0.0
 30
0.0
  9
$LIMMIN
 10
0.0
 20
0.0
  9
$LIMMAX
 10
72.9961928655
 20
103.2374727669
  9
$VIEWCTR
 10
36.4980964327
 20
51.6187363834
  9
$VIEWSIZE
 40
103.2374727669
  9
$CLAYER
  8
0
  9
$LTSCALE
 40
6.7295537804
  9
$CELTYPE
  6
BYLAYER
  9
$DIMSCALE
 40
1.0
  9
$DIMASZ
 40
0.869002296
  9
$DIMEXO
 40
1.0
  9
$DIMDLI
 40
4.6495098846
  9
$DIMEXE
 40
1.0
  9
$DIMCEN
 40
1.1011997095
  9
$DIMLFAC
 40
1.0
  9
$DIMBLK
  1
_FILLED
  9
$DIMALT
 70
0
  9
$DIMALTF
 40
0.0393700787
  9
$DIMTXT
 40
1.2166032144
  9
$DIMTOL
 70
1
  9
$DIMLIM
 70
0
  9
$DIMTFAC
 40
1.0
  9
$DIMTP
 40
0.01
  9
$DIMTM
 40
0.01
  9
$DIMGAP
 40
0.625
  9
$DIMDSEP
 70
46
  9
$AUNITS
 70
0
  9
$PDMODE
 70
3
  9
$PDSIZE
 40
0.3125
  9
$HANDSEED
  5
29D
  9
$TILEMODE
 70
1
  9
$MEASUREMENT
 70
1
  9
$INSUNITS
 70
4
  0
ENDSEC
  0
SECTION
  2
CLASSES
  0
CLASS
  1
ACDBDICTIONARYWDFLT
  2
AcDbDictionaryWithDefault
  3
AutoCAD 2000
 90
0
 91
1
280
0
281
0
  0
CLASS
  1
ACDBPLACEHOLDER
  2
AcDbPlaceHolder
  3
AutoCAD 2000
 90
0
 91
1
280
0
281
0
  0
CLASS
  1
LAYOUT
  2
AcDbLayout
  3
AutoCAD 2000
 90
0
 91
0
280
0
281
0
  0
ENDSEC
  0
SECTION
  2
TABLES
  0
TABLE
  2
VPORT
  5
8
100
AcDbSymbolTable
 70
2
  0
VPORT
  5
1F4
100
AcDbSymbolTableRecord
100
AcDbViewportTableRecord
  2
*ACTIVE
 70
0
 10
0.0
 20
0.0
 11
1.0
 21
1.0
 12
36.4980964327
 22
51.6187363834
 13
0.0
 23
0.0
 14
1.0
 24
1.0
 15
0.0
 25
0.0
 16
0.0
 26
0.0
 36
1.0
 17
0.0
 27
0.0
 37
0.0
 40
103.2374727669
 41
0.7070707071
 42
50.0
 43
0.0
 44
0.0
 50
0.0
 51
0.0
 71
0
 72
100
 73
1
 74
1
 75
0
 76
0
 77
0
 78
0
  0
ENDTAB
  0
TABLE
  2
LTYPE
  5
5
100
AcDbSymbolTable
 70
6
  0
LTYPE
  5
14
100
AcDbSymbolTableRecord
100
AcDbLinetypeTableRecord
  2
BYBLOCK
 70
0
  3

 72
65
 73
0
 40
0.0
  0
LTYPE
  5
15
100
AcDbSymbolTableRecord
100
AcDbLinetypeTableRecord
  2
BYLAYER
 70
0
  3

 72
65
 73
0
 40
0.0
  0
LTYPE
  5
16
100
AcDbSymbolTableRecord
100
AcDbLinetypeTableRecord
  2
CONTINUOUS
 70
64
  3
Solid line
 72
65
 73
0
 40
0.0
  0
LTYPE
  5
1F5
100
AcDbSymbolTableRecord
100
AcDbLinetypeTableRecord
  2
CENTER
 70
64
  3
____ _ ____ _ ____ _ ____ _ ____ _ ____ _ ____
 72
65
 73
4
 40
0.6
 49
0.375
 74
0
 49
-0.075
 74
0
 49
0.075
 74
0
 49
-0.075
 74
0
  0
LTYPE
  5
1F6
100
AcDbSymbolTableRecord
100
AcDbLinetypeTableRecord
  2
HIDDEN
 70
64
  3
- - - - - - - - - - - - - - - - - - - -
 72
65
 73
2
 40
0.2
 49
0.1
 74
0
 49
-0.1
 74
0
  0
LTYPE
  5
1F7
100
AcDbSymbolTableRecord
100
AcDbLinetypeTableRecord
  2
PHANTOM
 70
64
  3
_____ _ _ _____ _ _ _____ _ _ _____
 72
65
 73
6
 40
0.8
 49
0.45
 74
0
 49
-0.05
 74
0
 49
0.1
 74
0
 49
-0.05
 74
0
 49
0.1
 74
0
 49
-0.05
 74
0
  0
LTYPE
  5
1F8
100
AcDbSymbolTableRecord
100
AcDbLinetypeTableRecord
  2
DOT
 70
64
  3
. . . . . . . . . . . . . . . . . . . .
 72
65
 73
2
 40
0.2
 49
0.1
 74
0
 49
-0.1
 74
0
  0
LTYPE
  5
1F9
100
AcDbSymbolTableRecord
100
AcDbLinetypeTableRecord
  2
DASHED
 70
64
  3
- - - - - - - - - - - - - - - - - - - -
 72
65
 73
2
 40
0.2
 49
0.1
 74
0
 49
-0.1
 74
0
  0
ENDTAB
  0
TABLE
  2
LAYER
  5
2
100
AcDbSymbolTable
 70
36
  0
LAYER
  5
10
100
AcDbSymbolTableRecord
100
AcDbLayerTableRecord
  2
0
 70
0
 62
7
  6
CONTINUOUS
370
-3
390
F
  0
LAYER
  5
1FA
100
AcDbSymbolTableRecord
100
AcDbLayerTableRecord
  2
DEFAULT_1
 70
0
 62
7
  6
CENTER
370
-3
390
F
  0
LAYER
  5
1FB
100
AcDbSymbolTableRecord
100
AcDbLayerTableRecord
  2
DEFAULT_2
 70
0
 62
7
  6
HIDDEN
370
-3
390
F
  0
LAYER
  5
1FC
100
AcDbSymbolTableRecord
100
AcDbLayerTableRecord
  2
DEFAULT_3
 70
0
 62
7
  6
PHANTOM
370
-3
390
F
  0
LAYER
  5
1FD
100
AcDbSymbolTableRecord
100
AcDbLayerTableRecord
  2
00_COMPONENTS
 70
0
 62
7
  6
CONTINUOUS
370
-3
390
F
  0
LAYER
  5
1FE
100
AcDbSymbolTableRecord
100
AcDbLayerTableRecord
  2
01_1_DEFAULT_DATUMS
 70
0
 62
7
  6
CONTINUOUS
370
-3
390
F
  0
LAYER
  5
1FF
100
AcDbSymbolTableRecord
100
AcDbLayerTableRecord
  2
01_PLANES
 70
0
 62
7
  6
CONTINUOUS
370
-3
390
F
  0
LAYER
  5
200
100
AcDbSymbolTableRecord
100
AcDbLayerTableRecord
  2
02_COORD_SYS
 70
0
 62
7
  6
CONTINUOUS
370
-3
390
F
  0
LAYER
  5
201
100
AcDbSymbolTableRecord
100
AcDbLayerTableRecord
  2
03_AXES
 70
0
 62
7
  6
CONTINUOUS
370
-3
390
F
  0
LAYER
  5
202
100
AcDbSymbolTableRecord
100
AcDbLayerTableRecord
  2
04_POINTS
 70
0
 62
7
  6
CONTINUOUS
370
-3
390
F
  0
LAYER
  5
203
100
AcDbSymbolTableRecord
100
AcDbLayerTableRecord
  2
05_CURVES
 70
0
 62
7
  6
CONTINUOUS
370
-3
390
F
  0
LAYER
  5
204
100
AcDbSymbolTableRecord
100
AcDbLayerTableRecord
  2
06_SURFS
 70
0
 62
7
  6
CONTINUOUS
370
-3
390
F
  0
LAYER
  5
205
100
AcDbSymbolTableRecord
100
AcDbLayerTableRecord
  2
07_COSMETICS
 70
0
 62
7
  6
CONTINUOUS
370
-3
390
F
  0
LAYER
  5
206
100
AcDbSymbolTableRecord
100
AcDbLayerTableRecord
  2
10_NOTES
 70
0
 62
7
  6
CONTINUOUS
370
-3
390
F
  0
LAYER
  5
207
100
AcDbSymbolTableRecord
100
AcDbLayerTableRecord
  2
11_NOTES_PUB
 70
0
 62
7
  6
CONTINUOUS
370
-3
390
F
  0
LAYER
  5
208
100
AcDbSymbolTableRecord
100
AcDbLayerTableRecord
  2
13_REF_GTOL
 70
0
 62
7
  6
CONTINUOUS
370
-3
390
F
  0
LAYER
  5
209
100
AcDbSymbolTableRecord
100
AcDbLayerTableRecord
  2
16_MISC
 70
0
 62
7
  6
CONTINUOUS
370
-3
390
F
  0
LAYER
  5
20A
100
AcDbSymbolTableRecord
100
AcDbLayerTableRecord
  2
17_NO_PRINT
 70
0
 62
7
  6
CONTINUOUS
370
-3
390
F
  0
LAYER
  5
20B
100
AcDbSymbolTableRecord
100
AcDbLayerTableRecord
  2
18_DATUM_CAMS_JOINTS
 70
0
 62
7
  6
CONTINUOUS
370
-3
390
F
  0
LAYER
  5
20C
100
AcDbSymbolTableRecord
100
AcDbLayerTableRecord
  2
19_DATUM_FUNCTIONAL
 70
0
 62
7
  6
CONTINUOUS
370
-3
390
F
  0
LAYER
  5
20D
100
AcDbSymbolTableRecord
100
AcDbLayerTableRecord
  2
20_DATUM_KINEMATIC_SCHEME
 70
0
 62
7
  6
CONTINUOUS
370
-3
390
F
  0
ENDTAB
  0
TABLE
  2
STYLE
  5
3
100
AcDbSymbolTable
 70
1
  0
STYLE
  5
11
100
AcDbSymbolTableRecord
100
AcDbTextStyleTableRecord
  2
STANDARD
 70
0
 40
0.0
 41
1.0
 50
0.0
 71
0
 42
0.2
  3
ARIAL.TTF
  4

  0
STYLE
  5
20E
100
AcDbSymbolTableRecord
100
AcDbTextStyleTableRecord
  2
TEXTSTYLE_1
 70
0
 40
0.0
 41
0.8
 50
0.0
 71
0
 42
0.2
  3
gdt
  4

  0
ENDTAB
  0
TABLE
  2
VIEW
  5
6
100
AcDbSymbolTable
 70
0
  0
ENDTAB
  0
TABLE
  2
UCS
  5
7
100
AcDbSymbolTable
 70
0
  0
ENDTAB
  0
TABLE
  2
APPID
  5
9
100
AcDbSymbolTable
 70
1
  0
APPID
  5
20F
100
AcDbSymbolTableRecord
100
AcDbRegAppTableRecord
  2
ACAD
 70
0
  0
ENDTAB
  0
TABLE
  2
BLOCK_RECORD
  5
1
100
AcDbSymbolTable
 70
0
  0
BLOCK_RECORD
  5
210
100
AcDbSymbolTableRecord
100
AcDbBlockTableRecord
  2
*Model_Space
  0
BLOCK_RECORD
  5
211
100
AcDbSymbolTableRecord
100
AcDbBlockTableRecord
  2
*Paper_Space
  0
BLOCK_RECORD
  5
212
100
AcDbSymbolTableRecord
100
AcDbBlockTableRecord
  2
_FILLED
  0
ENDTAB
  0
TABLE
  2
DIMSTYLE
  5
A
100
AcDbSymbolTable
 70
1
100
AcDbDimStyleTable
 71
0
  0
DIMSTYLE
105
213
100
AcDbSymbolTableRecord
100
AcDbDimStyleTableRecord
  2
STANDARD
 70
0
  3

  4

 40
1.0
 41
0.869002296
 42
1.0
 43
0.38
 44
1.0
 45
0.0
 46
0.0
 47
0.01
 48
0.01
140
1.2166032144
141
0.09
142
0.0
143
25.4
144
1.0
145
0.0
146
1.0
147
0.625
 71
1
 72
0
 73
0
 74
0
 75
0
 76
0
 77
1
 78
8
 79
2
170
0
171
1
172
0
173
0
174
0
175
0
176
0
177
0
178
0
270
2
179
2
271
2
272
2
273
2
274
2
275
0
280
0
281
0
282
0
283
1
284
8
285
0
286
0
287
3
288
0
340
11
278
46
341
212
342
212
343
212
344
212
  0
ENDTAB
  0
ENDSEC
  0
SECTION
  2
BLOCKS
  0
BLOCK
  5
20
100
AcDbEntity
  8
0
100
AcDbBlockBegin
  2
*Model_Space
 70
0
 10
0.0
 20
0.0
 30
0.0
  3
*Model_Space
  1

  0
ENDBLK
  5
21
100
AcDbEntity
  8
0
100
AcDbBlockEnd
  0
BLOCK
  5
1C
100
AcDbEntity
  8
0
100
AcDbBlockBegin
  2
*Paper_Space
 70
0
 10
0.0
 20
0.0
 30
0.0
  3
*Paper_Space
  1

  0
ENDBLK
  5
1D
100
AcDbEntity
  8
0
100
AcDbBlockEnd
  0
BLOCK
  5
214
100
AcDbEntity
  8
0
100
AcDbBlockBegin
  2
_FILLED
 70
64
 10
0.0
 20
0.0
  3
_FILLED
  1

  0
SOLID
  5
215
100
AcDbEntity
  8
0
  6
BYBLOCK
 62
0
100
AcDbTrace
 10
0.0
 20
0.0
 11
-1.0
 21
0.25
 12
-1.0
 22
-0.25
 13
-1.0
 23
-0.25
  0
ENDBLK
  5
216
100
AcDbEntity
  8
0
  6
BYBLOCK
 62
0
100
AcDbBlockEnd
  0
ENDSEC
  0
SECTION
  2
ENTITIES
  0
LINE
  5
217
100
AcDbEntity
  8
0
100
AcDbLine
 62
7
  6
BYLAYER
 10
8.0035430558
 20
44.4335254199
 11
8.0035430558
 21
58.4248623797
  0
LINE
  5
218
100
AcDbEntity
  8
0
100
AcDbLine
 62
7
  6
BYLAYER
 10
8.1502658688
 20
44.0798858194
 11
8.1502658688
 21
58.7785019802
  0
LINE
  5
219
100
AcDbEntity
  8
0
100
AcDbLine
 62
7
  6
BYLAYER
 10
8.8530006921
 20
43.7883256267
 11
8.8530006921
 21
59.0700621728
  0
LINE
  5
21A
100
AcDbEntity
  8
0
100
AcDbLine
 62
7
  6
BYLAYER
 10
9.0005057593
 20
43.3349965161
 11
9.0005057593
 21
59.5234024152
  0
LINE
  5
21B
100
AcDbEntity
  8
0
100
AcDbLine
 62
7
  6
BYLAYER
 10
9.1998983
 20
43.1355928436
 11
9.1998983
 21
59.722794956
  0
LINE
  5
21C
100
AcDbEntity
  8
0
100
AcDbLine
 62
7
  6
BYLAYER
 10
8.1502658688
 20
58.7785019802
 11
8.0035430558
 21
58.4248623797
  0
LINE
  5
21D
100
AcDbEntity
  8
0
100
AcDbLine
 62
7
  6
BYLAYER
 10
9.0005057593
 20
59.4255872066
 11
8.8530006921
 21
59.0700621728
  0
LINE
  5
21E
100
AcDbEntity
  8
0
100
AcDbLine
 62
7
  6
BYLAYER
 10
8.0035430558
 20
44.4335254199
 11
8.1502658688
 21
44.0798858194
  0
LINE
  5
21F
100
AcDbEntity
  8
0
100
AcDbLine
 62
7
  6
BYLAYER
 10
8.8530006921
 20
43.7883256267
 11
9.0005057593
 21
43.432800593
  0
LINE
  5
220
100
AcDbEntity
  8
0
100
AcDbLine
 62
7
  6
BYLAYER
 10
11.0997706218
 20
59.722794956
 11
11.0997706218
 21
43.1355928436
  0
LINE
  5
221
100
AcDbEntity
  8
0
100
AcDbLine
 62
7
  6
BYLAYER
 10
11.2991631625
 20
43.1355928436
 11
11.2991631625
 21
59.722794956
  0
LINE
  5
222
100
AcDbEntity
  8
0
100
AcDbLine
 62
7
  6
BYLAYER
 10
12.296125866
 20
43.0340155116
 11
12.296125866
 21
59.824372288
  0
LINE
  5
223
100
AcDbEntity
  8
0
100
AcDbLine
 62
7
  6
BYLAYER
 10
12.8980656115
 20
42.4358378895
 11
12.8980656115
 21
60.4225499101
  0
LINE
  5
224
100
AcDbEntity
  8
0
100
AcDbLine
 62
7
  6
BYLAYER
 10
12.8980656115
 20
60.4225499101
 11
12.296125866
 21
59.824372288
  0
LINE
  5
225
100
AcDbEntity
  8
0
100
AcDbLine
 62
7
  6
BYLAYER
 10
12.296125866
 20
43.0340155116
 11
12.8980656115
 21
42.4358378895
  0
LINE
  5
226
100
AcDbEntity
  8
0
100
AcDbLine
 62
7
  6
BYLAYER
 10
20.4035430558
 20
63.4341938998
 11
21.2666817083
 21
64.9291938998
  0
LINE
  5
227
100
AcDbEntity
  8
0
100
AcDbLine
 62
7
  6
BYLAYER
 10
21.2666817083
 20
37.9291938998
 11
20.4035430558
 21
39.4241938998
  0
LINE
  5
228
100
AcDbEntity
  8
0
100
AcDbLine
 62
7
  6
BYLAYER
 10
8.8530006921
 20
59.0700621728
 11
8.1502658688
 21
58.7785019802
  0
LINE
  5
229
100
AcDbEntity
  8
0
100
AcDbLine
 62
7
  6
BYLAYER
 10
8.1502658688
 20
44.0798858194
 11
8.8530006921
 21
43.7883256267
  0
LINE
  5
22A
100
AcDbEntity
  8
0
100
AcDbLine
 62
7
  6
BYLAYER
 10
20.4035430558
 20
39.4241938998
 11
20.4035430558
 21
63.4341938998
  0
LINE
  5
22B
100
AcDbEntity
  8
0
100
AcDbLine
 62
7
  6
BYLAYER
 10
21.2666817083
 20
37.9291938998
 11
21.2666817083
 21
37.9450852433
  0
LINE
  5
22C
100
AcDbEntity
  8
0
100
AcDbLine
 62
7
  6
BYLAYER
 10
21.2666817083
 20
44.1200326114
 11
21.2666817083
 21
45.2542465316
  0
LINE
  5
22D
100
AcDbEntity
  8
0
100
AcDbLine
 62
7
  6
BYLAYER
 10
21.2666817083
 20
57.604141268
 11
21.2666817083
 21
58.7383551881
  0
LINE
  5
22E
100
AcDbEntity
  8
0
100
AcDbLine
 62
7
  6
BYLAYER
 10
21.2666817083
 20
64.9133025563
 11
21.2666817083
 21
64.9291938998
  0
LINE
  5
22F
100
AcDbEntity
  8
0
100
AcDbLine
 62
7
  6
BYLAYER
 10
22.5404044034
 20
64.9291938998
 11
22.5404044034
 21
64.9133025563
  0
LINE
  5
230
100
AcDbEntity
  8
0
100
AcDbLine
 62
7
  6
BYLAYER
 10
22.5404044034
 20
58.7383551881
 11
22.5404044034
 21
57.604141268
  0
LINE
  5
231
100
AcDbEntity
  8
0
100
AcDbLine
 62
7
  6
BYLAYER
 10
22.5404044034
 20
45.2542465316
 11
22.5404044034
 21
44.1200326114
  0
LINE
  5
232
100
AcDbEntity
  8
0
100
AcDbLine
 62
7
  6
BYLAYER
 10
22.5404044034
 20
37.9450852433
 11
22.5404044034
 21
37.9291938998
  0
LINE
  5
233
100
AcDbEntity
  8
0
100
AcDbLine
 62
7
  6
BYLAYER
 10
23.4035430558
 20
63.4341938998
 11
23.4035430558
 21
39.4241938998
  0
LINE
  5
234
100
AcDbEntity
  8
0
100
AcDbLine
 62
7
  6
BYLAYER
 10
24.1021851088
 20
62.4780296282
 11
24.1021851088
 21
40.3803581713
  0
LINE
  5
235
100
AcDbEntity
  8
0
100
AcDbLine
 62
7
  6
BYLAYER
 10
29.7049010028
 20
62.4780296282
 11
30.4035430558
 21
62.7296219531
  0
LINE
  5
236
100
AcDbEntity
  8
0
100
AcDbLine
 62
7
  6
BYLAYER
 10
22.5404044034
 20
37.9291938998
 11
21.2666817083
 21
37.9291938998
  0
LINE
  5
237
100
AcDbEntity
  8
0
100
AcDbLine
 62
7
  6
BYLAYER
 10
31.2666817083
 20
37.9291938998
 11
32.5404044034
 21
37.9291938998
  0
LINE
  5
238
100
AcDbEntity
  8
0
100
AcDbLine
 62
7
  6
BYLAYER
 10
32.5404044034
 20
37.9450852433
 11
31.2666817083
 21
37.9450852433
  0
LINE
  5
239
100
AcDbEntity
  8
0
100
AcDbLine
 62
7
  6
BYLAYER
 10
22.5404044034
 20
37.9450852433
 11
21.2666817083
 21
37.9450852433
  0
LINE
  5
23A
100
AcDbEntity
  8
0
100
AcDbLine
 62
7
  6
BYLAYER
 10
30.4035430558
 20
40.1287658465
 11
29.7049010028
 21
40.3803581713
  0
LINE
  5
23B
100
AcDbEntity
  8
0
100
AcDbLine
 62
7
  6
BYLAYER
 10
31.2666817083
 20
64.9291938998
 11
30.4035430558
 21
63.4341938998
  0
LINE
  5
23C
100
AcDbEntity
  8
0
100
AcDbLine
 62
7
  6
BYLAYER
 10
30.4035430558
 20
39.4241938998
 11
31.2666817083
 21
37.9291938998
  0
LINE
  5
23D
100
AcDbEntity
  8
0
100
AcDbLine
 62
7
  6
BYLAYER
 10
51.3364714161
 20
43.4219578536
 11
55.6035649506
 21
44.1083810632
  0
LINE
  5
23E
100
AcDbEntity
  8
0
100
AcDbLine
 62
7
  6
BYLAYER
 10
47.1045600427
 20
43.1957868182
 11
51.3364714161
 21
43.4219578536
  0
LINE
  5
23F
100
AcDbEntity
  8
0
100
AcDbLine
 62
7
  6
BYLAYER
 10
12.8980656115
 20
42.4358378895
 11
20.4035430558
 21
42.4358378895
  0
LINE
  5
240
100
AcDbEntity
  8
0
100
AcDbLine
 62
7
  6
BYLAYER
 10
24.1021851088
 20
42.4358378895
 11
29.7049010028
 21
42.4358378895
  0
LINE
  5
241
100
AcDbEntity
  8
0
100
AcDbLine
 62
7
  6
BYLAYER
 10
33.4035430558
 20
42.4358378895
 11
39.0649023167
 21
42.4358378895
  0
LINE
  5
242
100
AcDbEntity
  8
0
100
AcDbLine
 62
7
  6
BYLAYER
 10
9.1998983
 20
43.1355928436
 11
11.0997706218
 21
43.1355928436
  0
LINE
  5
243
100
AcDbEntity
  8
0
100
AcDbLine
 62
7
  6
BYLAYER
 10
11.2991631625
 20
43.1355928436
 11
12.296125866
 21
43.1355928436
  0
LINE
  5
244
100
AcDbEntity
  8
0
100
AcDbLine
 62
7
  6
BYLAYER
 10
39.8135648751
 20
43.1845004479
 11
45.8066274664
 21
43.1845004479
  0
LINE
  5
245
100
AcDbEntity
  8
0
100
AcDbLine
 62
7
  6
BYLAYER
 10
46.1075973392
 20
43.1845004479
 11
47.1045600427
 21
43.1845004479
  0
LINE
  5
246
100
AcDbEntity
  8
0
100
AcDbLine
 62
7
  6
BYLAYER
 10
29.7049010028
 20
40.3803581713
 11
29.7049010028
 21
62.4780296282
  0
LINE
  5
247
100
AcDbEntity
  8
0
100
AcDbLine
 62
7
  6
BYLAYER
 10
30.4035430558
 20
39.4241938998
 11
30.4035430558
 21
63.4341938998
  0
LINE
  5
248
100
AcDbEntity
  8
0
100
AcDbLine
 62
7
  6
BYLAYER
 10
11.0997706218
 20
43.3349853843
 11
11.2991631625
 21
43.3349853843
  0
LINE
  5
249
100
AcDbEntity
  8
0
100
AcDbLine
 62
7
  6
BYLAYER
 10
45.8066274664
 20
43.9858327342
 11
46.1075973392
 21
43.9858327342
  0
LINE
  5
24A
100
AcDbEntity
  8
0
100
AcDbLine
 62
7
  6
BYLAYER
 10
21.2666817083
 20
44.1200326114
 11
22.5404044034
 21
44.1200326114
  0
LINE
  5
24B
100
AcDbEntity
  8
0
100
AcDbLine
 62
7
  6
BYLAYER
 10
31.2666817083
 20
44.1200326114
 11
32.5404044034
 21
44.1200326114
  0
LINE
  5
24C
100
AcDbEntity
  8
0
100
AcDbLine
 62
7
  6
BYLAYER
 10
55.6035649506
 20
44.6991938998
 11
65.5392495048
 21
44.6991938998
  0
LINE
  5
24D
100
AcDbEntity
  8
0
100
AcDbLine
 62
7
  6
BYLAYER
 10
32.5404044034
 20
45.2542465316
 11
31.2666817083
 21
45.2542465316
  0
LINE
  5
24E
100
AcDbEntity
  8
0
100
AcDbLine
 62
7
  6
BYLAYER
 10
22.5404044034
 20
45.2542465316
 11
21.2666817083
 21
45.2542465316
  0
LINE
  5
24F
100
AcDbEntity
  8
0
100
AcDbLine
 62
7
  6
BYLAYER
 10
31.2666817083
 20
37.9291938998
 11
31.2666817083
 21
37.9450852433
  0
LINE
  5
250
100
AcDbEntity
  8
0
100
AcDbLine
 62
7
  6
BYLAYER
 10
31.2666817083
 20
44.1200326114
 11
31.2666817083
 21
45.2542465316
  0
LINE
  5
251
100
AcDbEntity
  8
0
100
AcDbLine
 62
7
  6
BYLAYER
 10
31.2666817083
 20
57.604141268
 11
31.2666817083
 21
58.7383551881
  0
LINE
  5
252
100
AcDbEntity
  8
0
100
AcDbLine
 62
7
  6
BYLAYER
 10
31.2666817083
 20
64.9133025563
 11
31.2666817083
 21
64.9291938998
  0
LINE
  5
253
100
AcDbEntity
  8
0
100
AcDbLine
 62
7
  6
BYLAYER
 10
32.5404044034
 20
64.9291938998
 11
32.5404044034
 21
64.9133025563
  0
LINE
  5
254
100
AcDbEntity
  8
0
100
AcDbLine
 62
7
  6
BYLAYER
 10
32.5404044034
 20
58.7383551881
 11
32.5404044034
 21
57.604141268
  0
LINE
  5
255
100
AcDbEntity
  8
0
100
AcDbLine
 62
7
  6
BYLAYER
 10
32.5404044034
 20
45.2542465316
 11
32.5404044034
 21
44.1200326114
  0
LINE
  5
256
100
AcDbEntity
  8
0
100
AcDbLine
 62
7
  6
BYLAYER
 10
32.5404044034
 20
37.9450852433
 11
32.5404044034
 21
37.9291938998
  0
LINE
  5
257
100
AcDbEntity
  8
0
100
AcDbLine
 62
7
  6
BYLAYER
 10
23.4035430558
 20
39.4241938998
 11
22.5404044034
 21
37.9291938998
  0
LINE
  5
258
100
AcDbEntity
  8
0
100
AcDbLine
 62
7
  6
BYLAYER
 10
22.5404044034
 20
64.9291938998
 11
23.4035430558
 21
63.4341938998
  0
LINE
  5
259
100
AcDbEntity
  8
0
100
AcDbLine
 62
7
  6
BYLAYER
 10
33.4035430558
 20
63.4341938998
 11
33.4035430558
 21
39.4241938998
  0
LINE
  5
25A
100
AcDbEntity
  8
0
100
AcDbLine
 62
7
  6
BYLAYER
 10
55.6035649506
 20
48.8991938998
 11
65.5392495048
 21
48.8991938998
  0
LINE
  5
25B
100
AcDbEntity
  8
0
100
AcDbLine
 62
7
  6
BYLAYER
 10
39.0649023167
 20
60.4225499101
 11
39.0649023167
 21
42.4358378895
  0
LINE
  5
25C
100
AcDbEntity
  8
0
100
AcDbLine
 62
7
  6
BYLAYER
 10
39.8135648751
 20
43.1845004479
 11
39.8135648751
 21
59.6738873516
  0
LINE
  5
25D
100
AcDbEntity
  8
0
100
AcDbLine
 62
7
  6
BYLAYER
 10
32.5404044034
 20
37.9291938998
 11
33.4035430558
 21
39.4241938998
  0
LINE
  5
25E
100
AcDbEntity
  8
0
100
AcDbLine
 62
7
  6
BYLAYER
 10
33.4035430558
 20
63.4341938998
 11
32.5404044034
 21
64.9291938998
  0
LINE
  5
25F
100
AcDbEntity
  8
0
100
AcDbLine
 62
7
  6
BYLAYER
 10
23.4035430558
 20
40.1287658465
 11
24.1021851088
 21
40.3803581713
  0
LINE
  5
260
100
AcDbEntity
  8
0
100
AcDbLine
 62
7
  6
BYLAYER
 10
21.2666817083
 20
57.604141268
 11
22.5404044034
 21
57.604141268
  0
LINE
  5
261
100
AcDbEntity
  8
0
100
AcDbLine
 62
7
  6
BYLAYER
 10
31.2666817083
 20
57.604141268
 11
32.5404044034
 21
57.604141268
  0
LINE
  5
262
100
AcDbEntity
  8
0
100
AcDbLine
 62
7
  6
BYLAYER
 10
24.1021851088
 20
62.4780296282
 11
23.4035430558
 21
62.7296219531
  0
LINE
  5
263
100
AcDbEntity
  8
0
100
AcDbLine
 62
7
  6
BYLAYER
 10
45.8066274664
 20
59.6738873516
 11
45.8066274664
 21
43.1845004479
  0
LINE
  5
264
100
AcDbEntity
  8
0
100
AcDbLine
 62
7
  6
BYLAYER
 10
39.0649023167
 20
42.4358378895
 11
39.8135648751
 21
43.1845004479
  0
LINE
  5
265
100
AcDbEntity
  8
0
100
AcDbLine
 62
7
  6
BYLAYER
 10
32.5404044034
 20
58.7383551881
 11
31.2666817083
 21
58.7383551881
  0
LINE
  5
266
100
AcDbEntity
  8
0
100
AcDbLine
 62
7
  6
BYLAYER
 10
22.5404044034
 20
58.7383551881
 11
21.2666817083
 21
58.7383551881
  0
LINE
  5
267
100
AcDbEntity
  8
0
100
AcDbLine
 62
7
  6
BYLAYER
 10
46.1075973392
 20
58.8725550654
 11
45.8066274664
 21
58.8725550654
  0
LINE
  5
268
100
AcDbEntity
  8
0
100
AcDbLine
 62
7
  6
BYLAYER
 10
11.2991631625
 20
59.5234024152
 11
11.0997706218
 21
59.5234024152
  0
LINE
  5
269
100
AcDbEntity
  8
0
100
AcDbLine
 62
7
  6
BYLAYER
 10
47.1045600427
 20
59.6738873516
 11
46.1075973392
 21
59.6738873516
  0
LINE
  5
26A
100
AcDbEntity
  8
0
100
AcDbLine
 62
7
  6
BYLAYER
 10
45.8066274664
 20
59.6738873516
 11
39.8135648751
 21
59.6738873516
  0
LINE
  5
26B
100
AcDbEntity
  8
0
100
AcDbLine
 62
7
  6
BYLAYER
 10
12.296125866
 20
59.722794956
 11
11.2991631625
 21
59.722794956
  0
LINE
  5
26C
100
AcDbEntity
  8
0
100
AcDbLine
 62
7
  6
BYLAYER
 10
11.0997706218
 20
59.722794956
 11
9.1998983
 21
59.722794956
  0
LINE
  5
26D
100
AcDbEntity
  8
0
100
AcDbLine
 62
7
  6
BYLAYER
 10
47.1580428145
 20
59.6597426385
 11
47.1045600427
 21
59.6626009814
  0
LINE
  5
26E
100
AcDbEntity
  8
0
100
AcDbLine
 62
7
  6
BYLAYER
 10
39.8135648751
 20
59.6738873516
 11
39.0649023167
 21
60.4225499101
  0
LINE
  5
26F
100
AcDbEntity
  8
0
100
AcDbLine
 62
7
  6
BYLAYER
 10
46.1075973392
 20
43.1845004479
 11
46.1075973392
 21
59.6738873516
  0
LINE
  5
270
100
AcDbEntity
  8
0
100
AcDbLine
 62
7
  6
BYLAYER
 10
47.1045600427
 20
59.6738873516
 11
47.1045600427
 21
43.1845004479
  0
LINE
  5
271
100
AcDbEntity
  8
0
100
AcDbLine
 62
7
  6
BYLAYER
 10
39.0649023167
 20
60.4225499101
 11
33.4035430558
 21
60.4225499101
  0
LINE
  5
272
100
AcDbEntity
  8
0
100
AcDbLine
 62
7
  6
BYLAYER
 10
29.7049010028
 20
60.4225499101
 11
24.1021851088
 21
60.4225499101
  0
LINE
  5
273
100
AcDbEntity
  8
0
100
AcDbLine
 62
7
  6
BYLAYER
 10
20.4035430558
 20
60.4225499101
 11
12.8980656115
 21
60.4225499101
  0
LINE
  5
274
100
AcDbEntity
  8
0
100
AcDbLine
 62
7
  6
BYLAYER
 10
47.1580428145
 20
59.6597426385
 11
55.6035430558
 21
56.925009227
  0
LINE
  5
275
100
AcDbEntity
  8
0
100
AcDbLine
 62
7
  6
BYLAYER
 10
51.3364714161
 20
43.4219578536
 11
51.3364714161
 21
58.3067276627
  0
LINE
  5
276
100
AcDbEntity
  8
0
100
AcDbLine
 62
7
  6
BYLAYER
 10
21.2666817083
 20
64.9133025563
 11
22.5404044034
 21
64.9133025563
  0
LINE
  5
277
100
AcDbEntity
  8
0
100
AcDbLine
 62
7
  6
BYLAYER
 10
31.2666817083
 20
64.9133025563
 11
32.5404044034
 21
64.9133025563
  0
LINE
  5
278
100
AcDbEntity
  8
0
100
AcDbLine
 62
7
  6
BYLAYER
 10
32.5404044034
 20
64.9291938998
 11
31.2666817083
 21
64.9291938998
  0
LINE
  5
279
100
AcDbEntity
  8
0
100
AcDbLine
 62
7
  6
BYLAYER
 10
21.2666817083
 20
64.9291938998
 11
22.5404044034
 21
64.9291938998
  0
LINE
  5
27A
100
AcDbEntity
  8
0
100
AcDbLine
 62
7
  6
BYLAYER
 10
55.6035430558
 20
56.925009227
 11
55.6035649506
 21
44.1083810632
  0
ARC
  5
27B
100
AcDbEntity
  8
0
100
AcDbCircle
 62
7
  6
BYLAYER
 10
9.1995562888
 20
59.5237444265
 40
0.1990508233
100
AcDbArc
 50
89.9015537403
 51
180.0984462597
  0
ARC
  5
27C
100
AcDbEntity
  8
0
100
AcDbCircle
 62
7
  6
BYLAYER
 10
9.1995562888
 20
43.3346433731
 40
0.1990508233
100
AcDbArc
 50
179.9015537403
 51
270.0984462597
  0
SPLINE
  5
27D
100
AcDbEntity
  8
0
100
AcDbSpline
 62
7
  6
BYLAYER
 70
0
 71
3
 72
11
 73
7
 74
0
 42
0.0000001
 43
0.0000001
 44
0.0000000001
 40
0.0
 40
0.0
 40
0.0
 40
0.0
 40
0.2600148887
 40
0.5122835388
 40
0.7580440966
 40
1.0
 40
1.0
 40
1.0
 40
1.0
 10
31.2666817083
 20
37.9450852433
 30
0.0
 10
31.1356771205
 20
38.1931229143
 30
0.0
 10
30.8964801965
 20
38.692274078
 30
0.0
 10
30.618970188
 20
39.4633704942
 30
0.0
 10
30.4436337237
 20
40.2445764261
 30
0.0
 10
30.4035430558
 20
40.771532985
 30
0.0
 10
30.4035430558
 20
41.0325589273
 30
0.0
  0
SPLINE
  5
27E
100
AcDbEntity
  8
0
100
AcDbSpline
 62
7
  6
BYLAYER
 70
0
 71
3
 72
13
 73
9
 74
0
 42
0.0000001
 43
0.0000001
 44
0.0000000001
 40
0.0
 40
0.0
 40
0.0
 40
0.0
 40
0.1207682708
 40
0.2420450309
 40
0.3642814212
 40
0.4878672634
 40
0.7400558312
 40
1.0
 40
1.0
 40
1.0
 40
1.0
 10
33.4035430558
 20
41.0325589273
 30
0.0
 10
33.4035430558
 20
40.9022323488
 30
0.0
 10
33.3937125234
 20
40.6409253108
 30
0.0
 10
33.3497116692
 20
40.2499464024
 30
0.0
 10
33.27719026
 20
39.8601485893
 30
0.0
 10
33.1433792883
 20
39.3392905286
 30
0.0
 10
32.910680806
 20
38.6922087702
 30
0.0
 10
32.671413383
 20
38.1931312296
 30
0.0
 10
32.5404044034
 20
37.9450852433
 30
0.0
  0
SPLINE
  5
27F
100
AcDbEntity
  8
0
100
AcDbSpline
 62
7
  6
BYLAYER
 70
0
 71
3
 72
13
 73
9
 74
0
 42
0.0000001
 43
0.0000001
 44
0.0000000001
 40
0.0
 40
0.0
 40
0.0
 40
0.0
 40
0.1207682708
 40
0.2420450309
 40
0.3642814212
 40
0.4878672634
 40
0.7400558312
 40
1.0
 40
1.0
 40
1.0
 40
1.0
 10
30.4035430558
 20
61.8258288722
 30
0.0
 10
30.4035430558
 20
61.9561554508
 30
0.0
 10
30.4133735882
 20
62.2174624888
 30
0.0
 10
30.4573744425
 20
62.6084413972
 30
0.0
 10
30.5298958516
 20
62.9982392103
 30
0.0
 10
30.6637068234
 20
63.519097271
 30
0.0
 10
30.8964053057
 20
64.1661790294
 30
0.0
 10
31.1356727286
 20
64.6652565699
 30
0.0
 10
31.2666817083
 20
64.9133025563
 30
0.0
  0
SPLINE
  5
280
100
AcDbEntity
  8
0
100
AcDbSpline
 62
7
  6
BYLAYER
 70
0
 71
3
 72
11
 73
7
 74
0
 42
0.0000001
 43
0.0000001
 44
0.0000000001
 40
0.0
 40
0.0
 40
0.0
 40
0.0
 40
0.2500036864
 40
0.5000032576
 40
0.7500026356
 40
1.0
 40
1.0
 40
1.0
 40
1.0
 10
31.2666817083
 20
45.2542465316
 30
0.0
 10
31.1336612877
 20
45.7579552319
 30
0.0
 10
30.8915775827
 20
46.7719480943
 30
0.0
 10
30.6160236383
 20
48.3113770345
 30
0.0
 10
30.4428680216
 20
49.8658872644
 30
0.0
 10
30.4035430558
 20
50.9082302156
 30
0.0
 10
30.4035430558
 20
51.4291938998
 30
0.0
  0
SPLINE
  5
281
100
AcDbEntity
  8
0
100
AcDbSpline
 62
7
  6
BYLAYER
 70
0
 71
3
 72
11
 73
7
 74
0
 42
0.0000001
 43
0.0000001
 44
0.0000000001
 40
0.0
 40
0.0
 40
0.0
 40
0.0
 40
0.2600148887
 40
0.5122835388
 40
0.7580440966
 40
1.0
 40
1.0
 40
1.0
 40
1.0
 10
32.5404044034
 20
64.9133025563
 30
0.0
 10
32.6714089912
 20
64.6652648852
 30
0.0
 10
32.9106059152
 20
64.1661137216
 30
0.0
 10
33.1881159236
 20
63.3950173054
 30
0.0
 10
33.3634523879
 20
62.6138113734
 30
0.0
 10
33.4035430558
 20
62.0868548145
 30
0.0
 10
33.4035430558
 20
61.8258288722
 30
0.0
  0
SPLINE
  5
282
100
AcDbEntity
  8
0
100
AcDbSpline
 62
7
  6
BYLAYER
 70
0
 71
3
 72
13
 73
9
 74
0
 42
0.0000001
 43
0.0000001
 44
0.0000000001
 40
0.0
 40
0.0
 40
0.0
 40
0.0
 40
0.1207682708
 40
0.2420450309
 40
0.3642814212
 40
0.4878672634
 40
0.7400558312
 40
1.0
 40
1.0
 40
1.0
 40
1.0
 10
30.4035430558
 20
41.0325589273
 30
0.0
 10
30.4035430558
 20
41.1628855059
 30
0.0
 10
30.4133735882
 20
41.4241925439
 30
0.0
 10
30.4573744425
 20
41.8151714523
 30
0.0
 10
30.5298958516
 20
42.2049692654
 30
0.0
 10
30.6637068234
 20
42.7258273261
 30
0.0
 10
30.8964053057
 20
43.3729090845
 30
0.0
 10
31.1356727286
 20
43.8719866251
 30
0.0
 10
31.2666817083
 20
44.1200326114
 30
0.0
  0
SPLINE
  5
283
100
AcDbEntity
  8
0
100
AcDbSpline
 62
7
  6
BYLAYER
 70
0
 71
3
 72
11
 73
7
 74
0
 42
0.0000001
 43
0.0000001
 44
0.0000000001
 40
0.0
 40
0.0
 40
0.0
 40
0.0
 40
0.2499941551
 40
0.4999898041
 40
0.7499912837
 40
1.0
 40
1.0
 40
1.0
 40
1.0
 10
30.4035430558
 20
51.4291938998
 30
0.0
 10
30.4035430558
 20
51.9501509244
 30
0.0
 10
30.4428505503
 20
52.9924819663
 30
0.0
 10
30.6160818217
 20
54.5469705932
 30
0.0
 10
30.8914927329
 20
56.0864322935
 30
0.0
 10
31.1336586042
 20
57.1004224062
 30
0.0
 10
31.2666817083
 20
57.604141268
 30
0.0
  0
SPLINE
  5
284
100
AcDbEntity
  8
0
100
AcDbSpline
 62
7
  6
BYLAYER
 70
0
 71
3
 72
11
 73
7
 74
0
 42
0.0000001
 43
0.0000001
 44
0.0000000001
 40
0.0
 40
0.0
 40
0.0
 40
0.0
 40
0.2600148887
 40
0.5122835388
 40
0.7580440966
 40
1.0
 40
1.0
 40
1.0
 40
1.0
 10
31.2666817083
 20
58.7383551881
 30
0.0
 10
31.1356771205
 20
58.9863928592
 30
0.0
 10
30.8964801965
 20
59.4855440228
 30
0.0
 10
30.618970188
 20
60.2566404391
 30
0.0
 10
30.4436337237
 20
61.037846371
 30
0.0
 10
30.4035430558
 20
61.5648029299
 30
0.0
 10
30.4035430558
 20
61.8258288722
 30
0.0
  0
SPLINE
  5
285
100
AcDbEntity
  8
0
100
AcDbSpline
 62
7
  6
BYLAYER
 70
0
 71
3
 72
13
 73
9
 74
0
 42
0.0000001
 43
0.0000001
 44
0.0000000001
 40
0.0
 40
0.0
 40
0.0
 40
0.0
 40
0.1207682708
 40
0.2420450309
 40
0.3642814212
 40
0.4878672634
 40
0.7400558312
 40
1.0
 40
1.0
 40
1.0
 40
1.0
 10
33.4035430558
 20
61.8258288722
 30
0.0
 10
33.4035430558
 20
61.6955022936
 30
0.0
 10
33.3937125234
 20
61.4341952556
 30
0.0
 10
33.3497116692
 20
61.0432163472
 30
0.0
 10
33.27719026
 20
60.6534185342
 30
0.0
 10
33.1433792883
 20
60.1325604734
 30
0.0
 10
32.910680806
 20
59.4854787151
 30
0.0
 10
32.671413383
 20
58.9864011745
 30
0.0
 10
32.5404044034
 20
58.7383551881
 30
0.0
  0
SPLINE
  5
286
100
AcDbEntity
  8
0
100
AcDbSpline
 62
7
  6
BYLAYER
 70
0
 71
3
 72
11
 73
7
 74
0
 42
0.0000001
 43
0.0000001
 44
0.0000000001
 40
0.0
 40
0.0
 40
0.0
 40
0.0
 40
0.2500036864
 40
0.5000032576
 40
0.7500026356
 40
1.0
 40
1.0
 40
1.0
 40
1.0
 10
32.5404044034
 20
57.604141268
 30
0.0
 10
32.673424824
 20
57.1004325677
 30
0.0
 10
32.915508529
 20
56.0864397053
 30
0.0
 10
33.1910624734
 20
54.547010765
 30
0.0
 10
33.3642180901
 20
52.9925005351
 30
0.0
 10
33.4035430558
 20
51.9501575839
 30
0.0
 10
33.4035430558
 20
51.4291938998
 30
0.0
  0
SPLINE
  5
287
100
AcDbEntity
  8
0
100
AcDbSpline
 62
7
  6
BYLAYER
 70
0
 71
3
 72
11
 73
7
 74
0
 42
0.0000001
 43
0.0000001
 44
0.0000000001
 40
0.0
 40
0.0
 40
0.0
 40
0.0
 40
0.2499941551
 40
0.4999898041
 40
0.7499912837
 40
1.0
 40
1.0
 40
1.0
 40
1.0
 10
33.4035430558
 20
51.4291938998
 30
0.0
 10
33.4035430558
 20
50.9082368752
 30
0.0
 10
33.3642355613
 20
49.8659058333
 30
0.0
 10
33.1910042899
 20
48.3114172064
 30
0.0
 10
32.9155933788
 20
46.771955506
 30
0.0
 10
32.6734275075
 20
45.7579653934
 30
0.0
 10
32.5404044034
 20
45.2542465316
 30
0.0
  0
SPLINE
  5
288
100
AcDbEntity
  8
0
100
AcDbSpline
 62
7
  6
BYLAYER
 70
0
 71
3
 72
11
 73
7
 74
0
 42
0.0000001
 43
0.0000001
 44
0.0000000001
 40
0.0
 40
0.0
 40
0.0
 40
0.0
 40
0.2600148887
 40
0.5122835388
 40
0.7580440966
 40
1.0
 40
1.0
 40
1.0
 40
1.0
 10
32.5404044034
 20
44.1200326114
 30
0.0
 10
32.6714089912
 20
43.8719949404
 30
0.0
 10
32.9106059152
 20
43.3728437767
 30
0.0
 10
33.1881159236
 20
42.6017473605
 30
0.0
 10
33.3634523879
 20
41.8205414286
 30
0.0
 10
33.4035430558
 20
41.2935848697
 30
0.0
 10
33.4035430558
 20
41.0325589273
 30
0.0
  0
SPLINE
  5
289
100
AcDbEntity
  8
0
100
AcDbSpline
 62
7
  6
BYLAYER
 70
0
 71
3
 72
11
 73
7
 74
0
 42
0.0000001
 43
0.0000001
 44
0.0000000001
 40
0.0
 40
0.0
 40
0.0
 40
0.0
 40
0.2499941551
 40
0.4999898041
 40
0.7499912837
 40
1.0
 40
1.0
 40
1.0
 40
1.0
 10
23.4035430558
 20
51.4291938998
 30
0.0
 10
23.4035430558
 20
50.9082368752
 30
0.0
 10
23.3642355613
 20
49.8659058333
 30
0.0
 10
23.1910042899
 20
48.3114172064
 30
0.0
 10
22.9155933788
 20
46.771955506
 30
0.0
 10
22.6734275075
 20
45.7579653934
 30
0.0
 10
22.5404044034
 20
45.2542465316
 30
0.0
  0
SPLINE
  5
28A
100
AcDbEntity
  8
0
100
AcDbSpline
 62
7
  6
BYLAYER
 70
0
 71
3
 72
11
 73
7
 74
0
 42
0.0000001
 43
0.0000001
 44
0.0000000001
 40
0.0
 40
0.0
 40
0.0
 40
0.0
 40
0.2600148887
 40
0.5122835388
 40
0.7580440966
 40
1.0
 40
1.0
 40
1.0
 40
1.0
 10
22.5404044034
 20
44.1200326114
 30
0.0
 10
22.6714089912
 20
43.8719949404
 30
0.0
 10
22.9106059152
 20
43.3728437767
 30
0.0
 10
23.1881159236
 20
42.6017473605
 30
0.0
 10
23.3634523879
 20
41.8205414286
 30
0.0
 10
23.4035430558
 20
41.2935848697
 30
0.0
 10
23.4035430558
 20
41.0325589273
 30
0.0
  0
SPLINE
  5
28B
100
AcDbEntity
  8
0
100
AcDbSpline
 62
7
  6
BYLAYER
 70
0
 71
3
 72
13
 73
9
 74
0
 42
0.0000001
 43
0.0000001
 44
0.0000000001
 40
0.0
 40
0.0
 40
0.0
 40
0.0
 40
0.1207682708
 40
0.2420450309
 40
0.3642814212
 40
0.4878672634
 40
0.7400558312
 40
1.0
 40
1.0
 40
1.0
 40
1.0
 10
23.4035430558
 20
61.8258288722
 30
0.0
 10
23.4035430558
 20
61.6955022936
 30
0.0
 10
23.3937125234
 20
61.4341952556
 30
0.0
 10
23.3497116692
 20
61.0432163472
 30
0.0
 10
23.27719026
 20
60.6534185342
 30
0.0
 10
23.1433792883
 20
60.1325604734
 30
0.0
 10
22.910680806
 20
59.4854787151
 30
0.0
 10
22.671413383
 20
58.9864011745
 30
0.0
 10
22.5404044034
 20
58.7383551881
 30
0.0
  0
SPLINE
  5
28C
100
AcDbEntity
  8
0
100
AcDbSpline
 62
7
  6
BYLAYER
 70
0
 71
3
 72
11
 73
7
 74
0
 42
0.0000001
 43
0.0000001
 44
0.0000000001
 40
0.0
 40
0.0
 40
0.0
 40
0.0
 40
0.2500036864
 40
0.5000032576
 40
0.7500026356
 40
1.0
 40
1.0
 40
1.0
 40
1.0
 10
22.5404044034
 20
57.604141268
 30
0.0
 10
22.673424824
 20
57.1004325677
 30
0.0
 10
22.915508529
 20
56.0864397053
 30
0.0
 10
23.1910624734
 20
54.547010765
 30
0.0
 10
23.3642180901
 20
52.9925005351
 30
0.0
 10
23.4035430558
 20
51.9501575839
 30
0.0
 10
23.4035430558
 20
51.4291938998
 30
0.0
  0
SPLINE
  5
28D
100
AcDbEntity
  8
0
100
AcDbSpline
 62
7
  6
BYLAYER
 70
0
 71
3
 72
11
 73
7
 74
0
 42
0.0000001
 43
0.0000001
 44
0.0000000001
 40
0.0
 40
0.0
 40
0.0
 40
0.0
 40
0.2600148887
 40
0.5122835388
 40
0.7580440966
 40
1.0
 40
1.0
 40
1.0
 40
1.0
 10
21.2666817083
 20
58.7383551881
 30
0.0
 10
21.1356771205
 20
58.9863928592
 30
0.0
 10
20.8964801965
 20
59.4855440228
 30
0.0
 10
20.618970188
 20
60.2566404391
 30
0.0
 10
20.4436337237
 20
61.037846371
 30
0.0
 10
20.4035430558
 20
61.5648029299
 30
0.0
 10
20.4035430558
 20
61.8258288722
 30
0.0
  0
SPLINE
  5
28E
100
AcDbEntity
  8
0
100
AcDbSpline
 62
7
  6
BYLAYER
 70
0
 71
3
 72
11
 73
7
 74
0
 42
0.0000001
 43
0.0000001
 44
0.0000000001
 40
0.0
 40
0.0
 40
0.0
 40
0.0
 40
0.2499941551
 40
0.4999898041
 40
0.7499912837
 40
1.0
 40
1.0
 40
1.0
 40
1.0
 10
20.4035430558
 20
51.4291938998
 30
0.0
 10
20.4035430558
 20
51.9501509244
 30
0.0
 10
20.4428505503
 20
52.9924819663
 30
0.0
 10
20.6160818217
 20
54.5469705932
 30
0.0
 10
20.8914927329
 20
56.0864322935
 30
0.0
 10
21.1336586042
 20
57.1004224062
 30
0.0
 10
21.2666817083
 20
57.604141268
 30
0.0
  0
SPLINE
  5
28F
100
AcDbEntity
  8
0
100
AcDbSpline
 62
7
  6
BYLAYER
 70
0
 71
3
 72
13
 73
9
 74
0
 42
0.0000001
 43
0.0000001
 44
0.0000000001
 40
0.0
 40
0.0
 40
0.0
 40
0.0
 40
0.1207682708
 40
0.2420450309
 40
0.3642814212
 40
0.4878672634
 40
0.7400558312
 40
1.0
 40
1.0
 40
1.0
 40
1.0
 10
20.4035430558
 20
61.8258288722
 30
0.0
 10
20.4035430558
 20
61.9561554508
 30
0.0
 10
20.4133735882
 20
62.2174624888
 30
0.0
 10
20.4573744425
 20
62.6084413972
 30
0.0
 10
20.5298958516
 20
62.9982392103
 30
0.0
 10
20.6637068234
 20
63.519097271
 30
0.0
 10
20.8964053057
 20
64.1661790294
 30
0.0
 10
21.1356727286
 20
64.6652565699
 30
0.0
 10
21.2666817083
 20
64.9133025563
 30
0.0
  0
SPLINE
  5
290
100
AcDbEntity
  8
0
100
AcDbSpline
 62
7
  6
BYLAYER
 70
0
 71
3
 72
11
 73
7
 74
0
 42
0.0000001
 43
0.0000001
 44
0.0000000001
 40
0.0
 40
0.0
 40
0.0
 40
0.0
 40
0.2600148887
 40
0.5122835388
 40
0.7580440966
 40
1.0
 40
1.0
 40
1.0
 40
1.0
 10
22.5404044034
 20
64.9133025563
 30
0.0
 10
22.6714089912
 20
64.6652648852
 30
0.0
 10
22.9106059152
 20
64.1661137216
 30
0.0
 10
23.1881159236
 20
63.3950173054
 30
0.0
 10
23.3634523879
 20
62.6138113734
 30
0.0
 10
23.4035430558
 20
62.0868548145
 30
0.0
 10
23.4035430558
 20
61.8258288722
 30
0.0
  0
SPLINE
  5
291
100
AcDbEntity
  8
0
100
AcDbSpline
 62
7
  6
BYLAYER
 70
0
 71
3
 72
13
 73
9
 74
0
 42
0.0000001
 43
0.0000001
 44
0.0000000001
 40
0.0
 40
0.0
 40
0.0
 40
0.0
 40
0.1207682708
 40
0.2420450309
 40
0.3642814212
 40
0.4878672634
 40
0.7400558312
 40
1.0
 40
1.0
 40
1.0
 40
1.0
 10
20.4035430558
 20
41.0325589273
 30
0.0
 10
20.4035430558
 20
41.1628855059
 30
0.0
 10
20.4133735882
 20
41.4241925439
 30
0.0
 10
20.4573744425
 20
41.8151714523
 30
0.0
 10
20.5298958516
 20
42.2049692654
 30
0.0
 10
20.6637068234
 20
42.7258273261
 30
0.0
 10
20.8964053057
 20
43.3729090845
 30
0.0
 10
21.1356727286
 20
43.8719866251
 30
0.0
 10
21.2666817083
 20
44.1200326114
 30
0.0
  0
SPLINE
  5
292
100
AcDbEntity
  8
0
100
AcDbSpline
 62
7
  6
BYLAYER
 70
0
 71
3
 72
11
 73
7
 74
0
 42
0.0000001
 43
0.0000001
 44
0.0000000001
 40
0.0
 40
0.0
 40
0.0
 40
0.0
 40
0.2500036864
 40
0.5000032576
 40
0.7500026356
 40
1.0
 40
1.0
 40
1.0
 40
1.0
 10
21.2666817083
 20
45.2542465316
 30
0.0
 10
21.1336612877
 20
45.7579552319
 30
0.0
 10
20.8915775827
 20
46.7719480943
 30
0.0
 10
20.6160236383
 20
48.3113770345
 30
0.0
 10
20.4428680216
 20
49.8658872644
 30
0.0
 10
20.4035430558
 20
50.9082302156
 30
0.0
 10
20.4035430558
 20
51.4291938998
 30
0.0
  0
SPLINE
  5
293
100
AcDbEntity
  8
0
100
AcDbSpline
 62
7
  6
BYLAYER
 70
0
 71
3
 72
13
 73
9
 74
0
 42
0.0000001
 43
0.0000001
 44
0.0000000001
 40
0.0
 40
0.0
 40
0.0
 40
0.0
 40
0.1207682708
 40
0.2420450309
 40
0.3642814212
 40
0.4878672634
 40
0.7400558312
 40
1.0
 40
1.0
 40
1.0
 40
1.0
 10
23.4035430558
 20
41.0325589273
 30
0.0
 10
23.4035430558
 20
40.9022323488
 30
0.0
 10
23.3937125234
 20
40.6409253108
 30
0.0
 10
23.3497116692
 20
40.2499464024
 30
0.0
 10
23.27719026
 20
39.8601485893
 30
0.0
 10
23.1433792883
 20
39.3392905286
 30
0.0
 10
22.910680806
 20
38.6922087702
 30
0.0
 10
22.671413383
 20
38.1931312296
 30
0.0
 10
22.5404044034
 20
37.9450852433
 30
0.0
  0
SPLINE
  5
294
100
AcDbEntity
  8
0
100
AcDbSpline
 62
7
  6
BYLAYER
 70
0
 71
3
 72
11
 73
7
 74
0
 42
0.0000001
 43
0.0000001
 44
0.0000000001
 40
0.0
 40
0.0
 40
0.0
 40
0.0
 40
0.2600148887
 40
0.5122835388
 40
0.7580440966
 40
1.0
 40
1.0
 40
1.0
 40
1.0
 10
21.2666817083
 20
37.9450852433
 30
0.0
 10
21.1356771205
 20
38.1931229143
 30
0.0
 10
20.8964801965
 20
38.692274078
 30
0.0
 10
20.618970188
 20
39.4633704942
 30
0.0
 10
20.4436337237
 20
40.2445764261
 30
0.0
 10
20.4035430558
 20
40.771532985
 30
0.0
 10
20.4035430558
 20
41.0325589273
 30
0.0
  0
SPLINE
  5
295
100
AcDbEntity
  8
0
100
AcDbSpline
 62
7
  6
BYLAYER
 70
0
 71
3
 72
13
 73
9
 74
0
 42
0.0000001
 43
0.0000001
 44
0.0000000001
 40
0.0
 40
0.0
 40
0.0
 40
0.0
 40
0.1952796183
 40
0.4159515159
 40
0.5408147256
 40
0.6780163361
 40
0.8305426224
 40
1.0
 40
1.0
 40
1.0
 40
1.0
 10
65.5392449574
 20
44.6992112981
 30
0.0
 10
65.5947335733
 20
44.6992130451
 30
0.0
 10
65.7138520639
 20
44.7288365478
 30
0.0
 10
65.8378771421
 20
44.8265442508
 30
0.0
 10
65.9180035369
 20
44.9387273616
 30
0.0
 10
65.9667342506
 20
45.0468642397
 30
0.0
 10
65.9971045104
 20
45.1744273907
 30
0.0
 10
66.0035430558
 20
45.2661184215
 30
0.0
 10
66.0035430558
 20
45.3142696593
 30
0.0
  0
SPLINE
  5
296
100
AcDbEntity
  8
0
100
AcDbSpline
 62
7
  6
BYLAYER
 70
0
 71
3
 72
13
 73
9
 74
0
 42
0.0000001
 43
0.0000001
 44
0.0000000001
 40
0.0
 40
0.0
 40
0.0
 40
0.0
 40
0.1952796183
 40
0.4159515159
 40
0.5408147256
 40
0.6780163361
 40
0.8305426224
 40
1.0
 40
1.0
 40
1.0
 40
1.0
 10
65.5392449574
 20
48.8991765015
 30
0.0
 10
65.5947335733
 20
48.8991747544
 30
0.0
 10
65.7138520639
 20
48.8695512518
 30
0.0
 10
65.8378771421
 20
48.7718435488
 30
0.0
 10
65.9180035369
 20
48.659660438
 30
0.0
 10
65.9667342506
 20
48.5515235599
 30
0.0
 10
65.9971045104
 20
48.4239604089
 30
0.0
 10
66.0035430558
 20
48.3322693781
 30
0.0
 10
66.0035430558
 20
48.2841181403
 30
0.0
  0
SPLINE
  5
297
100
AcDbEntity
  8
0
100
AcDbSpline
 62
7
  6
BYLAYER
 70
0
 71
3
 72
13
 73
9
 74
0
 42
0.0000001
 43
0.0000001
 44
0.0000000001
 40
0.0
 40
0.0
 40
0.0
 40
0.0
 40
0.1023820143
 40
0.2142580596
 40
0.3341222322
 40
0.4603588268
 40
0.7258054395
 40
1.0
 40
1.0
 40
1.0
 40
1.0
 10
66.0035430558
 20
45.3142696593
 30
0.0
 10
66.0035430558
 20
45.3676514768
 30
0.0
 10
65.9950733606
 20
45.4794089026
 30
0.0
 10
65.9631245468
 20
45.6508952752
 30
0.0
 10
65.9138065917
 20
45.8310730242
 30
0.0
 10
65.8290193148
 20
46.0840510229
 30
0.0
 10
65.7005927628
 20
46.4067692025
 30
0.0
 10
65.5926657065
 20
46.6665832404
 30
0.0
 10
65.5392495048
 20
46.7991938998
 30
0.0
  0
SPLINE
  5
298
100
AcDbEntity
  8
0
100
AcDbSpline
 62
7
  6
BYLAYER
 70
0
 71
3
 72
13
 73
9
 74
0
 42
0.0000001
 43
0.0000001
 44
0.0000000001
 40
0.0
 40
0.0
 40
0.0
 40
0.0
 40
0.1023820143
 40
0.2142580596
 40
0.3341222322
 40
0.4603588268
 40
0.7258054395
 40
1.0
 40
1.0
 40
1.0
 40
1.0
 10
66.0035430558
 20
48.2841181403
 30
0.0
 10
66.0035430558
 20
48.2307363228
 30
0.0
 10
65.9950733606
 20
48.118978897
 30
0.0
 10
65.9631245468
 20
47.9474925243
 30
0.0
 10
65.9138065917
 20
47.7673147754
 30
0.0
 10
65.8290193148
 20
47.5143367767
 30
0.0
 10
65.7005927628
 20
47.1916185971
 30
0.0
 10
65.5926657065
 20
46.9318045592
 30
0.0
 10
65.5392495048
 20
46.7991938998
 30
0.0
  0
SPLINE
  5
299
100
AcDbEntity
  8
0
100
AcDbSpline
 62
7
  6
BYLAYER
 70
0
 71
3
 72
13
 73
9
 74
0
 42
0.0000001
 43
0.0000001
 44
0.0000000001
 40
0.0
 40
0.0
 40
0.0
 40
0.0
 40
0.2747220999
 40
0.5402947403
 40
0.6662985815
 40
0.7858553656
 40
0.8975347453
 40
1.0
 40
1.0
 40
1.0
 40
1.0
 10
65.5392495048
 20
46.7991938998
 30
0.0
 10
65.4864039748
 20
46.6679999855
 30
0.0
 10
65.3852152574
 20
46.4088506149
 30
0.0
 10
65.2771945644
 20
46.0829159611
 30
0.0
 10
65.2111237577
 20
45.8280933114
 30
0.0
 10
65.1745754963
 20
45.6477224171
 30
0.0
 10
65.1517789252
 20
45.4773017783
 30
0.0
 10
65.1459715844
 20
45.3670226156
 30
0.0
 10
65.1459715844
 20
45.3142696593
 30
0.0
  0
SPLINE
  5
29A
100
AcDbEntity
  8
0
100
AcDbSpline
 62
7
  6
BYLAYER
 70
0
 71
3
 72
15
 73
11
 74
0
 42
0.0000001
 43
0.0000001
 44
0.0000000001
 40
0.0
 40
0.0
 40
0.0
 40
0.0
 40
0.1757046507
 40
0.3326408453
 40
0.4712594801
 40
0.5939545729
 40
0.7040656084
 40
0.8056932989
 40
0.9030861021
 40
1.0
 40
1.0
 40
1.0
 40
1.0
 10
65.1459715844
 20
45.3142696593
 30
0.0
 10
65.1459715844
 20
45.2666400036
 30
0.0
 10
65.1503103519
 20
45.1763665593
 30
0.0
 10
65.1717142572
 20
45.0500443942
 30
0.0
 10
65.2073692954
 20
44.9418789344
 30
0.0
 10
65.255757629
 20
44.8528528594
 30
0.0
 10
65.315425845
 20
44.7835584003
 30
0.0
 10
65.3843921772
 20
44.7344362946
 30
0.0
 10
65.4600550448
 20
44.705404332
 30
0.0
 10
65.5129737371
 20
44.699210471
 30
0.0
 10
65.5392449574
 20
44.6992112981
 30
0.0
  0
ENDSEC
  0
SECTION
  2
OBJECTS
  0
DICTIONARY
  5
C
100
AcDbDictionary
280
0
281
1
  3
ACAD_GROUP
350
D
  3
ACAD_MLINESTYLE
350
17
  3
ACAD_LAYOUT
350
1A
  3
ACAD_PLOTSETTINGS
350
19
  3
ACAD_PLOTSTYLENAME
350
E
  0
DICTIONARY
  5
D
102
{ACAD_REACTORS
330
C
102
}
100
AcDbDictionary
280
0
281
1
  0
ACDBDICTIONARYWDFLT
  5
E
102
{ACAD_REACTORS
330
C
102
}
100
AcDbDictionary
281
1
  3
Normal
350
F
100
AcDbDictionaryWithDefault
340
F
  0
DICTIONARY
  5
17
102
{ACAD_REACTORS
330
C
102
}
100
AcDbDictionary
280
0
281
1
  3
Standard
350
18
  0
DICTIONARY
  5
19
102
{ACAD_REACTORS
330
C
102
}
100
AcDbDictionary
281
1
  0
DICTIONARY
  5
1A
102
{ACAD_REACTORS
330
C
102
}
100
AcDbDictionary
281
1
  3
Model
350
29B
  3
Layout1
350
29C
  0
ACDBPLACEHOLDER
  5
F
102
{ACAD_REACTORS
330
E
102
}
  0
MLINESTYLE
  5
18
102
{ACAD_REACTORS
330
17
102
}
100
AcDbMlineStyle
  2
STANDARD
 70
0
  3

 62
256
 51
90.0
 52
90.0
 71
2
 49
0.5
 62
256
  6
BYLAYER
 49
-0.5
 62
256
  6
BYLAYER
  0
LAYOUT
  5
29B
102
{ACAD_REACTORS
330
1A
102
}
100
AcDbPlotSettings
  1

  2
none_device
  4

  6

 40
0.0
 41
0.0
 42
0.0
 43
0.0
 44
210.0
 45
297.0
 46
0.0
 47
0.0
 48
0.0
 49
0.0
140
0.0
141
0.0
142
1.0
143
1.0
 70
1024
 72
1
 73
0
 74
0
  7

 75
0
147
1.0
148
0.0
149
0.0
100
AcDbLayout
  1
Model
 70
0
 71
0
 10
0.0
 20
0.0
 11
210.0
 21
297.0
 12
0.0
 22
0.0
 32
0.0
 14
0.0
 24
0.0
 34
0.0
 15
0.0
 25
0.0
 35
0.0
146
0.0
 13
0.0
 23
0.0
 33
0.0
 16
1.0
 26
0.0
 36
0.0
 17
0.0
 27
1.0
 37
0.0
 76
0
330
210
345
0
346
0
  0
LAYOUT
  5
29C
102
{ACAD_REACTORS
330
1A
102
}
100
AcDbPlotSettings
  1

  2
none_device
  4

  6

 40
0.0
 41
0.0
 42
0.0
 43
0.0
 44
210.0
 45
297.0
 46
0.0
 47
0.0
 48
0.0
 49
0.0
140
0.0
141
0.0
142
1.0
143
1.0
 70
0
 72
1
 73
0
 74
0
  7

 75
0
147
1.0
148
0.0
149
0.0
100
AcDbLayout
  1
Layout1
 70
0
 71
1
 10
0.0
 20
0.0
 11
210.0
 21
297.0
 12
0.0
 22
0.0
 32
0.0
 14
0.0
 24
0.0
 34
0.0
 15
0.0
 25
0.0
 35
0.0
146
0.0
 13
0.0
 23
0.0
 33
0.0
 16
1.0
 26
0.0
 36
0.0
 17
0.0
 27
1.0
 37
0.0
 76
0
330
211
345
0
346
0
  0
ENDSEC
  0
EOF
