999
DXF file: C:\Users\sesa63760\Dev\_Creo\CAD\MCADID0003506_3D-CAD\drw0001_6.dxf
999
Pro/ENGINEER 2019471 by Parametric Technology Corporation
  0
SECTION
  2
HEADER
  9
$ACADVER
  1
AC1024
  9
$DWGCODEPAGE
  3
ANSI_1252
  9
$EXTMAX
 10
142.8098284902
 20
201.9739002933
 30
0.0
  9
$EXTMIN
 10
0.0
 20
0.0
 30
0.0
  9
$LIMMIN
 10
0.0
 20
0.0
  9
$LIMMAX
 10
142.8098284902
 20
201.9739002933
  9
$VIEWCTR
 10
71.4049142451
 20
100.9869501466
  9
$VIEWSIZE
 40
201.9739002933
  9
$CLAYER
  8
0
  9
$LTSCALE
 40
13.1657060932
  9
$CELTYPE
  6
BYLAYER
  9
$DIMSCALE
 40
1.0
  9
$DIMASZ
 40
1.7001170058
  9
$DIMEXO
 40
1.0
  9
$DIMDLI
 40
9.096306028
  9
$DIMEXE
 40
1.0
  9
$DIMCEN
 40
2.1543882698
  9
$DIMLFAC
 40
1.0
  9
$DIMBLK
  1
_FILLED
  9
$DIMALT
 70
0
  9
$DIMALTF
 40
0.0393700787
  9
$DIMTXT
 40
2.3801638082
  9
$DIMTOL
 70
1
  9
$DIMLIM
 70
0
  9
$DIMTFAC
 40
1.0
  9
$DIMTP
 40
0.01
  9
$DIMTM
 40
0.01
  9
$DIMGAP
 40
0.625
  9
$DIMDSEP
 70
46
  9
$AUNITS
 70
0
  9
$PDMODE
 70
3
  9
$PDSIZE
 40
0.3125
  9
$HANDSEED
  5
35E
  9
$TILEMODE
 70
1
  9
$MEASUREMENT
 70
1
  9
$INSUNITS
 70
4
  0
ENDSEC
  0
SECTION
  2
CLASSES
  0
CLASS
  1
ACDBDICTIONARYWDFLT
  2
AcDbDictionaryWithDefault
  3
AutoCAD 2000
 90
0
 91
1
280
0
281
0
  0
CLASS
  1
ACDBPLACEHOLDER
  2
AcDbPlaceHolder
  3
AutoCAD 2000
 90
0
 91
1
280
0
281
0
  0
CLASS
  1
LAYOUT
  2
AcDbLayout
  3
AutoCAD 2000
 90
0
 91
0
280
0
281
0
  0
ENDSEC
  0
SECTION
  2
TABLES
  0
TABLE
  2
VPORT
  5
8
100
AcDbSymbolTable
 70
2
  0
VPORT
  5
1F4
100
AcDbSymbolTableRecord
100
AcDbViewportTableRecord
  2
*ACTIVE
 70
0
 10
0.0
 20
0.0
 11
1.0
 21
1.0
 12
71.4049142451
 22
100.9869501466
 13
0.0
 23
0.0
 14
1.0
 24
1.0
 15
0.0
 25
0.0
 16
0.0
 26
0.0
 36
1.0
 17
0.0
 27
0.0
 37
0.0
 40
201.9739002933
 41
0.7070707071
 42
50.0
 43
0.0
 44
0.0
 50
0.0
 51
0.0
 71
0
 72
100
 73
1
 74
1
 75
0
 76
0
 77
0
 78
0
  0
ENDTAB
  0
TABLE
  2
LTYPE
  5
5
100
AcDbSymbolTable
 70
6
  0
LTYPE
  5
14
100
AcDbSymbolTableRecord
100
AcDbLinetypeTableRecord
  2
BYBLOCK
 70
0
  3

 72
65
 73
0
 40
0.0
  0
LTYPE
  5
15
100
AcDbSymbolTableRecord
100
AcDbLinetypeTableRecord
  2
BYLAYER
 70
0
  3

 72
65
 73
0
 40
0.0
  0
LTYPE
  5
16
100
AcDbSymbolTableRecord
100
AcDbLinetypeTableRecord
  2
CONTINUOUS
 70
64
  3
Solid line
 72
65
 73
0
 40
0.0
  0
LTYPE
  5
1F5
100
AcDbSymbolTableRecord
100
AcDbLinetypeTableRecord
  2
CENTER
 70
64
  3
____ _ ____ _ ____ _ ____ _ ____ _ ____ _ ____
 72
65
 73
4
 40
0.6
 49
0.375
 74
0
 49
-0.075
 74
0
 49
0.075
 74
0
 49
-0.075
 74
0
  0
LTYPE
  5
1F6
100
AcDbSymbolTableRecord
100
AcDbLinetypeTableRecord
  2
HIDDEN
 70
64
  3
- - - - - - - - - - - - - - - - - - - -
 72
65
 73
2
 40
0.2
 49
0.1
 74
0
 49
-0.1
 74
0
  0
LTYPE
  5
1F7
100
AcDbSymbolTableRecord
100
AcDbLinetypeTableRecord
  2
PHANTOM
 70
64
  3
_____ _ _ _____ _ _ _____ _ _ _____
 72
65
 73
6
 40
0.8
 49
0.45
 74
0
 49
-0.05
 74
0
 49
0.1
 74
0
 49
-0.05
 74
0
 49
0.1
 74
0
 49
-0.05
 74
0
  0
LTYPE
  5
1F8
100
AcDbSymbolTableRecord
100
AcDbLinetypeTableRecord
  2
DOT
 70
64
  3
. . . . . . . . . . . . . . . . . . . .
 72
65
 73
2
 40
0.2
 49
0.1
 74
0
 49
-0.1
 74
0
  0
LTYPE
  5
1F9
100
AcDbSymbolTableRecord
100
AcDbLinetypeTableRecord
  2
DASHED
 70
64
  3
- - - - - - - - - - - - - - - - - - - -
 72
65
 73
2
 40
0.2
 49
0.1
 74
0
 49
-0.1
 74
0
  0
ENDTAB
  0
TABLE
  2
LAYER
  5
2
100
AcDbSymbolTable
 70
36
  0
LAYER
  5
10
100
AcDbSymbolTableRecord
100
AcDbLayerTableRecord
  2
0
 70
0
 62
7
  6
CONTINUOUS
370
-3
390
F
  0
LAYER
  5
1FA
100
AcDbSymbolTableRecord
100
AcDbLayerTableRecord
  2
DEFAULT_1
 70
0
 62
7
  6
CENTER
370
-3
390
F
  0
LAYER
  5
1FB
100
AcDbSymbolTableRecord
100
AcDbLayerTableRecord
  2
DEFAULT_2
 70
0
 62
7
  6
HIDDEN
370
-3
390
F
  0
LAYER
  5
1FC
100
AcDbSymbolTableRecord
100
AcDbLayerTableRecord
  2
DEFAULT_3
 70
0
 62
7
  6
PHANTOM
370
-3
390
F
  0
LAYER
  5
1FD
100
AcDbSymbolTableRecord
100
AcDbLayerTableRecord
  2
00_COMPONENTS
 70
0
 62
7
  6
CONTINUOUS
370
-3
390
F
  0
LAYER
  5
1FE
100
AcDbSymbolTableRecord
100
AcDbLayerTableRecord
  2
01_1_DEFAULT_DATUMS
 70
0
 62
7
  6
CONTINUOUS
370
-3
390
F
  0
LAYER
  5
1FF
100
AcDbSymbolTableRecord
100
AcDbLayerTableRecord
  2
01_PLANES
 70
0
 62
7
  6
CONTINUOUS
370
-3
390
F
  0
LAYER
  5
200
100
AcDbSymbolTableRecord
100
AcDbLayerTableRecord
  2
02_COORD_SYS
 70
0
 62
7
  6
CONTINUOUS
370
-3
390
F
  0
LAYER
  5
201
100
AcDbSymbolTableRecord
100
AcDbLayerTableRecord
  2
03_AXES
 70
0
 62
7
  6
CONTINUOUS
370
-3
390
F
  0
LAYER
  5
202
100
AcDbSymbolTableRecord
100
AcDbLayerTableRecord
  2
04_POINTS
 70
0
 62
7
  6
CONTINUOUS
370
-3
390
F
  0
LAYER
  5
203
100
AcDbSymbolTableRecord
100
AcDbLayerTableRecord
  2
05_CURVES
 70
0
 62
7
  6
CONTINUOUS
370
-3
390
F
  0
LAYER
  5
204
100
AcDbSymbolTableRecord
100
AcDbLayerTableRecord
  2
06_SURFS
 70
0
 62
7
  6
CONTINUOUS
370
-3
390
F
  0
LAYER
  5
205
100
AcDbSymbolTableRecord
100
AcDbLayerTableRecord
  2
07_COSMETICS
 70
0
 62
7
  6
CONTINUOUS
370
-3
390
F
  0
LAYER
  5
206
100
AcDbSymbolTableRecord
100
AcDbLayerTableRecord
  2
10_NOTES
 70
0
 62
7
  6
CONTINUOUS
370
-3
390
F
  0
LAYER
  5
207
100
AcDbSymbolTableRecord
100
AcDbLayerTableRecord
  2
11_NOTES_PUB
 70
0
 62
7
  6
CONTINUOUS
370
-3
390
F
  0
LAYER
  5
208
100
AcDbSymbolTableRecord
100
AcDbLayerTableRecord
  2
13_REF_GTOL
 70
0
 62
7
  6
CONTINUOUS
370
-3
390
F
  0
LAYER
  5
209
100
AcDbSymbolTableRecord
100
AcDbLayerTableRecord
  2
16_MISC
 70
0
 62
7
  6
CONTINUOUS
370
-3
390
F
  0
LAYER
  5
20A
100
AcDbSymbolTableRecord
100
AcDbLayerTableRecord
  2
17_NO_PRINT
 70
0
 62
7
  6
CONTINUOUS
370
-3
390
F
  0
LAYER
  5
20B
100
AcDbSymbolTableRecord
100
AcDbLayerTableRecord
  2
18_DATUM_CAMS_JOINTS
 70
0
 62
7
  6
CONTINUOUS
370
-3
390
F
  0
LAYER
  5
20C
100
AcDbSymbolTableRecord
100
AcDbLayerTableRecord
  2
19_DATUM_FUNCTIONAL
 70
0
 62
7
  6
CONTINUOUS
370
-3
390
F
  0
LAYER
  5
20D
100
AcDbSymbolTableRecord
100
AcDbLayerTableRecord
  2
20_DATUM_KINEMATIC_SCHEME
 70
0
 62
7
  6
CONTINUOUS
370
-3
390
F
  0
ENDTAB
  0
TABLE
  2
STYLE
  5
3
100
AcDbSymbolTable
 70
1
  0
STYLE
  5
11
100
AcDbSymbolTableRecord
100
AcDbTextStyleTableRecord
  2
STANDARD
 70
0
 40
0.0
 41
1.0
 50
0.0
 71
0
 42
0.2
  3
ARIAL.TTF
  4

  0
STYLE
  5
20E
100
AcDbSymbolTableRecord
100
AcDbTextStyleTableRecord
  2
TEXTSTYLE_1
 70
0
 40
0.0
 41
0.8
 50
0.0
 71
0
 42
0.2
  3
gdt
  4

  0
ENDTAB
  0
TABLE
  2
VIEW
  5
6
100
AcDbSymbolTable
 70
0
  0
ENDTAB
  0
TABLE
  2
UCS
  5
7
100
AcDbSymbolTable
 70
0
  0
ENDTAB
  0
TABLE
  2
APPID
  5
9
100
AcDbSymbolTable
 70
1
  0
APPID
  5
20F
100
AcDbSymbolTableRecord
100
AcDbRegAppTableRecord
  2
ACAD
 70
0
  0
ENDTAB
  0
TABLE
  2
BLOCK_RECORD
  5
1
100
AcDbSymbolTable
 70
0
  0
BLOCK_RECORD
  5
210
100
AcDbSymbolTableRecord
100
AcDbBlockTableRecord
  2
*Model_Space
  0
BLOCK_RECORD
  5
211
100
AcDbSymbolTableRecord
100
AcDbBlockTableRecord
  2
*Paper_Space
  0
BLOCK_RECORD
  5
212
100
AcDbSymbolTableRecord
100
AcDbBlockTableRecord
  2
_FILLED
  0
ENDTAB
  0
TABLE
  2
DIMSTYLE
  5
A
100
AcDbSymbolTable
 70
1
100
AcDbDimStyleTable
 71
0
  0
DIMSTYLE
105
213
100
AcDbSymbolTableRecord
100
AcDbDimStyleTableRecord
  2
STANDARD
 70
0
  3

  4

 40
1.0
 41
1.7001170058
 42
1.0
 43
0.38
 44
1.0
 45
0.0
 46
0.0
 47
0.01
 48
0.01
140
2.3801638082
141
0.09
142
0.0
143
25.4
144
1.0
145
0.0
146
1.0
147
0.625
 71
1
 72
0
 73
0
 74
0
 75
0
 76
0
 77
1
 78
8
 79
2
170
0
171
1
172
0
173
0
174
0
175
0
176
0
177
0
178
0
270
2
179
2
271
2
272
2
273
2
274
2
275
0
280
0
281
0
282
0
283
1
284
8
285
0
286
0
287
3
288
0
340
11
278
46
341
212
342
212
343
212
344
212
  0
ENDTAB
  0
ENDSEC
  0
SECTION
  2
BLOCKS
  0
BLOCK
  5
20
100
AcDbEntity
  8
0
100
AcDbBlockBegin
  2
*Model_Space
 70
0
 10
0.0
 20
0.0
 30
0.0
  3
*Model_Space
  1

  0
ENDBLK
  5
21
100
AcDbEntity
  8
0
100
AcDbBlockEnd
  0
BLOCK
  5
1C
100
AcDbEntity
  8
0
100
AcDbBlockBegin
  2
*Paper_Space
 70
0
 10
0.0
 20
0.0
 30
0.0
  3
*Paper_Space
  1

  0
ENDBLK
  5
1D
100
AcDbEntity
  8
0
100
AcDbBlockEnd
  0
BLOCK
  5
214
100
AcDbEntity
  8
0
100
AcDbBlockBegin
  2
_FILLED
 70
64
 10
0.0
 20
0.0
  3
_FILLED
  1

  0
SOLID
  5
215
100
AcDbEntity
  8
0
  6
BYBLOCK
 62
0
100
AcDbTrace
 10
0.0
 20
0.0
 11
-1.0
 21
0.25
 12
-1.0
 22
-0.25
 13
-1.0
 23
-0.25
  0
ENDBLK
  5
216
100
AcDbEntity
  8
0
  6
BYBLOCK
 62
0
100
AcDbBlockEnd
  0
ENDSEC
  0
SECTION
  2
ENTITIES
  0
LINE
  5
217
100
AcDbEntity
  8
0
100
AcDbLine
 62
7
  6
BYLAYER
 10
94.04099068
 20
16.6869501466
 11
99.54099068
 21
16.6869501466
  0
LINE
  5
218
100
AcDbEntity
  8
0
100
AcDbLine
 62
7
  6
BYLAYER
 10
99.54099068
 20
21.3400553078
 11
99.79099068
 21
21.3619274737
  0
LINE
  5
219
100
AcDbEntity
  8
0
100
AcDbLine
 62
7
  6
BYLAYER
 10
93.69099068
 20
21.1749070956
 11
91.69099068
 21
21.1749070956
  0
LINE
  5
21A
100
AcDbEntity
  8
0
100
AcDbLine
 62
7
  6
BYLAYER
 10
99.89099068
 20
22.1869501466
 11
100.89099068
 21
22.1869501466
  0
LINE
  5
21B
100
AcDbEntity
  8
0
100
AcDbLine
 62
7
  6
BYLAYER
 10
93.69099068
 20
23.1969501466
 11
93.79099068
 21
23.1969501466
  0
LINE
  5
21C
100
AcDbEntity
  8
0
100
AcDbLine
 62
7
  6
BYLAYER
 10
99.79099068
 20
23.1969501466
 11
99.89099068
 21
23.1969501466
  0
LINE
  5
21D
100
AcDbEntity
  8
0
100
AcDbLine
 62
7
  6
BYLAYER
 10
90.19099068
 20
24.1369501466
 11
91.69099068
 21
24.1369501466
  0
LINE
  5
21E
100
AcDbEntity
  8
0
100
AcDbLine
 62
7
  6
BYLAYER
 10
93.79099068
 20
21.3619274737
 11
94.04099068
 21
21.3400553078
  0
LINE
  5
21F
100
AcDbEntity
  8
0
100
AcDbLine
 62
7
  6
BYLAYER
 10
93.79099068
 20
31.0119728196
 11
94.04099068
 21
31.0338449855
  0
LINE
  5
220
100
AcDbEntity
  8
0
100
AcDbLine
 62
7
  6
BYLAYER
 10
93.69099068
 20
25.3066662073
 11
91.69099068
 21
25.3066662073
  0
LINE
  5
221
100
AcDbEntity
  8
0
100
AcDbLine
 62
7
  6
BYLAYER
 10
90.19099068
 20
28.2369501466
 11
91.69099068
 21
28.2369501466
  0
LINE
  5
222
100
AcDbEntity
  8
0
100
AcDbLine
 62
7
  6
BYLAYER
 10
93.69099068
 20
29.1769501466
 11
93.79099068
 21
29.1769501466
  0
LINE
  5
223
100
AcDbEntity
  8
0
100
AcDbLine
 62
7
  6
BYLAYER
 10
99.79099068
 20
29.1769501466
 11
99.89099068
 21
29.1769501466
  0
LINE
  5
224
100
AcDbEntity
  8
0
100
AcDbLine
 62
7
  6
BYLAYER
 10
99.89099068
 20
30.1869501466
 11
100.89099068
 21
30.1869501466
  0
LINE
  5
225
100
AcDbEntity
  8
0
100
AcDbLine
 62
7
  6
BYLAYER
 10
94.04099068
 20
35.6869501466
 11
99.54099068
 21
35.6869501466
  0
LINE
  5
226
100
AcDbEntity
  8
0
100
AcDbLine
 62
7
  6
BYLAYER
 10
99.54099068
 20
31.0338449855
 11
99.79099068
 21
31.0119728196
  0
LINE
  5
227
100
AcDbEntity
  8
0
100
AcDbLine
 62
7
  6
BYLAYER
 10
80.09099068
 20
183.1869501466
 11
80.34099068
 21
183.4369501466
  0
LINE
  5
228
100
AcDbEntity
  8
0
100
AcDbLine
 62
7
  6
BYLAYER
 10
91.69099068
 20
45.5869501466
 11
93.69099068
 21
45.5869501466
  0
LINE
  5
229
100
AcDbEntity
  8
0
100
AcDbLine
 62
7
  6
BYLAYER
 10
91.69099068
 20
46.0869501466
 11
93.69099068
 21
46.0869501466
  0
LINE
  5
22A
100
AcDbEntity
  8
0
100
AcDbLine
 62
7
  6
BYLAYER
 10
44.19099068
 20
123.0869501466
 11
43.59099068
 21
122.4869501466
  0
LINE
  5
22B
100
AcDbEntity
  8
0
100
AcDbLine
 62
7
  6
BYLAYER
 10
43.59099068
 20
106.0869501466
 11
43.59099068
 21
122.4869501466
  0
LINE
  5
22C
100
AcDbEntity
  8
0
100
AcDbLine
 62
7
  6
BYLAYER
 10
43.59099068
 20
168.2869501466
 11
43.59099068
 21
183.6869501466
  0
LINE
  5
22D
100
AcDbEntity
  8
0
100
AcDbLine
 62
7
  6
BYLAYER
 10
43.79099068
 20
86.7369501466
 11
44.29099068
 21
86.2369501466
  0
LINE
  5
22E
100
AcDbEntity
  8
0
100
AcDbLine
 62
7
  6
BYLAYER
 10
101.39099068
 20
29.6869501466
 11
100.89099068
 21
30.1869501466
  0
LINE
  5
22F
100
AcDbEntity
  8
0
100
AcDbLine
 62
7
  6
BYLAYER
 10
43.79099068
 20
86.7369598055
 11
43.79099068
 21
105.8869501466
  0
LINE
  5
230
100
AcDbEntity
  8
0
100
AcDbLine
 62
7
  6
BYLAYER
 10
43.99099068
 20
123.1104243929
 11
43.99099068
 21
123.8766885931
  0
LINE
  5
231
100
AcDbEntity
  8
0
100
AcDbLine
 62
7
  6
BYLAYER
 10
43.99099068
 20
123.8777908641
 11
43.99099068
 21
125.6288683238
  0
LINE
  5
232
100
AcDbEntity
  8
0
100
AcDbLine
 62
7
  6
BYLAYER
 10
43.99099068
 20
126.2869501466
 11
43.99099068
 21
126.6869501466
  0
LINE
  5
233
100
AcDbEntity
  8
0
100
AcDbLine
 62
7
  6
BYLAYER
 10
43.99099068
 20
127.6869501466
 11
43.99099068
 21
167.8869501466
  0
LINE
  5
234
100
AcDbEntity
  8
0
100
AcDbLine
 62
7
  6
BYLAYER
 10
44.19099068
 20
123.0869501466
 11
44.19099068
 21
167.6869501466
  0
LINE
  5
235
100
AcDbEntity
  8
0
100
AcDbLine
 62
7
  6
BYLAYER
 10
44.29099068
 20
86.2369501466
 11
44.29099068
 21
105.8869501466
  0
LINE
  5
236
100
AcDbEntity
  8
0
100
AcDbLine
 62
7
  6
BYLAYER
 10
45.09099068
 20
106.0869501466
 11
45.09099068
 21
105.8869501466
  0
LINE
  5
237
100
AcDbEntity
  8
0
100
AcDbLine
 62
7
  6
BYLAYER
 10
48.29099068
 20
105.8869501466
 11
48.29099068
 21
106.0869501466
  0
LINE
  5
238
100
AcDbEntity
  8
0
100
AcDbLine
 62
7
  6
BYLAYER
 10
48.29099068
 20
183.6869501466
 11
48.29099068
 21
185.2869501466
  0
LINE
  5
239
100
AcDbEntity
  8
0
100
AcDbLine
 62
7
  6
BYLAYER
 10
44.29099068
 20
89.4769501731
 11
43.79099068
 21
89.7969501717
  0
LINE
  5
23A
100
AcDbEntity
  8
0
100
AcDbLine
 62
7
  6
BYLAYER
 10
43.79099068
 20
90.3369501466
 11
44.29099068
 21
89.8369501466
  0
LINE
  5
23B
100
AcDbEntity
  8
0
100
AcDbLine
 62
7
  6
BYLAYER
 10
51.09099068
 20
106.0869501466
 11
51.09099068
 21
105.8869501466
  0
LINE
  5
23C
100
AcDbEntity
  8
0
100
AcDbLine
 62
7
  6
BYLAYER
 10
52.09099068
 20
105.8869501466
 11
52.09099068
 21
106.0869501466
  0
LINE
  5
23D
100
AcDbEntity
  8
0
100
AcDbLine
 62
7
  6
BYLAYER
 10
52.87099068
 20
106.0869501466
 11
52.87099068
 21
105.8869501466
  0
LINE
  5
23E
100
AcDbEntity
  8
0
100
AcDbLine
 62
7
  6
BYLAYER
 10
101.6909854169
 20
83.7369501466
 11
93.69099068
 21
83.7369501466
  0
LINE
  5
23F
100
AcDbEntity
  8
0
100
AcDbLine
 62
7
  6
BYLAYER
 10
58.84099068
 20
85.9369501466
 11
58.84099068
 21
86.2369501466
  0
LINE
  5
240
100
AcDbEntity
  8
0
100
AcDbLine
 62
7
  6
BYLAYER
 10
60.34099068
 20
85.9369501466
 11
60.34099068
 21
86.2369501466
  0
LINE
  5
241
100
AcDbEntity
  8
0
100
AcDbLine
 62
7
  6
BYLAYER
 10
89.8784728576
 20
85.2870757756
 11
91.69099068
 21
85.2870757756
  0
LINE
  5
242
100
AcDbEntity
  8
0
100
AcDbLine
 62
7
  6
BYLAYER
 10
93.69099068
 20
85.7369501466
 11
101.6909854169
 21
85.7369501466
  0
LINE
  5
243
100
AcDbEntity
  8
0
100
AcDbLine
 62
7
  6
BYLAYER
 10
60.3409817168
 20
85.9369501466
 11
58.8409996433
 21
85.9369501466
  0
LINE
  5
244
100
AcDbEntity
  8
0
100
AcDbLine
 62
7
  6
BYLAYER
 10
85.89099068
 20
86.2369501466
 11
60.34099068
 21
86.2369501466
  0
LINE
  5
245
100
AcDbEntity
  8
0
100
AcDbLine
 62
7
  6
BYLAYER
 10
58.84099068
 20
86.2369501466
 11
44.29099068
 21
86.2369501466
  0
LINE
  5
246
100
AcDbEntity
  8
0
100
AcDbLine
 62
7
  6
BYLAYER
 10
95.19099068
 20
88.2369501466
 11
93.69099068
 21
88.2369501466
  0
LINE
  5
247
100
AcDbEntity
  8
0
100
AcDbLine
 62
7
  6
BYLAYER
 10
87.76599068
 20
88.2369501466
 11
89.69099068
 21
88.2369501466
  0
LINE
  5
248
100
AcDbEntity
  8
0
100
AcDbLine
 62
7
  6
BYLAYER
 10
74.8909906808
 20
89.4769501552
 11
44.29099068
 21
89.4769501552
  0
LINE
  5
249
100
AcDbEntity
  8
0
100
AcDbLine
 62
7
  6
BYLAYER
 10
74.89099068
 20
89.8369501466
 11
44.29099068
 21
89.8369501466
  0
LINE
  5
24A
100
AcDbEntity
  8
0
100
AcDbLine
 62
7
  6
BYLAYER
 10
66.31099068
 20
105.8869501466
 11
66.31099068
 21
106.0869501466
  0
LINE
  5
24B
100
AcDbEntity
  8
0
100
AcDbLine
 62
7
  6
BYLAYER
 10
67.09099068
 20
106.0869501466
 11
67.09099068
 21
105.8869501466
  0
LINE
  5
24C
100
AcDbEntity
  8
0
100
AcDbLine
 62
7
  6
BYLAYER
 10
80.09099068
 20
122.7369501466
 11
80.59099068
 21
123.2369501466
  0
LINE
  5
24D
100
AcDbEntity
  8
0
100
AcDbLine
 62
7
  6
BYLAYER
 10
87.4428983926
 20
90.2369501466
 11
86.39099068
 21
90.2369501466
  0
LINE
  5
24E
100
AcDbEntity
  8
0
100
AcDbLine
 62
7
  6
BYLAYER
 10
75.39099068
 20
90.3369501466
 11
43.79099068
 21
90.3369501466
  0
LINE
  5
24F
100
AcDbEntity
  8
0
100
AcDbLine
 62
7
  6
BYLAYER
 10
91.69099068
 20
90.8147837595
 11
89.69099068
 21
90.8147837595
  0
LINE
  5
250
100
AcDbEntity
  8
0
100
AcDbLine
 62
7
  6
BYLAYER
 10
96.19099068
 20
91.2369501466
 11
97.914466063
 21
91.2369501466
  0
LINE
  5
251
100
AcDbEntity
  8
0
100
AcDbLine
 62
7
  6
BYLAYER
 10
91.69099068
 20
94.1369501466
 11
89.69099068
 21
94.1369501466
  0
LINE
  5
252
100
AcDbEntity
  8
0
100
AcDbLine
 62
7
  6
BYLAYER
 10
89.69099068
 20
94.2369501466
 11
90.49099068
 21
94.2369501466
  0
LINE
  5
253
100
AcDbEntity
  8
0
100
AcDbLine
 62
7
  6
BYLAYER
 10
99.2163407682
 20
94.7474542951
 11
98.9198533708
 21
94.7474542951
  0
LINE
  5
254
100
AcDbEntity
  8
0
100
AcDbLine
 62
7
  6
BYLAYER
 10
87.69099068
 20
95.2369501466
 11
87.6095621086
 21
95.2369501466
  0
LINE
  5
255
100
AcDbEntity
  8
0
100
AcDbLine
 62
7
  6
BYLAYER
 10
98.9198533708
 20
95.7264459981
 11
99.2163407682
 21
95.7264459981
  0
LINE
  5
256
100
AcDbEntity
  8
0
100
AcDbLine
 62
7
  6
BYLAYER
 10
68.09099068
 20
105.8869501466
 11
68.09099068
 21
106.0869501466
  0
LINE
  5
257
100
AcDbEntity
  8
0
100
AcDbLine
 62
7
  6
BYLAYER
 10
70.89099068
 20
106.0869501466
 11
70.89099068
 21
105.8869501466
  0
LINE
  5
258
100
AcDbEntity
  8
0
100
AcDbLine
 62
7
  6
BYLAYER
 10
70.89099068
 20
183.6869501466
 11
70.89099068
 21
185.2869501466
  0
LINE
  5
259
100
AcDbEntity
  8
0
100
AcDbLine
 62
7
  6
BYLAYER
 10
90.49099068
 20
96.2369501466
 11
89.69099068
 21
96.2369501466
  0
LINE
  5
25A
100
AcDbEntity
  8
0
100
AcDbLine
 62
7
  6
BYLAYER
 10
89.69099068
 20
96.3369501466
 11
91.69099068
 21
96.3369501466
  0
LINE
  5
25B
100
AcDbEntity
  8
0
100
AcDbLine
 62
7
  6
BYLAYER
 10
96.19099068
 20
99.2369501466
 11
97.914466063
 21
99.2369501466
  0
LINE
  5
25C
100
AcDbEntity
  8
0
100
AcDbLine
 62
7
  6
BYLAYER
 10
87.4428983926
 20
100.2369501466
 11
86.39099068
 21
100.2369501466
  0
LINE
  5
25D
100
AcDbEntity
  8
0
100
AcDbLine
 62
7
  6
BYLAYER
 10
91.69099068
 20
101.0869501466
 11
93.69099068
 21
101.0869501466
  0
LINE
  5
25E
100
AcDbEntity
  8
0
100
AcDbLine
 62
7
  6
BYLAYER
 10
89.69099068
 20
101.1915785985
 11
87.69099068
 21
101.1915785985
  0
LINE
  5
25F
100
AcDbEntity
  8
0
100
AcDbLine
 62
7
  6
BYLAYER
 10
91.69099068
 20
101.5869501466
 11
93.69099068
 21
101.5869501466
  0
LINE
  5
260
100
AcDbEntity
  8
0
100
AcDbLine
 62
7
  6
BYLAYER
 10
87.69099068
 20
101.6247726901
 11
89.69099068
 21
101.6247726901
  0
LINE
  5
261
100
AcDbEntity
  8
0
100
AcDbLine
 62
7
  6
BYLAYER
 10
74.09099068
 20
105.8869501466
 11
74.09099068
 21
106.0869501466
  0
LINE
  5
262
100
AcDbEntity
  8
0
100
AcDbLine
 62
7
  6
BYLAYER
 10
74.89099068
 20
89.4769501466
 11
74.89099068
 21
105.8869501466
  0
LINE
  5
263
100
AcDbEntity
  8
0
100
AcDbLine
 62
7
  6
BYLAYER
 10
75.39099068
 20
105.8869501466
 11
75.39099068
 21
90.3369501466
  0
LINE
  5
264
100
AcDbEntity
  8
0
100
AcDbLine
 62
7
  6
BYLAYER
 10
75.59099068
 20
106.0869501466
 11
75.59099068
 21
183.6869501466
  0
LINE
  5
265
100
AcDbEntity
  8
0
100
AcDbLine
 62
7
  6
BYLAYER
 10
76.79099068
 20
177.3369501466
 11
76.79099068
 21
176.9369501466
  0
LINE
  5
266
100
AcDbEntity
  8
0
100
AcDbLine
 62
7
  6
BYLAYER
 10
77.29099068
 20
176.9369501466
 11
77.29099068
 21
177.3369501466
  0
LINE
  5
267
100
AcDbEntity
  8
0
100
AcDbLine
 62
7
  6
BYLAYER
 10
77.79099068
 20
177.3369501466
 11
77.79099068
 21
176.9369501466
  0
LINE
  5
268
100
AcDbEntity
  8
0
100
AcDbLine
 62
7
  6
BYLAYER
 10
78.29099068
 20
176.9369501466
 11
78.29099068
 21
177.3369501466
  0
LINE
  5
269
100
AcDbEntity
  8
0
100
AcDbLine
 62
7
  6
BYLAYER
 10
80.09099068
 20
106.4369501466
 11
80.59099068
 21
106.9369501466
  0
LINE
  5
26A
100
AcDbEntity
  8
0
100
AcDbLine
 62
7
  6
BYLAYER
 10
95.19099068
 20
102.2369501466
 11
93.69099068
 21
102.2369501466
  0
LINE
  5
26B
100
AcDbEntity
  8
0
100
AcDbLine
 62
7
  6
BYLAYER
 10
89.69099068
 20
102.7369501466
 11
87.69099068
 21
102.7369501466
  0
LINE
  5
26C
100
AcDbEntity
  8
0
100
AcDbLine
 62
7
  6
BYLAYER
 10
91.69099068
 20
103.0599978128
 11
93.69099068
 21
103.0599978128
  0
LINE
  5
26D
100
AcDbEntity
  8
0
100
AcDbLine
 62
7
  6
BYLAYER
 10
91.69099068
 20
103.1609642809
 11
89.69099068
 21
103.1609642809
  0
LINE
  5
26E
100
AcDbEntity
  8
0
100
AcDbLine
 62
7
  6
BYLAYER
 10
85.89099068
 20
104.2369501466
 11
75.39099068
 21
104.2369501466
  0
LINE
  5
26F
100
AcDbEntity
  8
0
100
AcDbLine
 62
7
  6
BYLAYER
 10
43.79099068
 20
105.8869501466
 11
75.39099068
 21
105.8869501466
  0
LINE
  5
270
100
AcDbEntity
  8
0
100
AcDbLine
 62
7
  6
BYLAYER
 10
43.59099068
 20
106.0869501466
 11
75.59099068
 21
106.0869501466
  0
LINE
  5
271
100
AcDbEntity
  8
0
100
AcDbLine
 62
7
  6
BYLAYER
 10
80.09099068
 20
106.4369501466
 11
75.59099068
 21
106.4369501466
  0
LINE
  5
272
100
AcDbEntity
  8
0
100
AcDbLine
 62
7
  6
BYLAYER
 10
43.59099068
 20
106.5869501466
 11
75.59099068
 21
106.5869501466
  0
LINE
  5
273
100
AcDbEntity
  8
0
100
AcDbLine
 62
7
  6
BYLAYER
 10
87.69099068
 20
101.6126378228
 11
87.6867616003
 21
101.6143545513
  0
LINE
  5
274
100
AcDbEntity
  8
0
100
AcDbLine
 62
7
  6
BYLAYER
 10
87.69099068
 20
101.6126378228
 11
87.6867622015
 21
101.6143809508
  0
LINE
  5
275
100
AcDbEntity
  8
0
100
AcDbLine
 62
7
  6
BYLAYER
 10
80.09099068
 20
176.9369501466
 11
80.09099068
 21
106.4369501466
  0
LINE
  5
276
100
AcDbEntity
  8
0
100
AcDbLine
 62
7
  6
BYLAYER
 10
80.09099068
 20
177.3369501466
 11
80.09099068
 21
183.1869501466
  0
LINE
  5
277
100
AcDbEntity
  8
0
100
AcDbLine
 62
7
  6
BYLAYER
 10
80.59099068
 20
106.9369501466
 11
80.59099068
 21
176.9369501466
  0
LINE
  5
278
100
AcDbEntity
  8
0
100
AcDbLine
 62
7
  6
BYLAYER
 10
80.59099068
 20
177.3369501466
 11
80.59099068
 21
183.1869501466
  0
LINE
  5
279
100
AcDbEntity
  8
0
100
AcDbLine
 62
7
  6
BYLAYER
 10
74.89099068
 20
89.8369501466
 11
75.39099068
 21
90.3369501466
  0
LINE
  5
27A
100
AcDbEntity
  8
0
100
AcDbLine
 62
7
  6
BYLAYER
 10
91.69099068
 20
111.8740251796
 11
93.69099068
 21
111.8740251796
  0
LINE
  5
27B
100
AcDbEntity
  8
0
100
AcDbLine
 62
7
  6
BYLAYER
 10
93.69099068
 20
113.0869501466
 11
91.69099068
 21
113.0869501466
  0
LINE
  5
27C
100
AcDbEntity
  8
0
100
AcDbLine
 62
7
  6
BYLAYER
 10
86.39099068
 20
103.7369501466
 11
85.89099068
 21
104.2369501466
  0
LINE
  5
27D
100
AcDbEntity
  8
0
100
AcDbLine
 62
7
  6
BYLAYER
 10
87.4414860507
 20
94.1331081155
 11
87.4602980516
 21
93.7218728491
  0
LINE
  5
27E
100
AcDbEntity
  8
0
100
AcDbLine
 62
7
  6
BYLAYER
 10
87.4141839238
 20
94.5983064799
 11
87.422824544
 21
94.360380408
  0
LINE
  5
27F
100
AcDbEntity
  8
0
100
AcDbLine
 62
7
  6
BYLAYER
 10
87.4414860507
 20
93.7033505692
 11
87.4602980516
 21
93.1320095501
  0
LINE
  5
280
100
AcDbEntity
  8
0
100
AcDbLine
 62
7
  6
BYLAYER
 10
87.4414860507
 20
93.2852646416
 11
87.4602980516
 21
92.5581661201
  0
LINE
  5
281
100
AcDbEntity
  8
0
100
AcDbLine
 62
7
  6
BYLAYER
 10
87.4414860507
 20
92.8820322191
 11
87.4602980516
 21
92.004709854
  0
LINE
  5
282
100
AcDbEntity
  8
0
100
AcDbLine
 62
7
  6
BYLAYER
 10
87.4414860507
 20
92.4967221441
 11
87.4602980516
 21
91.4758528882
  0
LINE
  5
283
100
AcDbEntity
  8
0
100
AcDbLine
 62
7
  6
BYLAYER
 10
87.4414860507
 20
92.1322668587
 11
87.4602980516
 21
90.9756201436
  0
LINE
  5
284
100
AcDbEntity
  8
0
100
AcDbLine
 62
7
  6
BYLAYER
 10
87.4414860507
 20
91.7914400878
 11
87.4602980516
 21
90.5078186933
  0
LINE
  5
285
100
AcDbEntity
  8
0
100
AcDbLine
 62
7
  6
BYLAYER
 10
87.4414860507
 20
91.4768357289
 11
87.4602980516
 21
90.076008789
  0
LINE
  5
286
100
AcDbEntity
  8
0
100
AcDbLine
 62
7
  6
BYLAYER
 10
87.4414860507
 20
91.1908481111
 11
87.4602980516
 21
89.6834767646
  0
LINE
  5
287
100
AcDbEntity
  8
0
100
AcDbLine
 62
7
  6
BYLAYER
 10
87.4414860507
 20
90.935653773
 11
87.4602980516
 21
89.3332100259
  0
LINE
  5
288
100
AcDbEntity
  8
0
100
AcDbLine
 62
7
  6
BYLAYER
 10
87.4414860507
 20
90.7131948974
 11
87.4602980516
 21
89.0278743144
  0
LINE
  5
289
100
AcDbEntity
  8
0
100
AcDbLine
 62
7
  6
BYLAYER
 10
87.4414860507
 20
90.5251645308
 11
87.4602980516
 21
88.769793419
  0
LINE
  5
28A
100
AcDbEntity
  8
0
100
AcDbLine
 62
7
  6
BYLAYER
 10
87.4414860507
 20
90.3729936978
 11
87.4602980516
 21
88.5609314914
  0
LINE
  5
28B
100
AcDbEntity
  8
0
100
AcDbLine
 62
7
  6
BYLAYER
 10
87.450864111
 20
89.3331143521
 11
87.4602980516
 21
88.4028780968
  0
LINE
  5
28C
100
AcDbEntity
  8
0
100
AcDbLine
 62
7
  6
BYLAYER
 10
87.4592391701
 20
88.4028675223
 11
87.4602980516
 21
88.296836117
  0
LINE
  5
28D
100
AcDbEntity
  8
0
100
AcDbLine
 62
7
  6
BYLAYER
 10
87.4597706324
 20
88.29683089
 11
87.4602980516
 21
88.2436125956
  0
LINE
  5
28E
100
AcDbEntity
  8
0
100
AcDbLine
 62
7
  6
BYLAYER
 10
85.89099068
 20
104.2369501466
 11
85.89099068
 21
86.2369501466
  0
LINE
  5
28F
100
AcDbEntity
  8
0
100
AcDbLine
 62
7
  6
BYLAYER
 10
86.39099068
 20
103.736938306
 11
86.39099068
 21
86.7369619873
  0
LINE
  5
290
100
AcDbEntity
  8
0
100
AcDbLine
 62
7
  6
BYLAYER
 10
87.39099068
 20
94.9260037888
 11
87.39099068
 21
95.0185791708
  0
LINE
  5
291
100
AcDbEntity
  8
0
100
AcDbLine
 62
7
  6
BYLAYER
 10
87.69099068
 20
101.1915785985
 11
87.69099068
 21
102.7369501466
  0
LINE
  5
292
100
AcDbEntity
  8
0
100
AcDbLine
 62
7
  6
BYLAYER
 10
89.69099068
 20
86.2369501466
 11
89.69099068
 21
94.2369501466
  0
LINE
  5
293
100
AcDbEntity
  8
0
100
AcDbLine
 62
7
  6
BYLAYER
 10
89.69099068
 20
96.2369501466
 11
89.69099068
 21
103.1609642809
  0
LINE
  5
294
100
AcDbEntity
  8
0
100
AcDbLine
 62
7
  6
BYLAYER
 10
90.19099068
 20
24.1369529736
 11
90.19099068
 21
28.2369473197
  0
LINE
  5
295
100
AcDbEntity
  8
0
100
AcDbLine
 62
7
  6
BYLAYER
 10
90.49099068
 20
96.2369501466
 11
90.49099068
 21
94.2369501466
  0
LINE
  5
296
100
AcDbEntity
  8
0
100
AcDbLine
 62
7
  6
BYLAYER
 10
87.4597706324
 20
102.1770694032
 11
87.4602980516
 21
102.2302876977
  0
LINE
  5
297
100
AcDbEntity
  8
0
100
AcDbLine
 62
7
  6
BYLAYER
 10
87.4592391701
 20
102.071032771
 11
87.4602980516
 21
102.1770641762
  0
LINE
  5
298
100
AcDbEntity
  8
0
100
AcDbLine
 62
7
  6
BYLAYER
 10
87.450864111
 20
101.1407859411
 11
87.4602980516
 21
102.0710221965
  0
LINE
  5
299
100
AcDbEntity
  8
0
100
AcDbLine
 62
7
  6
BYLAYER
 10
87.4414860507
 20
100.1009065954
 11
87.4602980516
 21
101.9129688019
  0
LINE
  5
29A
100
AcDbEntity
  8
0
100
AcDbLine
 62
7
  6
BYLAYER
 10
87.4414860507
 20
99.9487357624
 11
87.4602980516
 21
101.7041068742
  0
LINE
  5
29B
100
AcDbEntity
  8
0
100
AcDbLine
 62
7
  6
BYLAYER
 10
87.4414860507
 20
99.7607053958
 11
87.4602980516
 21
101.4460259789
  0
LINE
  5
29C
100
AcDbEntity
  8
0
100
AcDbLine
 62
7
  6
BYLAYER
 10
87.4414860507
 20
99.5382465203
 11
87.4602980516
 21
101.1406902673
  0
LINE
  5
29D
100
AcDbEntity
  8
0
100
AcDbLine
 62
7
  6
BYLAYER
 10
87.4414860507
 20
99.2830521821
 11
87.4602980516
 21
100.7904235287
  0
LINE
  5
29E
100
AcDbEntity
  8
0
100
AcDbLine
 62
7
  6
BYLAYER
 10
87.4414860507
 20
98.9970645644
 11
87.4602980516
 21
100.3978915043
  0
LINE
  5
29F
100
AcDbEntity
  8
0
100
AcDbLine
 62
7
  6
BYLAYER
 10
87.4414860507
 20
98.6824602055
 11
87.4602980516
 21
99.9660815999
  0
LINE
  5
2A0
100
AcDbEntity
  8
0
100
AcDbLine
 62
7
  6
BYLAYER
 10
87.4414860507
 20
98.3416334346
 11
87.4602980516
 21
99.4982801497
  0
LINE
  5
2A1
100
AcDbEntity
  8
0
100
AcDbLine
 62
7
  6
BYLAYER
 10
87.4414860507
 20
97.9771781492
 11
87.4602980516
 21
98.9980474051
  0
LINE
  5
2A2
100
AcDbEntity
  8
0
100
AcDbLine
 62
7
  6
BYLAYER
 10
87.4414860507
 20
97.5918680741
 11
87.4602980516
 21
98.4691904393
  0
LINE
  5
2A3
100
AcDbEntity
  8
0
100
AcDbLine
 62
7
  6
BYLAYER
 10
87.4414860507
 20
97.1886356517
 11
87.4602980516
 21
97.9157341732
  0
LINE
  5
2A4
100
AcDbEntity
  8
0
100
AcDbLine
 62
7
  6
BYLAYER
 10
87.4414860507
 20
96.7705497241
 11
87.4602980516
 21
97.3418907432
  0
LINE
  5
2A5
100
AcDbEntity
  8
0
100
AcDbLine
 62
7
  6
BYLAYER
 10
87.4414860507
 20
96.3407921777
 11
87.4602980516
 21
96.7520274442
  0
LINE
  5
2A6
100
AcDbEntity
  8
0
100
AcDbLine
 62
7
  6
BYLAYER
 10
87.4414860507
 20
95.9026337269
 11
87.4602980516
 21
96.1506334922
  0
LINE
  5
2A7
100
AcDbEntity
  8
0
100
AcDbLine
 62
7
  6
BYLAYER
 10
87.4141839238
 20
95.4321681464
 11
87.422824544
 21
95.5048964209
  0
LINE
  5
2A8
100
AcDbEntity
  8
0
100
AcDbLine
 62
7
  6
BYLAYER
 10
80.590990678
 20
117.7369500468
 11
75.59099068
 21
117.7369501466
  0
LINE
  5
2A9
100
AcDbEntity
  8
0
100
AcDbLine
 62
7
  6
BYLAYER
 10
95.19099068
 20
102.2369501466
 11
96.19099068
 21
101.2369501466
  0
LINE
  5
2AA
100
AcDbEntity
  8
0
100
AcDbLine
 62
7
  6
BYLAYER
 10
91.69099068
 20
21.1751675756
 11
91.69099068
 21
113.0869501466
  0
LINE
  5
2AB
100
AcDbEntity
  8
0
100
AcDbLine
 62
7
  6
BYLAYER
 10
93.69099068
 20
21.1751675756
 11
93.69099068
 21
113.0869501466
  0
LINE
  5
2AC
100
AcDbEntity
  8
0
100
AcDbLine
 62
7
  6
BYLAYER
 10
93.79099068
 20
21.3619274737
 11
93.79099068
 21
31.0119728196
  0
LINE
  5
2AD
100
AcDbEntity
  8
0
100
AcDbLine
 62
7
  6
BYLAYER
 10
94.04099068
 20
16.6869501466
 11
94.04099068
 21
35.6869501466
  0
LINE
  5
2AE
100
AcDbEntity
  8
0
100
AcDbLine
 62
7
  6
BYLAYER
 10
95.19099068
 20
102.2369501466
 11
95.19099068
 21
88.2369501466
  0
LINE
  5
2AF
100
AcDbEntity
  8
0
100
AcDbLine
 62
7
  6
BYLAYER
 10
96.19099068
 20
101.2369501466
 11
96.19099068
 21
89.2369501466
  0
LINE
  5
2B0
100
AcDbEntity
  8
0
100
AcDbLine
 62
7
  6
BYLAYER
 10
96.69099068
 20
85.7369501466
 11
96.69099068
 21
83.7369501466
  0
LINE
  5
2B1
100
AcDbEntity
  8
0
100
AcDbLine
 62
7
  6
BYLAYER
 10
86.39099068
 20
86.7369501466
 11
85.89099068
 21
86.2369501466
  0
LINE
  5
2B2
100
AcDbEntity
  8
0
100
AcDbLine
 62
7
  6
BYLAYER
 10
75.59099068
 20
122.7369501466
 11
80.09099068
 21
122.7369501466
  0
LINE
  5
2B3
100
AcDbEntity
  8
0
100
AcDbLine
 62
7
  6
BYLAYER
 10
43.99099068
 20
123.1104243929
 11
44.19099068
 21
123.1104243929
  0
LINE
  5
2B4
100
AcDbEntity
  8
0
100
AcDbLine
 62
7
  6
BYLAYER
 10
43.99099068
 20
123.1171312565
 11
44.19099068
 21
123.1171312565
  0
LINE
  5
2B5
100
AcDbEntity
  8
0
100
AcDbLine
 62
7
  6
BYLAYER
 10
43.99099068
 20
123.1707866185
 11
44.19099068
 21
123.1707866185
  0
LINE
  5
2B6
100
AcDbEntity
  8
0
100
AcDbLine
 62
7
  6
BYLAYER
 10
43.99099068
 20
123.310434213
 11
44.19099068
 21
123.310434213
  0
LINE
  5
2B7
100
AcDbEntity
  8
0
100
AcDbLine
 62
7
  6
BYLAYER
 10
43.99099068
 20
123.4943948537
 11
44.19099068
 21
123.4943948537
  0
LINE
  5
2B8
100
AcDbEntity
  8
0
100
AcDbLine
 62
7
  6
BYLAYER
 10
43.99099068
 20
123.6771581704
 11
44.19099068
 21
123.6771581704
  0
LINE
  5
2B9
100
AcDbEntity
  8
0
100
AcDbLine
 62
7
  6
BYLAYER
 10
43.99099068
 20
123.8230333906
 11
44.19099068
 21
123.8230333906
  0
LINE
  5
2BA
100
AcDbEntity
  8
0
100
AcDbLine
 62
7
  6
BYLAYER
 10
43.99099068
 20
123.8766885931
 11
44.19099068
 21
123.8766885931
  0
LINE
  5
2BB
100
AcDbEntity
  8
0
100
AcDbLine
 62
7
  6
BYLAYER
 10
43.99099068
 20
124.012503543
 11
44.19099068
 21
124.012503543
  0
LINE
  5
2BC
100
AcDbEntity
  8
0
100
AcDbLine
 62
7
  6
BYLAYER
 10
44.19099068
 20
124.1030467684
 11
43.99099068
 21
124.1030467684
  0
LINE
  5
2BD
100
AcDbEntity
  8
0
100
AcDbLine
 62
7
  6
BYLAYER
 10
43.99099068
 20
124.1533485559
 11
44.19099068
 21
124.1533485559
  0
LINE
  5
2BE
100
AcDbEntity
  8
0
100
AcDbLine
 62
7
  6
BYLAYER
 10
43.99099068
 20
124.2824566001
 11
44.19099068
 21
124.2824566001
  0
LINE
  5
2BF
100
AcDbEntity
  8
0
100
AcDbLine
 62
7
  6
BYLAYER
 10
43.99099068
 20
124.4115645281
 11
44.19099068
 21
124.4115645281
  0
LINE
  5
2C0
100
AcDbEntity
  8
0
100
AcDbLine
 62
7
  6
BYLAYER
 10
43.99099068
 20
124.4568361724
 11
44.19099068
 21
124.4568361724
  0
LINE
  5
2C1
100
AcDbEntity
  8
0
100
AcDbLine
 62
7
  6
BYLAYER
 10
43.99099068
 20
124.5561807349
 11
44.19099068
 21
124.5561807349
  0
LINE
  5
2C2
100
AcDbEntity
  8
0
100
AcDbLine
 62
7
  6
BYLAYER
 10
43.99099068
 20
124.7452332462
 11
44.19099068
 21
124.7452332462
  0
LINE
  5
2C3
100
AcDbEntity
  8
0
100
AcDbLine
 62
7
  6
BYLAYER
 10
43.99099068
 20
124.8055953915
 11
44.19099068
 21
124.8055953915
  0
LINE
  5
2C4
100
AcDbEntity
  8
0
100
AcDbLine
 62
7
  6
BYLAYER
 10
43.99099068
 20
124.961530977
 11
44.19099068
 21
124.961530977
  0
LINE
  5
2C5
100
AcDbEntity
  8
0
100
AcDbLine
 62
7
  6
BYLAYER
 10
43.99099068
 20
125.1526778609
 11
44.19099068
 21
125.1526778609
  0
LINE
  5
2C6
100
AcDbEntity
  8
0
100
AcDbLine
 62
7
  6
BYLAYER
 10
43.99099068
 20
125.3773592633
 11
44.19099068
 21
125.3773592633
  0
LINE
  5
2C7
100
AcDbEntity
  8
0
100
AcDbLine
 62
7
  6
BYLAYER
 10
43.99099068
 20
125.5570783567
 11
44.19099068
 21
125.5570783567
  0
LINE
  5
2C8
100
AcDbEntity
  8
0
100
AcDbLine
 62
7
  6
BYLAYER
 10
97.914466063
 20
99.2369501466
 11
97.914466063
 21
91.2369501466
  0
LINE
  5
2C9
100
AcDbEntity
  8
0
100
AcDbLine
 62
7
  6
BYLAYER
 10
98.09099068
 20
91.4739833011
 11
98.09099068
 21
91.5221150224
  0
LINE
  5
2CA
100
AcDbEntity
  8
0
100
AcDbLine
 62
7
  6
BYLAYER
 10
98.09099068
 20
98.9517852708
 11
98.09099068
 21
98.9999170033
  0
LINE
  5
2CB
100
AcDbEntity
  8
0
100
AcDbLine
 62
7
  6
BYLAYER
 10
98.9198533708
 20
94.7474542951
 11
98.9198533708
 21
95.7264459981
  0
LINE
  5
2CC
100
AcDbEntity
  8
0
100
AcDbLine
 62
7
  6
BYLAYER
 10
99.54099068
 20
35.6869501466
 11
99.54099068
 21
16.6869501466
  0
LINE
  5
2CD
100
AcDbEntity
  8
0
100
AcDbLine
 62
7
  6
BYLAYER
 10
99.79099068
 20
31.0119728196
 11
99.79099068
 21
21.3619274737
  0
LINE
  5
2CE
100
AcDbEntity
  8
0
100
AcDbLine
 62
7
  6
BYLAYER
 10
99.89099068
 20
22.1870010732
 11
99.89099068
 21
30.1868992201
  0
LINE
  5
2CF
100
AcDbEntity
  8
0
100
AcDbLine
 62
7
  6
BYLAYER
 10
100.89099068
 20
30.1869501466
 11
100.89099068
 21
22.1869501466
  0
LINE
  5
2D0
100
AcDbEntity
  8
0
100
AcDbLine
 62
7
  6
BYLAYER
 10
101.39099068
 20
29.6869039229
 11
101.39099068
 21
22.6869963704
  0
LINE
  5
2D1
100
AcDbEntity
  8
0
100
AcDbLine
 62
7
  6
BYLAYER
 10
101.69099068
 20
83.7369501466
 11
101.69099068
 21
85.7369501466
  0
LINE
  5
2D2
100
AcDbEntity
  8
0
100
AcDbLine
 62
7
  6
BYLAYER
 10
97.914466063
 20
91.2369501477
 11
98.09099068
 21
91.4739726023
  0
LINE
  5
2D3
100
AcDbEntity
  8
0
100
AcDbLine
 62
7
  6
BYLAYER
 10
95.19099068
 20
88.2369501466
 11
96.19099068
 21
89.2369501466
  0
LINE
  5
2D4
100
AcDbEntity
  8
0
100
AcDbLine
 62
7
  6
BYLAYER
 10
43.99099068
 20
125.6288683238
 11
44.19099068
 21
125.6288683238
  0
LINE
  5
2D5
100
AcDbEntity
  8
0
100
AcDbLine
 62
7
  6
BYLAYER
 10
43.99099068
 20
126.2869501466
 11
44.19099068
 21
126.2869501466
  0
LINE
  5
2D6
100
AcDbEntity
  8
0
100
AcDbLine
 62
7
  6
BYLAYER
 10
43.99099068
 20
126.6869501466
 11
44.19099068
 21
126.6869501466
  0
LINE
  5
2D7
100
AcDbEntity
  8
0
100
AcDbLine
 62
7
  6
BYLAYER
 10
43.99099068
 20
127.6869501466
 11
44.19099068
 21
127.6869501466
  0
LINE
  5
2D8
100
AcDbEntity
  8
0
100
AcDbLine
 62
7
  6
BYLAYER
 10
43.59099068
 20
168.2869501466
 11
44.19099068
 21
167.6869501466
  0
LINE
  5
2D9
100
AcDbEntity
  8
0
100
AcDbLine
 62
7
  6
BYLAYER
 10
80.09099068
 20
171.4869501466
 11
80.59099068
 21
170.9869501466
  0
LINE
  5
2DA
100
AcDbEntity
  8
0
100
AcDbLine
 62
7
  6
BYLAYER
 10
80.59099068
 20
183.1869501466
 11
80.09099068
 21
183.6869501466
  0
LINE
  5
2DB
100
AcDbEntity
  8
0
100
AcDbLine
 62
7
  6
BYLAYER
 10
75.59099068
 20
171.4869501466
 11
80.09099068
 21
171.4869501466
  0
LINE
  5
2DC
100
AcDbEntity
  8
0
100
AcDbLine
 62
7
  6
BYLAYER
 10
101.39099068
 20
22.6869501466
 11
100.89099068
 21
22.1869501466
  0
LINE
  5
2DD
100
AcDbEntity
  8
0
100
AcDbLine
 62
7
  6
BYLAYER
 10
75.59099068
 20
176.4869501466
 11
80.5909906791
 21
176.4869501989
  0
LINE
  5
2DE
100
AcDbEntity
  8
0
100
AcDbLine
 62
7
  6
BYLAYER
 10
75.59099068
 20
176.9369501466
 11
80.59099068
 21
176.9369501466
  0
LINE
  5
2DF
100
AcDbEntity
  8
0
100
AcDbLine
 62
7
  6
BYLAYER
 10
80.59099068
 20
177.3369501466
 11
75.59099068
 21
177.3369501466
  0
LINE
  5
2E0
100
AcDbEntity
  8
0
100
AcDbLine
 62
7
  6
BYLAYER
 10
43.59099068
 20
178.6869501466
 11
75.59099068
 21
178.6869501466
  0
LINE
  5
2E1
100
AcDbEntity
  8
0
100
AcDbLine
 62
7
  6
BYLAYER
 10
80.09099068
 20
183.1869501466
 11
75.59099068
 21
183.1869501466
  0
LINE
  5
2E2
100
AcDbEntity
  8
0
100
AcDbLine
 62
7
  6
BYLAYER
 10
80.09099068
 20
183.6869501466
 11
43.59099068
 21
183.6869501466
  0
LINE
  5
2E3
100
AcDbEntity
  8
0
100
AcDbLine
 62
7
  6
BYLAYER
 10
48.2910868534
 20
185.2869501466
 11
70.8908945066
 21
185.2869501466
  0
ARC
  5
2E4
100
AcDbEntity
  8
0
100
AcDbCircle
 62
7
  6
BYLAYER
 10
79.7742703667
 20
108.4542478733
 40
23.0651880982
100
AcDbArc
 50
327.2762611401
 51
327.4246893177
  0
ARC
  5
2E5
100
AcDbEntity
  8
0
100
AcDbCircle
 62
7
  6
BYLAYER
 10
79.7766125445
 20
82.0211522854
 40
23.062406842
100
AcDbArc
 50
32.5753040096
 51
32.7237274547
  0
ARC
  5
2E6
100
AcDbEntity
  8
0
100
AcDbCircle
 62
7
  6
BYLAYER
 10
93.9069317835
 20
89.11186744
 40
13.6474050678
100
AcDbArc
 50
117.2291730421
 51
118.1882915312
  0
ARC
  5
2E7
100
AcDbEntity
  8
0
100
AcDbCircle
 62
7
  6
BYLAYER
 10
59.5858790445
 20
77.1424240049
 40
9.125832016
100
AcDbArc
 50
85.2527895538
 51
89.9679070184
  0
ARC
  5
2E8
100
AcDbEntity
  8
0
100
AcDbCircle
 62
7
  6
BYLAYER
 10
91.5505479894
 20
93.6796370818
 40
8.5076560942
100
AcDbArc
 50
116.9785430857
 51
117.1936728016
  0
ARC
  5
2E9
100
AcDbEntity
  8
0
100
AcDbCircle
 62
7
  6
BYLAYER
 10
87.7720395336
 20
95.5142500201
 40
6.7230129985
100
AcDbArc
 50
90.6907423404
 51
91.8459511794
  0
ARC
  5
2EA
100
AcDbEntity
  8
0
100
AcDbCircle
 62
7
  6
BYLAYER
 10
92.79099068
 20
95.2369501466
 40
6.5
100
AcDbArc
 50
35.3745904471
 51
37.9798724444
  0
ARC
  5
2EB
100
AcDbEntity
  8
0
100
AcDbCircle
 62
7
  6
BYLAYER
 10
92.7709090887
 20
95.2376497969
 40
6.4894774157
100
AcDbArc
 50
346.3712067343
 51
352.9230143516
  0
ARC
  5
2EC
100
AcDbEntity
  8
0
100
AcDbCircle
 62
7
  6
BYLAYER
 10
92.7751255122
 20
95.2370471823
 40
6.4851947821
100
AcDbArc
 50
7.0745896321
 51
34.9459332764
  0
ARC
  5
2ED
100
AcDbEntity
  8
0
100
AcDbCircle
 62
7
  6
BYLAYER
 10
92.7751272286
 20
95.2368522032
 40
6.4851928534
100
AcDbArc
 50
325.0540646114
 51
352.9254176889
  0
ARC
  5
2EE
100
AcDbEntity
  8
0
100
AcDbCircle
 62
7
  6
BYLAYER
 10
95.4192361671
 20
95.3837365099
 40
3.8703205789
100
AcDbArc
 50
346.6147569406
 51
349.6233680636
  0
ARC
  5
2EF
100
AcDbEntity
  8
0
100
AcDbCircle
 62
7
  6
BYLAYER
 10
95.4268484189
 20
95.0919513119
 40
3.8625009399
100
AcDbArc
 50
10.3701976405
 51
13.3858035402
  0
ARC
  5
2F0
100
AcDbEntity
  8
0
100
AcDbCircle
 62
7
  6
BYLAYER
 10
92.19099068
 20
86.2369501466
 40
2.5
100
AcDbArc
 50
180.0
 51
255.0843111651
  0
ARC
  5
2F1
100
AcDbEntity
  8
0
100
AcDbCircle
 62
7
  6
BYLAYER
 10
76.0476598239
 20
89.2370465502
 40
1.2056572181
100
AcDbArc
 50
149.5486562136
 51
152.4120737453
  0
SPLINE
  5
2F2
100
AcDbEntity
  8
0
100
AcDbSpline
 62
7
  6
BYLAYER
 70
0
 71
3
 72
9
 73
5
 74
0
 42
0.0000001
 43
0.0000001
 44
0.0000000001
 40
0.0
 40
0.0
 40
0.0
 40
0.0
 40
0.5012681189
 40
1.0
 40
1.0
 40
1.0
 40
1.0
 10
87.4602980516
 20
101.4460259789
 30
0.0
 10
87.4986462142
 20
101.4637086997
 30
0.0
 10
87.5753872249
 20
101.4984657023
 30
0.0
 10
87.6524232956
 20
101.5325666168
 30
0.0
 10
87.6909920226
 20
101.5492313644
 30
0.0
  0
SPLINE
  5
2F3
100
AcDbEntity
  8
0
100
AcDbSpline
 62
7
  6
BYLAYER
 70
0
 71
3
 72
9
 73
5
 74
0
 42
0.0000001
 43
0.0000001
 44
0.0000000001
 40
0.0
 40
0.0
 40
0.0
 40
0.0
 40
0.5011536721
 40
1.0
 40
1.0
 40
1.0
 40
1.0
 10
87.4602980516
 20
101.7041068742
 30
0.0
 10
87.4986553703
 20
101.7187652831
 30
0.0
 10
87.5754116263
 20
101.7474418219
 30
0.0
 10
87.6524357191
 20
101.7753950006
 30
0.0
 10
87.6909920226
 20
101.7889623785
 30
0.0
  0
SPLINE
  5
2F4
100
AcDbEntity
  8
0
100
AcDbSpline
 62
7
  6
BYLAYER
 70
0
 71
3
 72
9
 73
5
 74
0
 42
0.0000001
 43
0.0000001
 44
0.0000000001
 40
0.0
 40
0.0
 40
0.0
 40
0.0
 40
0.5009787657
 40
1.0
 40
1.0
 40
1.0
 40
1.0
 10
87.4602980516
 20
101.9129688019
 30
0.0
 10
87.4986695989
 20
101.9244913902
 30
0.0
 10
87.575448965
 20
101.9468689377
 30
0.0
 10
87.652454385
 20
101.9684615245
 30
0.0
 10
87.6909920226
 20
101.9788286233
 30
0.0
  0
SPLINE
  5
2F5
100
AcDbEntity
  8
0
100
AcDbSpline
 62
7
  6
BYLAYER
 70
0
 71
3
 72
9
 73
5
 74
0
 42
0.0000001
 43
0.0000001
 44
0.0000000001
 40
0.0
 40
0.0
 40
0.0
 40
0.0
 40
0.5007457631
 40
1.0
 40
1.0
 40
1.0
 40
1.0
 10
87.4602980516
 20
102.0710221965
 30
0.0
 10
87.4986887654
 20
102.0793199755
 30
0.0
 10
87.5754987506
 20
102.0952258153
 30
0.0
 10
87.6524789607
 20
102.1102951382
 30
0.0
 10
87.6909920226
 20
102.1173851021
 30
0.0
  0
SPLINE
  5
2F6
100
AcDbEntity
  8
0
100
AcDbSpline
 62
7
  6
BYLAYER
 70
0
 71
3
 72
9
 73
5
 74
0
 42
0.0000001
 43
0.0000001
 44
0.0000000001
 40
0.0
 40
0.0
 40
0.0
 40
0.0
 40
0.5004642575
 40
1.0
 40
1.0
 40
1.0
 40
1.0
 10
87.4602980516
 20
102.1770641762
 30
0.0
 10
87.4987121396
 20
102.1820712862
 30
0.0
 10
87.5755589466
 20
102.1913797981
 30
0.0
 10
87.6525083548
 20
102.1998147089
 30
0.0
 10
87.6909920226
 20
102.2035773164
 30
0.0
  0
SPLINE
  5
2F7
100
AcDbEntity
  8
0
100
AcDbSpline
 62
7
  6
BYLAYER
 70
0
 71
3
 72
9
 73
5
 74
0
 42
0.0000001
 43
0.0000001
 44
0.0000000001
 40
0.0
 40
0.0
 40
0.0
 40
0.0
 40
0.5001512162
 40
1.0
 40
1.0
 40
1.0
 40
1.0
 10
87.4602980516
 20
102.2302876977
 30
0.0
 10
87.4987383628
 20
102.2319621215
 30
0.0
 10
87.5756259345
 20
102.2345961606
 30
0.0
 10
87.6525407305
 20
102.2363376115
 30
0.0
 10
87.6909920226
 20
102.2367492913
 30
0.0
  0
SPLINE
  5
2F8
100
AcDbEntity
  8
0
100
AcDbSpline
 62
7
  6
BYLAYER
 70
0
 71
3
 72
9
 73
5
 74
0
 42
0.0000001
 43
0.0000001
 44
0.0000000001
 40
0.0
 40
0.0
 40
0.0
 40
0.0
 40
0.5012179088
 40
1.0
 40
1.0
 40
1.0
 40
1.0
 10
87.69099068
 20
101.3364711192
 30
0.0
 10
87.6526815392
 20
101.3552594777
 30
0.0
 10
87.5759155743
 20
101.3920621244
 30
0.0
 10
87.4988572389
 20
101.4282459525
 30
0.0
 10
87.4602980516
 20
101.4460259789
 30
0.0
  0
SPLINE
  5
2F9
100
AcDbEntity
  8
0
100
AcDbSpline
 62
7
  6
BYLAYER
 70
0
 71
3
 72
9
 73
5
 74
0
 42
0.0000001
 43
0.0000001
 44
0.0000000001
 40
0.0
 40
0.0
 40
0.0
 40
0.0
 40
0.5010875193
 40
1.0
 40
1.0
 40
1.0
 40
1.0
 10
87.6867622015
 20
101.6143809508
 30
0.0
 10
87.6491398317
 20
101.6298739262
 30
0.0
 10
87.5737691326
 20
101.6600877663
 30
0.0
 10
87.4981398585
 20
101.6896454703
 30
0.0
 10
87.4602980516
 20
101.7041068742
 30
0.0
  0
SPLINE
  5
2FA
100
AcDbEntity
  8
0
100
AcDbSpline
 62
7
  6
BYLAYER
 70
0
 71
3
 72
9
 73
5
 74
0
 42
0.0000001
 43
0.0000001
 44
0.0000000001
 40
0.0
 40
0.0
 40
0.0
 40
0.0
 40
0.5009570045
 40
1.0
 40
1.0
 40
1.0
 40
1.0
 10
87.69099068
 20
101.8402816935
 30
0.0
 10
87.6526552131
 20
101.8529999682
 30
0.0
 10
87.5758601377
 20
101.8775683743
 30
0.0
 10
87.4988338923
 20
101.9013968779
 30
0.0
 10
87.4602980516
 20
101.9129688019
 30
0.0
  0
SPLINE
  5
2FB
100
AcDbEntity
  8
0
100
AcDbSpline
 62
7
  6
BYLAYER
 70
0
 71
3
 72
9
 73
5
 74
0
 42
0.0000001
 43
0.0000001
 44
0.0000000001
 40
0.0
 40
0.0
 40
0.0
 40
0.0
 40
0.5007395082
 40
1.0
 40
1.0
 40
1.0
 40
1.0
 10
87.69099068
 20
102.017670224
 30
0.0
 10
87.6526328153
 20
102.0271955695
 30
0.0
 10
87.5758139779
 20
102.0453410027
 30
0.0
 10
87.4988147772
 20
102.0626971812
 30
0.0
 10
87.4602980516
 20
102.0710221965
 30
0.0
  0
SPLINE
  5
2FC
100
AcDbEntity
  8
0
100
AcDbSpline
 62
7
  6
BYLAYER
 70
0
 71
3
 72
9
 73
5
 74
0
 42
0.0000001
 43
0.0000001
 44
0.0000000001
 40
0.0
 40
0.0
 40
0.0
 40
0.0
 40
0.500471711
 40
1.0
 40
1.0
 40
1.0
 40
1.0
 10
87.69099068
 20
102.1434533803
 30
0.0
 10
87.6526049509
 20
102.1497104144
 30
0.0
 10
87.5757571802
 20
102.161291371
 30
0.0
 10
87.4987914601
 20
102.1720467272
 30
0.0
 10
87.4602980516
 20
102.1770641762
 30
0.0
  0
SPLINE
  5
2FD
100
AcDbEntity
  8
0
100
AcDbSpline
 62
7
  6
BYLAYER
 70
0
 71
3
 72
9
 73
5
 74
0
 42
0.0000001
 43
0.0000001
 44
0.0000000001
 40
0.0
 40
0.0
 40
0.0
 40
0.0
 40
0.5001684492
 40
1.0
 40
1.0
 40
1.0
 40
1.0
 10
87.69099068
 20
102.2166738768
 30
0.0
 10
87.6525730908
 20
102.2196104954
 30
0.0
 10
87.5756929042
 20
102.2245339583
 30
0.0
 10
87.4987652852
 20
102.2286121012
 30
0.0
 10
87.4602980516
 20
102.2302876977
 30
0.0
  0
SPLINE
  5
2FE
100
AcDbEntity
  8
0
100
AcDbSpline
 62
7
  6
BYLAYER
 70
0
 71
3
 72
9
 73
5
 74
0
 42
0.0000001
 43
0.0000001
 44
0.0000000001
 40
0.0
 40
0.0
 40
0.0
 40
0.0
 40
0.4944827906
 40
1.0
 40
1.0
 40
1.0
 40
1.0
 10
99.1844178373
 20
95.9861468028
 30
0.0
 10
99.1426685651
 20
96.1616702696
 30
0.0
 10
99.0334435032
 20
96.511139124
 30
0.0
 10
98.8789005291
 20
96.8429077182
 30
0.0
 10
98.7908134037
 20
97.0049605938
 30
0.0
  0
SPLINE
  5
2FF
100
AcDbEntity
  8
0
100
AcDbSpline
 62
7
  6
BYLAYER
 70
0
 71
3
 72
13
 73
9
 74
0
 42
0.0000001
 43
0.0000001
 44
0.0000000001
 40
0.0
 40
0.0
 40
0.0
 40
0.0
 40
0.0921385225
 40
0.1760264909
 40
0.2882086744
 40
0.4283098514
 40
0.5952890637
 40
1.0
 40
1.0
 40
1.0
 40
1.0
 10
99.2163407682
 20
95.7264459981
 30
0.0
 10
99.2182775871
 20
95.7264459981
 30
0.0
 10
99.2208220398
 20
95.7304927939
 30
0.0
 10
99.2224464053
 20
95.7359500036
 30
0.0
 10
99.2238833453
 20
95.7430148685
 30
0.0
 10
99.2249402809
 20
95.7517206263
 30
0.0
 10
99.2260562941
 20
95.7666670917
 30
0.0
 10
99.2262681706
 20
95.7786829108
 30
0.0
 10
99.2262563117
 20
95.7871902213
 30
0.0
  0
SPLINE
  5
300
100
AcDbEntity
  8
0
100
AcDbSpline
 62
7
  6
BYLAYER
 70
0
 71
3
 72
13
 73
9
 74
0
 42
0.0000001
 43
0.0000001
 44
0.0000000001
 40
0.0
 40
0.0
 40
0.0
 40
0.0
 40
0.4047068165
 40
0.5716830127
 40
0.7117868408
 40
0.8239739226
 40
0.9078636476
 40
1.0
 40
1.0
 40
1.0
 40
1.0
 10
99.2262564233
 20
94.6867102163
 30
0.0
 10
99.2262683903
 20
94.6952174234
 30
0.0
 10
99.2260564228
 20
94.7072330784
 30
0.0
 10
99.2249401315
 20
94.722179394
 30
0.0
 10
99.2238831888
 20
94.7308852312
 30
0.0
 10
99.2224463265
 20
94.737950284
 30
0.0
 10
99.2208221269
 20
94.7434076655
 30
0.0
 10
99.2182775377
 20
94.7474542951
 30
0.0
 10
99.2163407682
 20
94.7474542951
 30
0.0
  0
SPLINE
  5
301
100
AcDbEntity
  8
0
100
AcDbSpline
 62
7
  6
BYLAYER
 70
0
 71
3
 72
9
 73
5
 74
0
 42
0.0000001
 43
0.0000001
 44
0.0000000001
 40
0.0
 40
0.0
 40
0.0
 40
0.0
 40
0.5055383123
 40
1.0
 40
1.0
 40
1.0
 40
1.0
 10
98.7908434193
 20
93.4689355315
 30
0.0
 10
98.8789333423
 20
93.6309967556
 30
0.0
 10
99.033444109
 20
93.9627835065
 30
0.0
 10
99.1426654911
 20
94.3122526377
 30
0.0
 10
99.1844215554
 20
94.4877675508
 30
0.0
  0
SPLINE
  5
302
100
AcDbEntity
  8
0
100
AcDbSpline
 62
7
  6
BYLAYER
 70
0
 71
3
 72
9
 73
5
 74
0
 42
0.0000001
 43
0.0000001
 44
0.0000000001
 40
0.0
 40
0.0
 40
0.0
 40
0.0
 40
0.4911623583
 40
1.0
 40
1.0
 40
1.0
 40
1.0
 10
99.2109456595
 20
94.4381221709
 30
0.0
 10
99.170631133
 20
94.2693078258
 30
0.0
 10
99.0570240359
 20
93.9325104728
 30
0.0
 10
98.8881527582
 20
93.6201358562
 30
0.0
 10
98.7908434193
 20
93.4689355315
 30
0.0
  0
SPLINE
  5
303
100
AcDbEntity
  8
0
100
AcDbSpline
 62
7
  6
BYLAYER
 70
0
 71
3
 72
9
 73
5
 74
0
 42
0.0000001
 43
0.0000001
 44
0.0000000001
 40
0.0
 40
0.0
 40
0.0
 40
0.0
 40
0.5087981924
 40
1.0
 40
1.0
 40
1.0
 40
1.0
 10
98.7908134037
 20
97.0049605938
 30
0.0
 10
98.8881262135
 20
96.8537627741
 30
0.0
 10
99.0570460503
 20
96.5413820066
 30
0.0
 10
99.1706348367
 20
96.2045476822
 30
0.0
 10
99.2109538457
 20
96.0357064652
 30
0.0
  0
SPLINE
  5
304
100
AcDbEntity
  8
0
100
AcDbSpline
 62
7
  6
BYLAYER
 70
0
 71
3
 72
9
 73
5
 74
0
 42
0.0000001
 43
0.0000001
 44
0.0000000001
 40
0.0
 40
0.0
 40
0.0
 40
0.0
 40
0.4894726678
 40
1.0
 40
1.0
 40
1.0
 40
1.0
 10
74.8909906808
 20
89.4769501552
 30
0.0
 10
74.8909906808
 20
89.5312574222
 30
0.0
 10
74.9087536788
 20
89.6425657389
 30
0.0
 10
74.952892184
 20
89.7451737889
 30
0.0
 10
74.9790843987
 20
89.7953975942
 30
0.0
  0
SPLINE
  5
305
100
AcDbEntity
  8
0
100
AcDbSpline
 62
7
  6
BYLAYER
 70
0
 71
3
 72
9
 73
5
 74
0
 42
0.0000001
 43
0.0000001
 44
0.0000000001
 40
0.0
 40
0.0
 40
0.0
 40
0.0
 40
0.4911145896
 40
1.0
 40
1.0
 40
1.0
 40
1.0
 10
75.0083111349
 20
89.8480814349
 30
0.0
 10
75.0594017502
 20
89.9351411541
 30
0.0
 10
75.1824781228
 20
90.1009910203
 30
0.0
 10
75.3195318801
 20
90.2541377531
 30
0.0
 10
75.39099068
 20
90.3305186748
 30
0.0
  0
SPLINE
  5
306
100
AcDbEntity
  8
0
100
AcDbSpline
 62
7
  6
BYLAYER
 70
0
 71
3
 72
14
 73
10
 74
0
 42
0.0000001
 43
0.0000001
 44
0.0000000001
 40
0.0
 40
0.0
 40
0.0
 40
0.0
 40
0.0195476862
 40
0.076675484
 40
0.1689622682
 40
0.2933738993
 40
0.4449065784
 40
0.6176284322
 40
1.0
 40
1.0
 40
1.0
 40
1.0
 10
58.8408513077
 20
86.2369501552
 30
0.0
 10
58.8457405133
 20
86.2371526138
 30
0.0
 10
58.8648415407
 20
86.2391926543
 30
0.0
 10
58.9070335671
 20
86.2420871098
 30
0.0
 10
58.9753813593
 20
86.2473651515
 30
0.0
 10
59.0673807084
 20
86.2531531385
 30
0.0
 10
59.1795413398
 20
86.259097783
 30
0.0
 10
59.3563005036
 20
86.2660185368
 30
0.0
 10
59.495271148
 20
86.2682545893
 30
0.0
 10
59.59099068
 20
86.2682545893
 30
0.0
  0
ELLIPSE
  5
307
100
AcDbEntity
  8
0
100
AcDbEllipse
 62
7
  6
BYLAYER
 10
87.39099068
 20
95.2369501466
 30
0.0
 11
7.0090424449
 21
6.9990007101
 31
0.0
 40
0.0168746812
 41
1.5004271478
 42
1.5494062175
  0
ELLIPSE
  5
308
100
AcDbEntity
  8
0
100
AcDbEllipse
 62
7
  6
BYLAYER
 10
87.39099068
 20
95.2369501466
 30
0.0
 11
5.1035131576
 21
-5.0988284099
 31
0.0
 40
0.0214187318
 41
1.5493611992
 42
1.5876485921
  0
ELLIPSE
  5
309
100
AcDbEntity
  8
0
100
AcDbEllipse
 62
7
  6
BYLAYER
 10
87.39099068
 20
95.2369501466
 30
0.0
 11
5.1035131576
 21
5.0988284099
 31
0.0
 40
0.0214187318
 41
-1.5921921319
 42
-1.5493611992
  0
ELLIPSE
  5
30A
100
AcDbEntity
  8
0
100
AcDbEllipse
 62
7
  6
BYLAYER
 10
87.39099068
 20
95.2369501466
 30
0.0
 11
7.0046995794
 21
-6.9982691956
 31
0.0
 40
0.0222214121
 41
-1.5485989606
 42
-1.5057680279
  0
ELLIPSE
  5
30B
100
AcDbEntity
  8
0
100
AcDbEllipse
 62
7
  6
BYLAYER
 10
87.39099068
 20
95.2369501466
 30
0.0
 11
5.093905436
 21
5.0891939972
 31
0.0
 40
0.0651405731
 41
-1.6312414619
 42
-1.6012641819
  0
ELLIPSE
  5
30C
100
AcDbEntity
  8
0
100
AcDbEllipse
 62
7
  6
BYLAYER
 10
87.39099068
 20
95.2369501466
 30
0.0
 11
6.9972463369
 21
-6.9871534483
 31
0.0
 40
0.0605802122
 41
-1.5058359245
 42
-1.4568568548
  0
ELLIPSE
  5
30D
100
AcDbEntity
  8
0
100
AcDbEllipse
 62
7
  6
BYLAYER
 10
87.39099068
 20
95.2369501466
 30
0.0
 11
5.0742427062
 21
5.0667840844
 31
0.0
 40
0.1145232537
 41
-1.6747696059
 42
-1.6539813343
  0
ELLIPSE
  5
30E
100
AcDbEntity
  8
0
100
AcDbEllipse
 62
7
  6
BYLAYER
 10
87.39099068
 20
95.2369501466
 30
0.0
 11
6.9721699496
 21
-6.9619663647
 31
0.0
 40
0.1045175565
 41
-1.4569211466
 42
-1.4132879153
  0
ELLIPSE
  5
30F
100
AcDbEntity
  8
0
100
AcDbEllipse
 62
7
  6
BYLAYER
 10
87.39099068
 20
95.2369501466
 30
0.0
 11
5.0441563655
 21
5.0365595245
 31
0.0
 40
0.1589790734
 41
-1.7183354108
 42
-1.7145965676
  0
ELLIPSE
  5
310
100
AcDbEntity
  8
0
100
AcDbEllipse
 62
7
  6
BYLAYER
 10
87.39099068
 20
95.2369501466
 30
0.0
 11
6.9338632133
 21
-6.9234852056
 31
0.0
 40
0.1488577385
 41
-1.4133546296
 42
-1.3697213983
  0
ELLIPSE
  5
311
100
AcDbEntity
  8
0
100
AcDbEllipse
 62
7
  6
BYLAYER
 10
87.39099068
 20
95.2369501466
 30
0.0
 11
5.0045018736
 21
4.9967138927
 31
0.0
 40
0.2040563545
 41
-1.761897254
 42
-1.7592813592
  0
ELLIPSE
  5
312
100
AcDbEntity
  8
0
100
AcDbEllipse
 62
7
  6
BYLAYER
 10
87.39099068
 20
95.2369501466
 30
0.0
 11
6.8824026613
 21
-6.8717796033
 31
0.0
 40
0.1937780451
 41
-1.3697917639
 42
-1.3261585326
  0
ELLIPSE
  5
313
100
AcDbEntity
  8
0
100
AcDbEllipse
 62
7
  6
BYLAYER
 10
87.39099068
 20
95.2369501466
 30
0.0
 11
4.9553590018
 21
4.9473187448
 31
0.0
 40
0.2499440643
 41
-1.8054535721
 42
-1.8034566161
  0
ELLIPSE
  5
314
100
AcDbEntity
  8
0
100
AcDbEllipse
 62
7
  6
BYLAYER
 10
87.39099068
 20
95.2369501466
 30
0.0
 11
6.8178916556
 21
-6.8069425708
 31
0.0
 40
0.2394649321
 41
-1.3262340371
 42
-1.2826008058
  0
ELLIPSE
  5
315
100
AcDbEntity
  8
0
100
AcDbEllipse
 62
7
  6
BYLAYER
 10
87.39099068
 20
95.2369501466
 30
0.0
 11
4.8968274654
 21
4.8884619287
 31
0.0
 40
0.2968443431
 41
-1.8490023632
 42
-1.8474133582
  0
ELLIPSE
  5
316
100
AcDbEntity
  8
0
100
AcDbEllipse
 62
7
  6
BYLAYER
 10
87.39099068
 20
95.2369501466
 30
0.0
 11
6.7404608004
 21
-6.7290897135
 31
0.0
 40
0.2861172432
 41
-1.2826833349
 42
-1.2390501036
  0
ELLIPSE
  5
317
100
AcDbEntity
  8
0
100
AcDbEllipse
 62
7
  6
BYLAYER
 10
87.39099068
 20
95.2369501466
 30
0.0
 11
4.8290275392
 21
4.8202466094
 31
0.0
 40
0.3449762775
 41
-1.8925409539
 42
-1.8912448882
  0
ELLIPSE
  5
318
100
AcDbEntity
  8
0
100
AcDbEllipse
 62
7
  6
BYLAYER
 10
87.39099068
 20
95.2369501466
 30
0.0
 11
6.6502686821
 21
-6.6383580172
 31
0.0
 40
0.3339498651
 41
-1.2391421521
 42
-1.1955089208
  0
ELLIPSE
  5
319
100
AcDbEntity
  8
0
100
AcDbEllipse
 62
7
  6
BYLAYER
 10
87.39099068
 20
95.2369501466
 30
0.0
 11
4.7521011676
 21
4.7427897296
 31
0.0
 40
0.3945802962
 41
-1.9360656216
 42
-1.9349930881
  0
ELLIPSE
  5
31A
100
AcDbEntity
  8
0
100
AcDbEllipse
 62
7
  6
BYLAYER
 10
87.39099068
 20
95.2369501466
 30
0.0
 11
6.5475032008
 21
-6.5349039496
 31
0.0
 40
0.3831979662
 41
-1.1956139293
 42
-1.151980698
  0
ELLIPSE
  5
31B
100
AcDbEntity
  8
0
100
AcDbEllipse
 62
7
  6
BYLAYER
 10
87.39099068
 20
95.2369501466
 30
0.0
 11
4.6662140021
 21
4.6562194712
 31
0.0
 40
0.4459233868
 41
-1.9795709527
 42
-1.9786770248
  0
ELLIPSE
  5
31C
100
AcDbEntity
  8
0
100
AcDbEllipse
 62
7
  6
BYLAYER
 10
87.39099068
 20
95.2369501466
 30
0.0
 11
6.4323840013
 21
-6.4189003629
 31
0.0
 40
0.434122008
 41
-1.1521036198
 42
-1.1084703885
  0
ELLIPSE
  5
31D
100
AcDbEntity
  8
0
100
AcDbEllipse
 62
7
  6
BYLAYER
 10
87.39099068
 20
95.2369501466
 30
0.0
 11
4.571559276
 21
4.5606708039
 31
0.0
 40
0.4993053872
 41
-2.0230486825
 42
-2.0223027847
  0
ELLIPSE
  5
31E
100
AcDbEntity
  8
0
100
AcDbEllipse
 62
7
  6
BYLAYER
 10
87.39099068
 20
95.2369501466
 30
0.0
 11
6.3051670535
 21
-6.2905311482
 31
0.0
 40
0.4870137667
 41
-1.1086186981
 42
-1.0649854668
  0
ELLIPSE
  5
31F
100
AcDbEntity
  8
0
100
AcDbEllipse
 62
7
  6
BYLAYER
 10
87.39099068
 20
95.2369501466
 30
0.0
 11
4.4683655583
 21
4.4562770691
 31
0.0
 40
0.5550666837
 41
-2.0664854502
 42
-2.0658660089
  0
ELLIPSE
  5
320
100
AcDbEntity
  8
0
100
AcDbEllipse
 62
7
  6
BYLAYER
 10
87.39099068
 20
95.2369501466
 30
0.0
 11
6.1661536952
 21
-6.1499813106
 31
0.0
 40
0.5422036784
 41
-1.0651710796
 42
-1.0215378483
  0
ELLIPSE
  5
321
100
AcDbEntity
  8
0
100
AcDbEllipse
 62
7
  6
BYLAYER
 10
87.39099068
 20
95.2369501466
 30
0.0
 11
4.3569134644
 21
4.3431524851
 31
0.0
 40
0.6135977546
 41
-2.1098580551
 42
-2.1093494623
  0
ELLIPSE
  5
322
100
AcDbEntity
  8
0
100
AcDbEllipse
 62
7
  6
BYLAYER
 10
87.39099068
 20
95.2369501466
 30
0.0
 11
6.0157097548
 21
-5.9974168173
 31
0.0
 40
0.6000699194
 41
-1.0217810897
 42
-0.9781478584
  0
ELLIPSE
  5
323
100
AcDbEntity
  8
0
100
AcDbEllipse
 62
7
  6
BYLAYER
 10
87.39099068
 20
95.2369501466
 30
0.0
 11
5.8543100937
 21
-5.8329387578
 31
0.0
 40
0.6610497746
 41
-0.9784865907
 42
-0.9348533594
  0
ELLIPSE
  5
324
100
AcDbEntity
  8
0
100
AcDbEllipse
 62
7
  6
BYLAYER
 10
87.39099068
 20
95.2369501466
 30
0.0
 11
5.6826578387
 21
-5.6564620859
 31
0.0
 40
0.7256540395
 41
-0.9353672605
 42
-0.8917340292
  0
ELLIPSE
  5
325
100
AcDbEntity
  8
0
100
AcDbEllipse
 62
7
  6
BYLAYER
 10
87.39099068
 20
95.2369501466
 30
0.0
 11
5.5020781518
 21
-5.4673167446
 31
0.0
 40
0.7944854502
 41
-0.8926246074
 42
-0.8489913761
  0
ELLIPSE
  5
326
100
AcDbEntity
  8
0
100
AcDbEllipse
 62
7
  6
BYLAYER
 10
87.39099068
 20
95.2369501466
 30
0.0
 11
5.3163747112
 21
-5.2623639074
 31
0.0
 40
0.8682622735
 41
-0.8509595305
 42
-0.8073262992
  0
ELLIPSE
  5
327
100
AcDbEntity
  8
0
100
AcDbEllipse
 62
7
  6
BYLAYER
 10
87.39099068
 20
95.2369501466
 30
0.0
 11
5.1517219753
 21
-5.0155772056
 31
0.0
 40
0.9478443058
 41
-0.8156417392
 42
-0.7720085079
  0
ELLIPSE
  5
328
100
AcDbEntity
  8
0
100
AcDbEllipse
 62
7
  6
BYLAYER
 10
87.39099068
 20
95.2369501466
 30
0.0
 11
5.0947007248
 21
-5.087332942
 31
0.0
 40
0.070509795
 41
1.5938827003
 42
1.6312011173
  0
ELLIPSE
  5
329
100
AcDbEntity
  8
0
100
AcDbEllipse
 62
7
  6
BYLAYER
 10
87.39099068
 20
95.2369501466
 30
0.0
 11
6.9972463369
 21
6.9871534483
 31
0.0
 40
0.0605802122
 41
1.4568568548
 42
1.5004900861
  0
ELLIPSE
  5
32A
100
AcDbEntity
  8
0
100
AcDbEllipse
 62
7
  6
BYLAYER
 10
87.39099068
 20
95.2369501466
 30
0.0
 11
5.0742427062
 21
-5.0667840844
 31
0.0
 40
0.1145232537
 41
1.653981168
 42
1.6747696059
  0
ELLIPSE
  5
32B
100
AcDbEntity
  8
0
100
AcDbEllipse
 62
7
  6
BYLAYER
 10
87.39099068
 20
95.2369501466
 30
0.0
 11
6.9721699496
 21
6.9619663647
 31
0.0
 40
0.1045175565
 41
1.4132879153
 42
1.4569211466
  0
ELLIPSE
  5
32C
100
AcDbEntity
  8
0
100
AcDbEllipse
 62
7
  6
BYLAYER
 10
87.39099068
 20
95.2369501466
 30
0.0
 11
5.0441563655
 21
-5.0365595245
 31
0.0
 40
0.1589790734
 41
1.7145965676
 42
1.7183354108
  0
ELLIPSE
  5
32D
100
AcDbEntity
  8
0
100
AcDbEllipse
 62
7
  6
BYLAYER
 10
87.39099068
 20
95.2369501466
 30
0.0
 11
6.9338632133
 21
6.9234852056
 31
0.0
 40
0.1488577385
 41
1.3697213983
 42
1.4133546296
  0
ELLIPSE
  5
32E
100
AcDbEntity
  8
0
100
AcDbEllipse
 62
7
  6
BYLAYER
 10
87.39099068
 20
95.2369501466
 30
0.0
 11
5.0045018736
 21
-4.9967138927
 31
0.0
 40
0.2040563545
 41
1.7592813592
 42
1.761897254
  0
ELLIPSE
  5
32F
100
AcDbEntity
  8
0
100
AcDbEllipse
 62
7
  6
BYLAYER
 10
87.39099068
 20
95.2369501466
 30
0.0
 11
6.8824026613
 21
6.8717796033
 31
0.0
 40
0.1937780451
 41
1.3261585326
 42
1.3697917639
  0
ELLIPSE
  5
330
100
AcDbEntity
  8
0
100
AcDbEllipse
 62
7
  6
BYLAYER
 10
87.39099068
 20
95.2369501466
 30
0.0
 11
4.9553590018
 21
-4.9473187448
 31
0.0
 40
0.2499440643
 41
1.8034566161
 42
1.8054535721
  0
ELLIPSE
  5
331
100
AcDbEntity
  8
0
100
AcDbEllipse
 62
7
  6
BYLAYER
 10
87.39099068
 20
95.2369501466
 30
0.0
 11
6.8178916556
 21
6.8069425708
 31
0.0
 40
0.2394649321
 41
1.2826008058
 42
1.3262340371
  0
ELLIPSE
  5
332
100
AcDbEntity
  8
0
100
AcDbEllipse
 62
7
  6
BYLAYER
 10
87.39099068
 20
95.2369501466
 30
0.0
 11
4.8968274654
 21
-4.8884619287
 31
0.0
 40
0.2968443431
 41
1.8474133582
 42
1.8490023632
  0
ELLIPSE
  5
333
100
AcDbEntity
  8
0
100
AcDbEllipse
 62
7
  6
BYLAYER
 10
87.39099068
 20
95.2369501466
 30
0.0
 11
6.7404608004
 21
6.7290897135
 31
0.0
 40
0.2861172432
 41
1.2390501036
 42
1.2826833349
  0
ELLIPSE
  5
334
100
AcDbEntity
  8
0
100
AcDbEllipse
 62
7
  6
BYLAYER
 10
87.39099068
 20
95.2369501466
 30
0.0
 11
4.8290275392
 21
-4.8202466094
 31
0.0
 40
0.3449762775
 41
1.8912448882
 42
1.8925409539
  0
ELLIPSE
  5
335
100
AcDbEntity
  8
0
100
AcDbEllipse
 62
7
  6
BYLAYER
 10
87.39099068
 20
95.2369501466
 30
0.0
 11
6.6502686821
 21
6.6383580172
 31
0.0
 40
0.3339498651
 41
1.1955089208
 42
1.2391421521
  0
ELLIPSE
  5
336
100
AcDbEntity
  8
0
100
AcDbEllipse
 62
7
  6
BYLAYER
 10
87.39099068
 20
95.2369501466
 30
0.0
 11
4.7521011676
 21
-4.7427897296
 31
0.0
 40
0.3945802962
 41
1.9349930881
 42
1.9360656216
  0
ELLIPSE
  5
337
100
AcDbEntity
  8
0
100
AcDbEllipse
 62
7
  6
BYLAYER
 10
87.39099068
 20
95.2369501466
 30
0.0
 11
6.5475032008
 21
6.5349039496
 31
0.0
 40
0.3831979662
 41
1.151980698
 42
1.1956139293
  0
ELLIPSE
  5
338
100
AcDbEntity
  8
0
100
AcDbEllipse
 62
7
  6
BYLAYER
 10
87.39099068
 20
95.2369501466
 30
0.0
 11
4.6662140021
 21
-4.6562194712
 31
0.0
 40
0.4459233868
 41
1.9786770248
 42
1.9795709527
  0
ELLIPSE
  5
339
100
AcDbEntity
  8
0
100
AcDbEllipse
 62
7
  6
BYLAYER
 10
87.39099068
 20
95.2369501466
 30
0.0
 11
6.4323840013
 21
6.4189003629
 31
0.0
 40
0.434122008
 41
1.1084703885
 42
1.1521036198
  0
ELLIPSE
  5
33A
100
AcDbEntity
  8
0
100
AcDbEllipse
 62
7
  6
BYLAYER
 10
87.39099068
 20
95.2369501466
 30
0.0
 11
4.571559276
 21
-4.5606708039
 31
0.0
 40
0.4993053872
 41
2.0223027847
 42
2.0230486825
  0
ELLIPSE
  5
33B
100
AcDbEntity
  8
0
100
AcDbEllipse
 62
7
  6
BYLAYER
 10
87.39099068
 20
95.2369501466
 30
0.0
 11
6.3051670535
 21
6.2905311482
 31
0.0
 40
0.4870137667
 41
1.0649854668
 42
1.1086186981
  0
ELLIPSE
  5
33C
100
AcDbEntity
  8
0
100
AcDbEllipse
 62
7
  6
BYLAYER
 10
87.39099068
 20
95.2369501466
 30
0.0
 11
4.4683655583
 21
-4.4562770691
 31
0.0
 40
0.5550666837
 41
2.0658660089
 42
2.0664854502
  0
ELLIPSE
  5
33D
100
AcDbEntity
  8
0
100
AcDbEllipse
 62
7
  6
BYLAYER
 10
87.39099068
 20
95.2369501466
 30
0.0
 11
4.3569134644
 21
-4.3431524851
 31
0.0
 40
0.6135977546
 41
2.1093494623
 42
2.1098580551
  0
ELLIPSE
  5
33E
100
AcDbEntity
  8
0
100
AcDbEllipse
 62
7
  6
BYLAYER
 10
87.39099068
 20
95.2369501466
 30
0.0
 11
5.6424505175
 21
5.6147601467
 31
0.0
 40
0.7408567266
 41
-2.1961815261
 42
-2.1525482948
  0
ELLIPSE
  5
33F
100
AcDbEntity
  8
0
100
AcDbEllipse
 62
7
  6
BYLAYER
 10
87.39099068
 20
95.2369501466
 30
0.0
 11
6.5224917986
 21
6.5097113936
 31
0.0
 40
0.3945802962
 41
-1.9360656216
 42
-1.8924323903
  0
ELLIPSE
  5
340
100
AcDbEntity
  8
0
100
AcDbEllipse
 62
7
  6
BYLAYER
 10
87.39099068
 20
95.2369501466
 30
0.0
 11
6.8689241402
 21
-6.8582347547
 31
0.0
 40
0.2040563545
 41
1.7182640227
 42
1.761897254
  0
ELLIPSE
  5
341
100
AcDbEntity
  8
0
100
AcDbEllipse
 62
7
  6
BYLAYER
 10
87.39099068
 20
95.2369501466
 30
0.0
 11
6.8014731398
 21
6.7904374929
 31
0.0
 40
0.2499440643
 41
-1.8054535721
 42
-1.7618203408
  0
ELLIPSE
  5
342
100
AcDbEntity
  8
0
100
AcDbEllipse
 62
7
  6
BYLAYER
 10
87.39099068
 20
95.2369501466
 30
0.0
 11
5.4601959557
 21
5.4224896643
 31
0.0
 40
0.8107411185
 41
-2.238777992
 42
-2.1951447607
  0
ELLIPSE
  5
343
100
AcDbEntity
  8
0
100
AcDbEllipse
 62
7
  6
BYLAYER
 10
87.39099068
 20
95.2369501466
 30
0.0
 11
6.8689241402
 21
6.8582347547
 31
0.0
 40
0.2040563545
 41
-1.761897254
 42
-1.7182640227
  0
ELLIPSE
  5
344
100
AcDbEntity
  8
0
100
AcDbEllipse
 62
7
  6
BYLAYER
 10
87.39099068
 20
95.2369501466
 30
0.0
 11
6.8014731398
 21
-6.7904374929
 31
0.0
 40
0.2499440643
 41
1.7618203408
 42
1.8054535721
  0
ELLIPSE
  5
345
100
AcDbEntity
  8
0
100
AcDbEllipse
 62
7
  6
BYLAYER
 10
87.39099068
 20
95.2369501466
 30
0.0
 11
6.4046074538
 21
6.3908894703
 31
0.0
 40
0.4459233868
 41
4.3036143545
 42
4.3472475858
  0
ELLIPSE
  5
346
100
AcDbEntity
  8
0
100
AcDbEllipse
 62
7
  6
BYLAYER
 10
87.39099068
 20
95.2369501466
 30
0.0
 11
5.2748031724
 21
5.212563825
 31
0.0
 40
0.8857526005
 41
-2.2799098997
 42
-2.2362766684
  0
ELLIPSE
  5
347
100
AcDbEntity
  8
0
100
AcDbEllipse
 62
7
  6
BYLAYER
 10
87.39099068
 20
95.2369501466
 30
0.0
 11
5.9800773041
 21
5.9611896855
 31
0.0
 40
0.6135977546
 41
-2.1098580551
 42
-2.0662248238
  0
ELLIPSE
  5
348
100
AcDbEntity
  8
0
100
AcDbEllipse
 62
7
  6
BYLAYER
 10
87.39099068
 20
95.2369501466
 30
0.0
 11
6.7211357368
 21
-6.7096536277
 31
0.0
 40
0.2968443431
 41
1.8053691319
 42
1.8490023632
  0
ELLIPSE
  5
349
100
AcDbEntity
  8
0
100
AcDbEllipse
 62
7
  6
BYLAYER
 10
87.39099068
 20
95.2369501466
 30
0.0
 11
6.7211357368
 21
6.7096536277
 31
0.0
 40
0.2968443431
 41
-1.8490023632
 42
-1.8053691319
  0
ELLIPSE
  5
34A
100
AcDbEntity
  8
0
100
AcDbEllipse
 62
7
  6
BYLAYER
 10
87.39099068
 20
95.2369501466
 30
0.0
 11
5.1419756338
 21
4.9282361724
 31
0.0
 40
0.9667812598
 41
-2.3082247101
 42
-2.2645914788
  0
ELLIPSE
  5
34B
100
AcDbEntity
  8
0
100
AcDbEllipse
 62
7
  6
BYLAYER
 10
87.39099068
 20
95.2369501466
 30
0.0
 11
6.6280770146
 21
-6.6160247579
 31
0.0
 40
0.3449762775
 41
1.8489077226
 42
1.8925409539
  0
ELLIPSE
  5
34C
100
AcDbEntity
  8
0
100
AcDbEllipse
 62
7
  6
BYLAYER
 10
87.39099068
 20
95.2369501466
 30
0.0
 11
6.9916349122
 21
6.9851682314
 31
0.0
 40
0.0651405731
 41
-1.6312414619
 42
-1.592954069
  0
ELLIPSE
  5
34D
100
AcDbEntity
  8
0
100
AcDbEllipse
 62
7
  6
BYLAYER
 10
87.39099068
 20
95.2369501466
 30
0.0
 11
6.2746892024
 21
6.2597442407
 31
0.0
 40
0.4993053872
 41
-2.0230486825
 42
-1.9794154512
  0
ELLIPSE
  5
34E
100
AcDbEntity
  8
0
100
AcDbEllipse
 62
7
  6
BYLAYER
 10
87.39099068
 20
95.2369501466
 30
0.0
 11
6.5224917986
 21
-6.5097113936
 31
0.0
 40
0.3945802962
 41
1.8924323903
 42
1.9360656216
  0
ELLIPSE
  5
34F
100
AcDbEntity
  8
0
100
AcDbEllipse
 62
7
  6
BYLAYER
 10
87.39099068
 20
95.2369501466
 30
0.0
 11
6.992726485
 21
-6.9826138419
 31
0.0
 40
0.070509795
 41
1.587567886
 42
1.6312011173
  0
ELLIPSE
  5
350
100
AcDbEntity
  8
0
100
AcDbEllipse
 62
7
  6
BYLAYER
 10
87.39099068
 20
95.2369501466
 30
0.0
 11
7.004821981
 21
-6.9983919351
 31
0.0
 40
0.0214187318
 41
1.5493611992
 42
1.5876485921
  0
ELLIPSE
  5
351
100
AcDbEntity
  8
0
100
AcDbEllipse
 62
7
  6
BYLAYER
 10
87.39099068
 20
95.2369501466
 30
0.0
 11
6.6280770146
 21
6.6160247579
 31
0.0
 40
0.3449762775
 41
-1.8925409539
 42
-1.8489077226
  0
ELLIPSE
  5
352
100
AcDbEntity
  8
0
100
AcDbEllipse
 62
7
  6
BYLAYER
 10
87.39099068
 20
95.2369501466
 30
0.0
 11
6.4046074538
 21
-6.3908894703
 31
0.0
 40
0.4459233868
 41
8.2191230286
 42
8.2627562599
  0
ELLIPSE
  5
353
100
AcDbEntity
  8
0
100
AcDbEllipse
 62
7
  6
BYLAYER
 10
87.39099068
 20
95.2369501466
 30
0.0
 11
5.8162803071
 21
5.7940113596
 31
0.0
 40
0.6753511535
 41
-2.1531222298
 42
-2.1094889985
  0
ELLIPSE
  5
354
100
AcDbEntity
  8
0
100
AcDbEllipse
 62
7
  6
BYLAYER
 10
87.39099068
 20
95.2369501466
 30
0.0
 11
6.9646468516
 21
-6.9544095276
 31
0.0
 40
0.1145232537
 41
1.6311363746
 42
1.6747696059
  0
ELLIPSE
  5
355
100
AcDbEntity
  8
0
100
AcDbEllipse
 62
7
  6
BYLAYER
 10
87.39099068
 20
95.2369501466
 30
0.0
 11
6.1330507664
 21
6.1164587223
 31
0.0
 40
0.5550666837
 41
-2.0664854502
 42
-2.0228522189
  0
ELLIPSE
  5
356
100
AcDbEntity
  8
0
100
AcDbEllipse
 62
7
  6
BYLAYER
 10
87.39099068
 20
95.2369501466
 30
0.0
 11
6.2746892024
 21
-6.2597442407
 31
0.0
 40
0.4993053872
 41
1.9794154512
 42
2.0230486825
  0
ELLIPSE
  5
357
100
AcDbEntity
  8
0
100
AcDbEllipse
 62
7
  6
BYLAYER
 10
87.39099068
 20
95.2369501466
 30
0.0
 11
7.004821981
 21
6.9983919351
 31
0.0
 40
0.0214187318
 41
-1.5921921319
 42
-1.5493611992
  0
ELLIPSE
  5
358
100
AcDbEntity
  8
0
100
AcDbEllipse
 62
7
  6
BYLAYER
 10
87.39099068
 20
95.2369501466
 30
0.0
 11
6.9233518742
 21
6.9129248375
 31
0.0
 40
0.1589790734
 41
-1.7183354108
 42
-1.6747021795
  0
ELLIPSE
  5
359
100
AcDbEntity
  8
0
100
AcDbEllipse
 62
7
  6
BYLAYER
 10
87.39099068
 20
95.2369501466
 30
0.0
 11
6.1330507664
 21
-6.1164587223
 31
0.0
 40
0.5550666837
 41
2.0228522189
 42
2.0664854502
  0
ELLIPSE
  5
35A
100
AcDbEntity
  8
0
100
AcDbEllipse
 62
7
  6
BYLAYER
 10
87.39099068
 20
95.2369501466
 30
0.0
 11
6.9233518742
 21
-6.9129248375
 31
0.0
 40
0.1589790734
 41
1.6747021795
 42
1.7183354108
  0
ELLIPSE
  5
35B
100
AcDbEntity
  8
0
100
AcDbEllipse
 62
7
  6
BYLAYER
 10
87.39099068
 20
95.2369501466
 30
0.0
 11
6.9646468516
 21
6.9544095276
 31
0.0
 40
0.1145232537
 41
-1.6747696059
 42
-1.6311363746
  0
ENDSEC
  0
SECTION
  2
OBJECTS
  0
DICTIONARY
  5
C
100
AcDbDictionary
280
0
281
1
  3
ACAD_GROUP
350
D
  3
ACAD_MLINESTYLE
350
17
  3
ACAD_LAYOUT
350
1A
  3
ACAD_PLOTSETTINGS
350
19
  3
ACAD_PLOTSTYLENAME
350
E
  0
DICTIONARY
  5
D
102
{ACAD_REACTORS
330
C
102
}
100
AcDbDictionary
280
0
281
1
  0
ACDBDICTIONARYWDFLT
  5
E
102
{ACAD_REACTORS
330
C
102
}
100
AcDbDictionary
281
1
  3
Normal
350
F
100
AcDbDictionaryWithDefault
340
F
  0
DICTIONARY
  5
17
102
{ACAD_REACTORS
330
C
102
}
100
AcDbDictionary
280
0
281
1
  3
Standard
350
18
  0
DICTIONARY
  5
19
102
{ACAD_REACTORS
330
C
102
}
100
AcDbDictionary
281
1
  0
DICTIONARY
  5
1A
102
{ACAD_REACTORS
330
C
102
}
100
AcDbDictionary
281
1
  3
Model
350
35C
  3
Layout1
350
35D
  0
ACDBPLACEHOLDER
  5
F
102
{ACAD_REACTORS
330
E
102
}
  0
MLINESTYLE
  5
18
102
{ACAD_REACTORS
330
17
102
}
100
AcDbMlineStyle
  2
STANDARD
 70
0
  3

 62
256
 51
90.0
 52
90.0
 71
2
 49
0.5
 62
256
  6
BYLAYER
 49
-0.5
 62
256
  6
BYLAYER
  0
LAYOUT
  5
35C
102
{ACAD_REACTORS
330
1A
102
}
100
AcDbPlotSettings
  1

  2
none_device
  4

  6

 40
0.0
 41
0.0
 42
0.0
 43
0.0
 44
210.0
 45
297.0
 46
0.0
 47
0.0
 48
0.0
 49
0.0
140
0.0
141
0.0
142
1.0
143
1.0
 70
1024
 72
1
 73
0
 74
0
  7

 75
0
147
1.0
148
0.0
149
0.0
100
AcDbLayout
  1
Model
 70
0
 71
0
 10
0.0
 20
0.0
 11
210.0
 21
297.0
 12
0.0
 22
0.0
 32
0.0
 14
0.0
 24
0.0
 34
0.0
 15
0.0
 25
0.0
 35
0.0
146
0.0
 13
0.0
 23
0.0
 33
0.0
 16
1.0
 26
0.0
 36
0.0
 17
0.0
 27
1.0
 37
0.0
 76
0
330
210
345
0
346
0
  0
LAYOUT
  5
35D
102
{ACAD_REACTORS
330
1A
102
}
100
AcDbPlotSettings
  1

  2
none_device
  4

  6

 40
0.0
 41
0.0
 42
0.0
 43
0.0
 44
210.0
 45
297.0
 46
0.0
 47
0.0
 48
0.0
 49
0.0
140
0.0
141
0.0
142
1.0
143
1.0
 70
0
 72
1
 73
0
 74
0
  7

 75
0
147
1.0
148
0.0
149
0.0
100
AcDbLayout
  1
Layout1
 70
0
 71
1
 10
0.0
 20
0.0
 11
210.0
 21
297.0
 12
0.0
 22
0.0
 32
0.0
 14
0.0
 24
0.0
 34
0.0
 15
0.0
 25
0.0
 35
0.0
146
0.0
 13
0.0
 23
0.0
 33
0.0
 16
1.0
 26
0.0
 36
0.0
 17
0.0
 27
1.0
 37
0.0
 76
0
330
211
345
0
346
0
  0
ENDSEC
  0
EOF
