999
DXF file: C:\Users\sesa63760\Dev\_Creo\CAD\MCADID0002691_3D-CAD\drw0001_1.dxf
999
Pro/ENGINEER 2019471 by Parametric Technology Corporation
  0
SECTION
  2
HEADER
  9
$ACADVER
  1
AC1024
  9
$DWGCODEPAGE
  3
ANSI_1252
  9
$EXTMAX
 10
79.708105799
 20
112.7300353443
 30
0.0
  9
$EXTMIN
 10
0.0
 20
0.0
 30
0.0
  9
$LIMMIN
 10
0.0
 20
0.0
  9
$LIMMAX
 10
79.708105799
 20
112.7300353443
  9
$VIEWCTR
 10
39.8540528995
 20
56.3650176722
  9
$VIEWSIZE
 40
112.7300353443
  9
$CLAYER
  8
0
  9
$LTSCALE
 40
7.3483282299
  9
$CELTYPE
  6
BYLAYER
  9
$DIMSCALE
 40
1.0
  9
$DIMASZ
 40
0.9489060214
  9
$DIMEXO
 40
1.0
  9
$DIMDLI
 40
5.077026777
  9
$DIMEXE
 40
1.0
  9
$DIMCEN
 40
1.2024537103
  9
$DIMLFAC
 40
1.0
  9
$DIMBLK
  1
_FILLED
  9
$DIMALT
 70
0
  9
$DIMALTF
 40
0.0393700787
  9
$DIMTXT
 40
1.32846843
  9
$DIMTOL
 70
1
  9
$DIMLIM
 70
0
  9
$DIMTFAC
 40
1.0
  9
$DIMTP
 40
0.01
  9
$DIMTM
 40
0.01
  9
$DIMGAP
 40
0.625
  9
$DIMDSEP
 70
46
  9
$AUNITS
 70
0
  9
$PDMODE
 70
3
  9
$PDSIZE
 40
0.3125
  9
$HANDSEED
  5
318
  9
$TILEMODE
 70
1
  9
$MEASUREMENT
 70
1
  9
$INSUNITS
 70
4
  0
ENDSEC
  0
SECTION
  2
CLASSES
  0
CLASS
  1
ACDBDICTIONARYWDFLT
  2
AcDbDictionaryWithDefault
  3
AutoCAD 2000
 90
0
 91
1
280
0
281
0
  0
CLASS
  1
ACDBPLACEHOLDER
  2
AcDbPlaceHolder
  3
AutoCAD 2000
 90
0
 91
1
280
0
281
0
  0
CLASS
  1
LAYOUT
  2
AcDbLayout
  3
AutoCAD 2000
 90
0
 91
0
280
0
281
0
  0
ENDSEC
  0
SECTION
  2
TABLES
  0
TABLE
  2
VPORT
  5
8
100
AcDbSymbolTable
 70
2
  0
VPORT
  5
1F4
100
AcDbSymbolTableRecord
100
AcDbViewportTableRecord
  2
*ACTIVE
 70
0
 10
0.0
 20
0.0
 11
1.0
 21
1.0
 12
39.8540528995
 22
56.3650176722
 13
0.0
 23
0.0
 14
1.0
 24
1.0
 15
0.0
 25
0.0
 16
0.0
 26
0.0
 36
1.0
 17
0.0
 27
0.0
 37
0.0
 40
112.7300353443
 41
0.7070707071
 42
50.0
 43
0.0
 44
0.0
 50
0.0
 51
0.0
 71
0
 72
100
 73
1
 74
1
 75
0
 76
0
 77
0
 78
0
  0
ENDTAB
  0
TABLE
  2
LTYPE
  5
5
100
AcDbSymbolTable
 70
6
  0
LTYPE
  5
14
100
AcDbSymbolTableRecord
100
AcDbLinetypeTableRecord
  2
BYBLOCK
 70
0
  3

 72
65
 73
0
 40
0.0
  0
LTYPE
  5
15
100
AcDbSymbolTableRecord
100
AcDbLinetypeTableRecord
  2
BYLAYER
 70
0
  3

 72
65
 73
0
 40
0.0
  0
LTYPE
  5
16
100
AcDbSymbolTableRecord
100
AcDbLinetypeTableRecord
  2
CONTINUOUS
 70
64
  3
Solid line
 72
65
 73
0
 40
0.0
  0
LTYPE
  5
1F5
100
AcDbSymbolTableRecord
100
AcDbLinetypeTableRecord
  2
CENTER
 70
64
  3
____ _ ____ _ ____ _ ____ _ ____ _ ____ _ ____
 72
65
 73
4
 40
0.6
 49
0.375
 74
0
 49
-0.075
 74
0
 49
0.075
 74
0
 49
-0.075
 74
0
  0
LTYPE
  5
1F6
100
AcDbSymbolTableRecord
100
AcDbLinetypeTableRecord
  2
HIDDEN
 70
64
  3
- - - - - - - - - - - - - - - - - - - -
 72
65
 73
2
 40
0.2
 49
0.1
 74
0
 49
-0.1
 74
0
  0
LTYPE
  5
1F7
100
AcDbSymbolTableRecord
100
AcDbLinetypeTableRecord
  2
PHANTOM
 70
64
  3
_____ _ _ _____ _ _ _____ _ _ _____
 72
65
 73
6
 40
0.8
 49
0.45
 74
0
 49
-0.05
 74
0
 49
0.1
 74
0
 49
-0.05
 74
0
 49
0.1
 74
0
 49
-0.05
 74
0
  0
LTYPE
  5
1F8
100
AcDbSymbolTableRecord
100
AcDbLinetypeTableRecord
  2
DOT
 70
64
  3
. . . . . . . . . . . . . . . . . . . .
 72
65
 73
2
 40
0.2
 49
0.1
 74
0
 49
-0.1
 74
0
  0
LTYPE
  5
1F9
100
AcDbSymbolTableRecord
100
AcDbLinetypeTableRecord
  2
DASHED
 70
64
  3
- - - - - - - - - - - - - - - - - - - -
 72
65
 73
2
 40
0.2
 49
0.1
 74
0
 49
-0.1
 74
0
  0
ENDTAB
  0
TABLE
  2
LAYER
  5
2
100
AcDbSymbolTable
 70
36
  0
LAYER
  5
10
100
AcDbSymbolTableRecord
100
AcDbLayerTableRecord
  2
0
 70
0
 62
7
  6
CONTINUOUS
370
-3
390
F
  0
LAYER
  5
1FA
100
AcDbSymbolTableRecord
100
AcDbLayerTableRecord
  2
DEFAULT_1
 70
0
 62
7
  6
CENTER
370
-3
390
F
  0
LAYER
  5
1FB
100
AcDbSymbolTableRecord
100
AcDbLayerTableRecord
  2
DEFAULT_2
 70
0
 62
7
  6
HIDDEN
370
-3
390
F
  0
LAYER
  5
1FC
100
AcDbSymbolTableRecord
100
AcDbLayerTableRecord
  2
DEFAULT_3
 70
0
 62
7
  6
PHANTOM
370
-3
390
F
  0
LAYER
  5
1FD
100
AcDbSymbolTableRecord
100
AcDbLayerTableRecord
  2
00_COMPONENTS
 70
0
 62
7
  6
CONTINUOUS
370
-3
390
F
  0
LAYER
  5
1FE
100
AcDbSymbolTableRecord
100
AcDbLayerTableRecord
  2
01_1_DEFAULT_DATUMS
 70
0
 62
7
  6
CONTINUOUS
370
-3
390
F
  0
LAYER
  5
1FF
100
AcDbSymbolTableRecord
100
AcDbLayerTableRecord
  2
01_PLANES
 70
0
 62
7
  6
CONTINUOUS
370
-3
390
F
  0
LAYER
  5
200
100
AcDbSymbolTableRecord
100
AcDbLayerTableRecord
  2
02_COORD_SYS
 70
0
 62
7
  6
CONTINUOUS
370
-3
390
F
  0
LAYER
  5
201
100
AcDbSymbolTableRecord
100
AcDbLayerTableRecord
  2
03_AXES
 70
0
 62
7
  6
CONTINUOUS
370
-3
390
F
  0
LAYER
  5
202
100
AcDbSymbolTableRecord
100
AcDbLayerTableRecord
  2
04_POINTS
 70
0
 62
7
  6
CONTINUOUS
370
-3
390
F
  0
LAYER
  5
203
100
AcDbSymbolTableRecord
100
AcDbLayerTableRecord
  2
05_CURVES
 70
0
 62
7
  6
CONTINUOUS
370
-3
390
F
  0
LAYER
  5
204
100
AcDbSymbolTableRecord
100
AcDbLayerTableRecord
  2
06_SURFS
 70
0
 62
7
  6
CONTINUOUS
370
-3
390
F
  0
LAYER
  5
205
100
AcDbSymbolTableRecord
100
AcDbLayerTableRecord
  2
07_COSMETICS
 70
0
 62
7
  6
CONTINUOUS
370
-3
390
F
  0
LAYER
  5
206
100
AcDbSymbolTableRecord
100
AcDbLayerTableRecord
  2
10_NOTES
 70
0
 62
7
  6
CONTINUOUS
370
-3
390
F
  0
LAYER
  5
207
100
AcDbSymbolTableRecord
100
AcDbLayerTableRecord
  2
11_NOTES_PUB
 70
0
 62
7
  6
CONTINUOUS
370
-3
390
F
  0
LAYER
  5
208
100
AcDbSymbolTableRecord
100
AcDbLayerTableRecord
  2
13_REF_GTOL
 70
0
 62
7
  6
CONTINUOUS
370
-3
390
F
  0
LAYER
  5
209
100
AcDbSymbolTableRecord
100
AcDbLayerTableRecord
  2
16_MISC
 70
0
 62
7
  6
CONTINUOUS
370
-3
390
F
  0
LAYER
  5
20A
100
AcDbSymbolTableRecord
100
AcDbLayerTableRecord
  2
17_NO_PRINT
 70
0
 62
7
  6
CONTINUOUS
370
-3
390
F
  0
LAYER
  5
20B
100
AcDbSymbolTableRecord
100
AcDbLayerTableRecord
  2
18_DATUM_CAMS_JOINTS
 70
0
 62
7
  6
CONTINUOUS
370
-3
390
F
  0
LAYER
  5
20C
100
AcDbSymbolTableRecord
100
AcDbLayerTableRecord
  2
19_DATUM_FUNCTIONAL
 70
0
 62
7
  6
CONTINUOUS
370
-3
390
F
  0
LAYER
  5
20D
100
AcDbSymbolTableRecord
100
AcDbLayerTableRecord
  2
20_DATUM_KINEMATIC_SCHEME
 70
0
 62
7
  6
CONTINUOUS
370
-3
390
F
  0
ENDTAB
  0
TABLE
  2
STYLE
  5
3
100
AcDbSymbolTable
 70
1
  0
STYLE
  5
11
100
AcDbSymbolTableRecord
100
AcDbTextStyleTableRecord
  2
STANDARD
 70
0
 40
0.0
 41
1.0
 50
0.0
 71
0
 42
0.2
  3
ARIAL.TTF
  4

  0
STYLE
  5
20E
100
AcDbSymbolTableRecord
100
AcDbTextStyleTableRecord
  2
TEXTSTYLE_1
 70
0
 40
0.0
 41
0.8
 50
0.0
 71
0
 42
0.2
  3
gdt
  4

  0
ENDTAB
  0
TABLE
  2
VIEW
  5
6
100
AcDbSymbolTable
 70
0
  0
ENDTAB
  0
TABLE
  2
UCS
  5
7
100
AcDbSymbolTable
 70
0
  0
ENDTAB
  0
TABLE
  2
APPID
  5
9
100
AcDbSymbolTable
 70
1
  0
APPID
  5
20F
100
AcDbSymbolTableRecord
100
AcDbRegAppTableRecord
  2
ACAD
 70
0
  0
ENDTAB
  0
TABLE
  2
BLOCK_RECORD
  5
1
100
AcDbSymbolTable
 70
0
  0
BLOCK_RECORD
  5
210
100
AcDbSymbolTableRecord
100
AcDbBlockTableRecord
  2
*Model_Space
  0
BLOCK_RECORD
  5
211
100
AcDbSymbolTableRecord
100
AcDbBlockTableRecord
  2
*Paper_Space
  0
BLOCK_RECORD
  5
212
100
AcDbSymbolTableRecord
100
AcDbBlockTableRecord
  2
_FILLED
  0
ENDTAB
  0
TABLE
  2
DIMSTYLE
  5
A
100
AcDbSymbolTable
 70
1
100
AcDbDimStyleTable
 71
0
  0
DIMSTYLE
105
213
100
AcDbSymbolTableRecord
100
AcDbDimStyleTableRecord
  2
STANDARD
 70
0
  3

  4

 40
1.0
 41
0.9489060214
 42
1.0
 43
0.38
 44
1.0
 45
0.0
 46
0.0
 47
0.01
 48
0.01
140
1.32846843
141
0.09
142
0.0
143
25.4
144
1.0
145
0.0
146
1.0
147
0.625
 71
1
 72
0
 73
0
 74
0
 75
0
 76
0
 77
1
 78
8
 79
2
170
0
171
1
172
0
173
0
174
0
175
0
176
0
177
0
178
0
270
2
179
2
271
2
272
2
273
2
274
2
275
0
280
0
281
0
282
0
283
1
284
8
285
0
286
0
287
3
288
0
340
11
278
46
341
212
342
212
343
212
344
212
  0
ENDTAB
  0
ENDSEC
  0
SECTION
  2
BLOCKS
  0
BLOCK
  5
20
100
AcDbEntity
  8
0
100
AcDbBlockBegin
  2
*Model_Space
 70
0
 10
0.0
 20
0.0
 30
0.0
  3
*Model_Space
  1

  0
ENDBLK
  5
21
100
AcDbEntity
  8
0
100
AcDbBlockEnd
  0
BLOCK
  5
1C
100
AcDbEntity
  8
0
100
AcDbBlockBegin
  2
*Paper_Space
 70
0
 10
0.0
 20
0.0
 30
0.0
  3
*Paper_Space
  1

  0
ENDBLK
  5
1D
100
AcDbEntity
  8
0
100
AcDbBlockEnd
  0
BLOCK
  5
214
100
AcDbEntity
  8
0
100
AcDbBlockBegin
  2
_FILLED
 70
64
 10
0.0
 20
0.0
  3
_FILLED
  1

  0
SOLID
  5
215
100
AcDbEntity
  8
0
  6
BYBLOCK
 62
0
100
AcDbTrace
 10
0.0
 20
0.0
 11
-1.0
 21
0.25
 12
-1.0
 22
-0.25
 13
-1.0
 23
-0.25
  0
ENDBLK
  5
216
100
AcDbEntity
  8
0
  6
BYBLOCK
 62
0
100
AcDbBlockEnd
  0
ENDSEC
  0
SECTION
  2
ENTITIES
  0
LINE
  5
217
100
AcDbEntity
  8
0
100
AcDbLine
 62
7
  6
BYLAYER
 10
9.2232520644
 20
54.8356210426
 11
9.2232520644
 21
45.0882151869
  0
LINE
  5
218
100
AcDbEntity
  8
0
100
AcDbLine
 62
7
  6
BYLAYER
 10
10.493252068
 20
55.4577958847
 11
10.493252068
 21
54.8356210428
  0
LINE
  5
219
100
AcDbEntity
  8
0
100
AcDbLine
 62
7
  6
BYLAYER
 10
15.5005495326
 20
75.8227979038
 11
26.5462185737
 21
82.1999798315
  0
LINE
  5
21A
100
AcDbEntity
  8
0
100
AcDbLine
 62
7
  6
BYLAYER
 10
14.3032520644
 20
55.644448337
 11
14.3032520644
 21
55.4577958845
  0
LINE
  5
21B
100
AcDbEntity
  8
0
100
AcDbLine
 62
7
  6
BYLAYER
 10
14.4229232847
 20
59.2291072077
 11
14.4229232847
 21
73.9562841296
  0
LINE
  5
21C
100
AcDbEntity
  8
0
100
AcDbLine
 62
7
  6
BYLAYER
 10
16.8432520644
 20
55.644448337
 11
16.8432520644
 21
55.4577958845
  0
LINE
  5
21D
100
AcDbEntity
  8
0
100
AcDbLine
 62
7
  6
BYLAYER
 10
30.5694124989
 20
76.7664457336
 11
27.0671271932
 21
74.7444124394
  0
LINE
  5
21E
100
AcDbEntity
  8
0
100
AcDbLine
 62
7
  6
BYLAYER
 10
27.6059541148
 20
74.4333276089
 11
30.5694124989
 21
76.1442708917
  0
LINE
  5
21F
100
AcDbEntity
  8
0
100
AcDbLine
 62
7
  6
BYLAYER
 10
14.8919522362
 20
66.2792583184
 11
15.2511609855
 21
66.4866463486
  0
LINE
  5
220
100
AcDbEntity
  8
0
100
AcDbLine
 62
7
  6
BYLAYER
 10
19.4647714304
 20
52.9504002627
 11
19.4647714304
 21
53.5725751045
  0
LINE
  5
221
100
AcDbEntity
  8
0
100
AcDbLine
 62
7
  6
BYLAYER
 10
21.9232520644
 20
54.6354534882
 11
21.9232520644
 21
45.0882151869
  0
LINE
  5
222
100
AcDbEntity
  8
0
100
AcDbLine
 62
7
  6
BYLAYER
 10
29.8127764759
 20
73.1592469482
 11
36.3874233468
 21
76.9550984307
  0
LINE
  5
223
100
AcDbEntity
  8
0
100
AcDbLine
 62
7
  6
BYLAYER
 10
15.7809696539
 20
64.7394752067
 11
16.1401784032
 21
64.9468632369
  0
LINE
  5
224
100
AcDbEntity
  8
0
100
AcDbLine
 62
7
  6
BYLAYER
 10
30.9286906465
 20
72.5149881765
 11
38.2924148166
 21
76.7664109308
  0
LINE
  5
225
100
AcDbEntity
  8
0
100
AcDbLine
 62
7
  6
BYLAYER
 10
45.1176098543
 20
31.7837822067
 11
41.5254924823
 21
33.8576452213
  0
LINE
  5
226
100
AcDbEntity
  8
0
100
AcDbLine
 62
7
  6
BYLAYER
 10
41.5254924814
 20
34.4798200637
 11
45.1176098543
 21
32.4059570485
  0
LINE
  5
227
100
AcDbEntity
  8
0
100
AcDbLine
 62
7
  6
BYLAYER
 10
21.9229098906
 20
45.0882151602
 11
21.9137800719
 21
44.8880476325
  0
LINE
  5
228
100
AcDbEntity
  8
0
100
AcDbLine
 62
7
  6
BYLAYER
 10
18.0262977522
 20
61.7084278873
 11
11.6817327149
 21
57.3430166758
  0
LINE
  5
229
100
AcDbEntity
  8
0
100
AcDbLine
 62
7
  6
BYLAYER
 10
14.8919544308
 20
61.146579005
 11
15.2511631801
 21
61.3539670352
  0
LINE
  5
22A
100
AcDbEntity
  8
0
100
AcDbLine
 62
7
  6
BYLAYER
 10
19.8449728574
 20
63.4196952214
 11
20.2041816068
 21
63.6270832515
  0
LINE
  5
22B
100
AcDbEntity
  8
0
100
AcDbLine
 62
7
  6
BYLAYER
 10
15.3999543512
 20
60.8532892151
 11
15.7591631005
 21
61.0606772453
  0
LINE
  5
22C
100
AcDbEntity
  8
0
100
AcDbLine
 62
7
  6
BYLAYER
 10
52.4550992951
 20
30.9956154383
 11
36.2128894686
 21
38.8640464025
  0
LINE
  5
22D
100
AcDbEntity
  8
0
100
AcDbLine
 62
7
  6
BYLAYER
 10
36.2128894686
 20
38.8640464025
 11
25.3195347559
 21
46.6092201429
  0
LINE
  5
22E
100
AcDbEntity
  8
0
100
AcDbLine
 62
7
  6
BYLAYER
 10
25.3195347559
 20
46.6092201429
 11
25.3195347559
 21
47.2313949847
  0
LINE
  5
22F
100
AcDbEntity
  8
0
100
AcDbLine
 62
7
  6
BYLAYER
 10
25.3195347559
 20
56.9788008404
 11
25.3195347559
 21
57.6009756823
  0
LINE
  5
230
100
AcDbEntity
  8
0
100
AcDbLine
 62
7
  6
BYLAYER
 10
19.8449706628
 20
62.833101888
 11
20.2041794121
 21
63.0404899181
  0
LINE
  5
231
100
AcDbEntity
  8
0
100
AcDbLine
 62
7
  6
BYLAYER
 10
41.7947292852
 20
74.7443944737
 11
45.3868167783
 21
76.8182747753
  0
LINE
  5
232
100
AcDbEntity
  8
0
100
AcDbLine
 62
7
  6
BYLAYER
 10
47.1828754801
 20
75.7813432588
 11
43.5907879871
 21
73.7074629572
  0
LINE
  5
233
100
AcDbEntity
  8
0
100
AcDbLine
 62
7
  6
BYLAYER
 10
25.3195347559
 20
47.2313949847
 11
21.9232520644
 21
48.8767016381
  0
LINE
  5
234
100
AcDbEntity
  8
0
100
AcDbLine
 62
7
  6
BYLAYER
 10
52.9449010234
 20
33.2789985721
 11
56.5943816047
 21
31.1720176424
  0
LINE
  5
235
100
AcDbEntity
  8
0
100
AcDbLine
 62
7
  6
BYLAYER
 10
30.5694124989
 20
76.7664457336
 11
30.5694124989
 21
76.1442708917
  0
LINE
  5
236
100
AcDbEntity
  8
0
100
AcDbLine
 62
7
  6
BYLAYER
 10
31.6853244461
 20
78.3218430083
 11
31.6853244461
 21
77.6996681664
  0
LINE
  5
237
100
AcDbEntity
  8
0
100
AcDbLine
 62
7
  6
BYLAYER
 10
19.4647714469
 20
53.5725751159
 11
25.8093364842
 21
57.9379863274
  0
LINE
  5
238
100
AcDbEntity
  8
0
100
AcDbLine
 62
7
  6
BYLAYER
 10
25.3195347559
 20
56.9788008404
 11
19.4647714469
 21
52.9504002741
  0
LINE
  5
239
100
AcDbEntity
  8
0
100
AcDbLine
 62
7
  6
BYLAYER
 10
50.0565993138
 20
69.9745094978
 11
54.5467086801
 21
72.5668598749
  0
LINE
  5
23A
100
AcDbEntity
  8
0
100
AcDbLine
 62
7
  6
BYLAYER
 10
25.8093364842
 20
57.9379863274
 11
18.0262977522
 21
61.7084278873
  0
LINE
  5
23B
100
AcDbEntity
  8
0
100
AcDbLine
 62
7
  6
BYLAYER
 10
59.0368554348
 20
69.9745310837
 11
54.5467460685
 21
67.3821807066
  0
LINE
  5
23C
100
AcDbEntity
  8
0
100
AcDbLine
 62
7
  6
BYLAYER
 10
36.2128894686
 20
54.7917223539
 11
25.3195347559
 21
57.6009756823
  0
LINE
  5
23D
100
AcDbEntity
  8
0
100
AcDbLine
 62
7
  6
BYLAYER
 10
36.2128894686
 20
54.7917223539
 11
40.9566749598
 21
52.4936268949
  0
LINE
  5
23E
100
AcDbEntity
  8
0
100
AcDbLine
 62
7
  6
BYLAYER
 10
49.090274954
 20
48.5533582536
 11
52.4550992951
 21
46.9232913898
  0
LINE
  5
23F
100
AcDbEntity
  8
0
100
AcDbLine
 62
7
  6
BYLAYER
 10
52.9449010234
 20
47.2603020349
 11
49.6311462566
 21
48.8656285818
  0
LINE
  5
240
100
AcDbEntity
  8
0
100
AcDbLine
 62
7
  6
BYLAYER
 10
41.2681449844
 20
52.9170291527
 11
36.7026911969
 21
55.128732999
  0
LINE
  5
241
100
AcDbEntity
  8
0
100
AcDbLine
 62
7
  6
BYLAYER
 10
45.1176098543
 20
48.3336329999
 11
41.5254924814
 21
50.4074960151
  0
LINE
  5
242
100
AcDbEntity
  8
0
100
AcDbLine
 62
7
  6
BYLAYER
 10
41.5254924823
 20
51.0296708565
 11
45.1176098543
 21
48.9558078418
  0
LINE
  5
243
100
AcDbEntity
  8
0
100
AcDbLine
 62
7
  6
BYLAYER
 10
40.7815362166
 20
34.8945853813
 11
40.7815362166
 21
35.5167602232
  0
LINE
  5
244
100
AcDbEntity
  8
0
100
AcDbLine
 62
7
  6
BYLAYER
 10
40.7815362166
 20
51.4444361746
 11
40.7815362166
 21
52.0666110164
  0
LINE
  5
245
100
AcDbEntity
  8
0
100
AcDbLine
 62
7
  6
BYLAYER
 10
36.7026911969
 20
55.128732999
 11
36.2128894686
 21
54.7917223539
  0
LINE
  5
246
100
AcDbEntity
  8
0
100
AcDbLine
 62
7
  6
BYLAYER
 10
21.9137800719
 20
44.8880476325
 11
25.3195347559
 21
47.2313949847
  0
LINE
  5
247
100
AcDbEntity
  8
0
100
AcDbLine
 62
7
  6
BYLAYER
 10
25.3195347559
 20
46.6092201429
 11
21.5946144594
 21
44.046269219
  0
LINE
  5
248
100
AcDbEntity
  8
0
100
AcDbLine
 62
7
  6
BYLAYER
 10
25.8093364842
 20
57.9379863274
 11
36.7026911969
 21
55.128732999
  0
LINE
  5
249
100
AcDbEntity
  8
0
100
AcDbLine
 62
7
  6
BYLAYER
 10
42.2438950097
 20
53.5183185933
 11
44.9379830625
 21
51.9629213185
  0
LINE
  5
24A
100
AcDbEntity
  8
0
100
AcDbLine
 62
7
  6
BYLAYER
 10
41.5254924665
 20
33.8576452305
 11
41.5254924665
 21
34.4798200723
  0
LINE
  5
24B
100
AcDbEntity
  8
0
100
AcDbLine
 62
7
  6
BYLAYER
 10
41.5254924665
 20
50.4074960238
 11
41.5254924665
 21
51.0296708656
  0
LINE
  5
24C
100
AcDbEntity
  8
0
100
AcDbLine
 62
7
  6
BYLAYER
 10
52.122195437
 20
50.9260027536
 11
47.6320486823
 21
53.5183315448
  0
LINE
  5
24D
100
AcDbEntity
  8
0
100
AcDbLine
 62
7
  6
BYLAYER
 10
14.4229232847
 20
73.9562841296
 11
59.2884696575
 21
48.0537348479
  0
LINE
  5
24E
100
AcDbEntity
  8
0
100
AcDbLine
 62
7
  6
BYLAYER
 10
45.1176098702
 20
48.9558078326
 11
45.1176098702
 21
48.3336329908
  0
LINE
  5
24F
100
AcDbEntity
  8
0
100
AcDbLine
 62
7
  6
BYLAYER
 10
45.1176098702
 20
32.4059570394
 11
45.1176098702
 21
31.7837821975
  0
LINE
  5
250
100
AcDbEntity
  8
0
100
AcDbLine
 62
7
  6
BYLAYER
 10
42.2438950097
 20
53.5183185933
 11
41.525477527
 21
53.1035425421
  0
LINE
  5
251
100
AcDbEntity
  8
0
100
AcDbLine
 62
7
  6
BYLAYER
 10
61.0125573953
 20
63.6492272473
 11
64.6046448883
 21
65.723107549
  0
LINE
  5
252
100
AcDbEntity
  8
0
100
AcDbLine
 62
7
  6
BYLAYER
 10
60.3660959054
 20
49.9202486221
 11
15.5005495326
 21
75.8227979038
  0
LINE
  5
253
100
AcDbEntity
  8
0
100
AcDbLine
 62
7
  6
BYLAYER
 10
47.1828754801
 20
75.7813432588
 11
47.1828754801
 21
71.6336171928
  0
LINE
  5
254
100
AcDbEntity
  8
0
100
AcDbLine
 62
7
  6
BYLAYER
 10
48.7097123186
 20
31.7837908319
 11
48.7097123186
 21
32.4059656737
  0
LINE
  5
255
100
AcDbEntity
  8
0
100
AcDbLine
 62
7
  6
BYLAYER
 10
48.7097123186
 20
48.3336416251
 11
48.7097123186
 21
48.955816467
  0
LINE
  5
256
100
AcDbEntity
  8
0
100
AcDbLine
 62
7
  6
BYLAYER
 10
66.4007035902
 20
64.6861760325
 11
62.8086160971
 21
62.6122957308
  0
LINE
  5
257
100
AcDbEntity
  8
0
100
AcDbLine
 62
7
  6
BYLAYER
 10
44.9379830625
 20
51.9629213185
 11
47.6320486823
 21
53.5183315448
  0
LINE
  5
258
100
AcDbEntity
  8
0
100
AcDbLine
 62
7
  6
BYLAYER
 10
58.498154476
 20
56.598110901
 11
62.0004397817
 21
58.6201441951
  0
LINE
  5
259
100
AcDbEntity
  8
0
100
AcDbLine
 62
7
  6
BYLAYER
 10
66.3109305658
 20
60.5902792737
 11
63.8411224521
 21
59.1643434061
  0
LINE
  5
25A
100
AcDbEntity
  8
0
100
AcDbLine
 62
7
  6
BYLAYER
 10
48.7097123345
 20
48.9558164762
 11
52.122195437
 21
50.9260027536
  0
LINE
  5
25B
100
AcDbEntity
  8
0
100
AcDbLine
 62
7
  6
BYLAYER
 10
27.0671271932
 20
74.7444124394
 11
58.498154476
 21
56.598110901
  0
LINE
  5
25C
100
AcDbEntity
  8
0
100
AcDbLine
 62
7
  6
BYLAYER
 10
52.122195437
 20
50.3038279117
 11
52.122195437
 21
50.9260027536
  0
LINE
  5
25D
100
AcDbEntity
  8
0
100
AcDbLine
 62
7
  6
BYLAYER
 10
52.4550992951
 20
46.9232913898
 11
52.4550992951
 21
30.9956154383
  0
LINE
  5
25E
100
AcDbEntity
  8
0
100
AcDbLine
 62
7
  6
BYLAYER
 10
52.9449010234
 20
31.3326260834
 11
52.9449010234
 21
47.2603020349
  0
LINE
  5
25F
100
AcDbEntity
  8
0
100
AcDbLine
 62
7
  6
BYLAYER
 10
52.122195437
 20
50.3038279117
 11
48.7097123345
 21
48.3336416343
  0
LINE
  5
260
100
AcDbEntity
  8
0
100
AcDbLine
 62
7
  6
BYLAYER
 10
52.4550992951
 20
46.9232913898
 11
52.9449010234
 21
47.2603020349
  0
LINE
  5
261
100
AcDbEntity
  8
0
100
AcDbLine
 62
7
  6
BYLAYER
 10
60.3660959054
 20
49.9202486221
 11
71.4117649465
 21
56.2974305498
  0
LINE
  5
262
100
AcDbEntity
  8
0
100
AcDbLine
 62
7
  6
BYLAYER
 10
71.4117649465
 20
55.6752557079
 11
60.3660959054
 21
49.2980737803
  0
LINE
  5
263
100
AcDbEntity
  8
0
100
AcDbLine
 62
7
  6
BYLAYER
 10
71.699069283
 20
55.0943699833
 11
71.0523469326
 21
55.4677468595
  0
LINE
  5
264
100
AcDbEntity
  8
0
100
AcDbLine
 62
7
  6
BYLAYER
 10
26.5462185737
 20
82.1999798315
 11
30.5693900659
 21
79.8772532345
  0
LINE
  5
265
100
AcDbEntity
  8
0
100
AcDbLine
 62
7
  6
BYLAYER
 10
67.3885934543
 20
58.6201571467
 11
71.4117649465
 21
56.2974305498
  0
LINE
  5
266
100
AcDbEntity
  8
0
100
AcDbLine
 62
7
  6
BYLAYER
 10
38.2924148324
 20
76.7664109216
 11
41.7947292852
 21
74.7443944737
  0
LINE
  5
267
100
AcDbEntity
  8
0
100
AcDbLine
 62
7
  6
BYLAYER
 10
43.5907879871
 20
73.7074629572
 11
50.0565993138
 21
69.9745094978
  0
LINE
  5
268
100
AcDbEntity
  8
0
100
AcDbLine
 62
7
  6
BYLAYER
 10
54.5467460685
 20
67.3821807066
 11
61.0125573953
 21
63.6492272473
  0
LINE
  5
269
100
AcDbEntity
  8
0
100
AcDbLine
 62
7
  6
BYLAYER
 10
62.8086160971
 20
62.6122957308
 11
66.3109305463
 21
60.5902792849
  0
LINE
  5
26A
100
AcDbEntity
  8
0
100
AcDbLine
 62
7
  6
BYLAYER
 10
59.0368554348
 20
64.927863952
 11
59.0368554348
 21
69.9745310837
  0
LINE
  5
26B
100
AcDbEntity
  8
0
100
AcDbLine
 62
7
  6
BYLAYER
 10
59.2884696575
 20
32.7274945769
 11
59.2884696575
 21
48.0537348479
  0
LINE
  5
26C
100
AcDbEntity
  8
0
100
AcDbLine
 62
7
  6
BYLAYER
 10
53.1480025861
 20
44.1926170174
 11
53.5072113354
 21
44.4000050475
  0
LINE
  5
26D
100
AcDbEntity
  8
0
100
AcDbLine
 62
7
  6
BYLAYER
 10
69.0050186186
 20
51.4650880898
 11
71.6990842384
 21
53.020498316
  0
LINE
  5
26E
100
AcDbEntity
  8
0
100
AcDbLine
 62
7
  6
BYLAYER
 10
54.0370200038
 20
42.6528339057
 11
54.3962287531
 21
42.8602219358
  0
LINE
  5
26F
100
AcDbEntity
  8
0
100
AcDbLine
 62
7
  6
BYLAYER
 10
59.8272827814
 20
48.3648168932
 11
59.8272827814
 21
33.0385766222
  0
LINE
  5
270
100
AcDbEntity
  8
0
100
AcDbLine
 62
7
  6
BYLAYER
 10
59.8452433684
 20
33.0074681681
 11
59.8452433684
 21
43.9992235773
  0
LINE
  5
271
100
AcDbEntity
  8
0
100
AcDbLine
 62
7
  6
BYLAYER
 10
60.2044521177
 20
44.2066116969
 11
60.2044521177
 21
33.2148561983
  0
LINE
  5
272
100
AcDbEntity
  8
0
100
AcDbLine
 62
7
  6
BYLAYER
 10
71.6990842384
 20
50.9465821765
 11
69.0050186186
 21
49.3911719502
  0
LINE
  5
273
100
AcDbEntity
  8
0
100
AcDbLine
 62
7
  6
BYLAYER
 10
60.2007983408
 20
44.2459801831
 11
64.4969965224
 21
46.7263765538
  0
LINE
  5
274
100
AcDbEntity
  8
0
100
AcDbLine
 62
7
  6
BYLAYER
 10
59.8452433684
 20
43.999223685
 11
60.2044521177
 21
44.2066117152
  0
LINE
  5
275
100
AcDbEntity
  8
0
100
AcDbLine
 62
7
  6
BYLAYER
 10
53.1480047807
 20
39.0599377039
 11
53.50721353
 21
39.2673257341
  0
LINE
  5
276
100
AcDbEntity
  8
0
100
AcDbLine
 62
7
  6
BYLAYER
 10
45.3868167783
 20
76.8182747753
 11
47.1828754801
 21
75.7813432588
  0
LINE
  5
277
100
AcDbEntity
  8
0
100
AcDbLine
 62
7
  6
BYLAYER
 10
64.6046448883
 20
65.723107549
 11
66.4007035902
 21
64.6861760325
  0
LINE
  5
278
100
AcDbEntity
  8
0
100
AcDbLine
 62
7
  6
BYLAYER
 10
54.5467086801
 20
72.5668598749
 11
59.0368554348
 21
69.9745310837
  0
LINE
  5
279
100
AcDbEntity
  8
0
100
AcDbLine
 62
7
  6
BYLAYER
 10
64.4969965224
 20
46.7263765354
 11
64.4969965224
 21
35.7346210368
  0
LINE
  5
27A
100
AcDbEntity
  8
0
100
AcDbLine
 62
7
  6
BYLAYER
 10
58.1010232073
 20
41.3330539203
 11
58.4602319567
 21
41.5404419505
  0
LINE
  5
27B
100
AcDbEntity
  8
0
100
AcDbLine
 62
7
  6
BYLAYER
 10
53.6560047011
 20
38.7666479141
 11
54.0152134504
 21
38.9740359442
  0
LINE
  5
27C
100
AcDbEntity
  8
0
100
AcDbLine
 62
7
  6
BYLAYER
 10
58.1010210127
 20
40.7464605869
 11
58.460229762
 21
40.9538486171
  0
LINE
  5
27D
100
AcDbEntity
  8
0
100
AcDbLine
 62
7
  6
BYLAYER
 10
69.0050186186
 20
44.9322522503
 11
64.4969965224
 21
42.3295600155
  0
LINE
  5
27E
100
AcDbEntity
  8
0
100
AcDbLine
 62
7
  6
BYLAYER
 10
66.4007035902
 20
64.6861760325
 11
66.4007035902
 21
60.526711866
  0
LINE
  5
27F
100
AcDbEntity
  8
0
100
AcDbLine
 62
7
  6
BYLAYER
 10
48.7097123345
 20
32.4059656829
 11
49.090274954
 21
32.6256823022
  0
LINE
  5
280
100
AcDbEntity
  8
0
100
AcDbLine
 62
7
  6
BYLAYER
 10
57.2120057897
 20
37.1535643852
 11
57.571214539
 21
37.3609524153
  0
LINE
  5
281
100
AcDbEntity
  8
0
100
AcDbLine
 62
7
  6
BYLAYER
 10
64.4969965224
 20
41.0409779862
 11
68.2159220355
 21
43.1880878158
  0
LINE
  5
282
100
AcDbEntity
  8
0
100
AcDbLine
 62
7
  6
BYLAYER
 10
49.6762427304
 20
32.3418140943
 11
48.7097123345
 21
31.783790841
  0
LINE
  5
283
100
AcDbEntity
  8
0
100
AcDbLine
 62
7
  6
BYLAYER
 10
57.5930210923
 20
36.4936618626
 11
57.9522298417
 21
36.7010498928
  0
LINE
  5
284
100
AcDbEntity
  8
0
100
AcDbLine
 62
7
  6
BYLAYER
 10
58.1010232073
 20
35.6137812735
 11
58.4602319567
 21
35.8211693036
  0
LINE
  5
285
100
AcDbEntity
  8
0
100
AcDbLine
 62
7
  6
BYLAYER
 10
69.0050186186
 20
54.285728362
 11
69.0050186186
 21
51.4650880898
  0
LINE
  5
286
100
AcDbEntity
  8
0
100
AcDbLine
 62
7
  6
BYLAYER
 10
69.0050186186
 20
49.3911719502
 11
69.0050186186
 21
44.9322522728
  0
LINE
  5
287
100
AcDbEntity
  8
0
100
AcDbLine
 62
7
  6
BYLAYER
 10
52.9449010234
 20
31.3326260834
 11
52.4550992951
 21
30.9956154383
  0
LINE
  5
288
100
AcDbEntity
  8
0
100
AcDbLine
 62
7
  6
BYLAYER
 10
64.4969965224
 20
35.7346210144
 11
60.2044521177
 21
33.2563341402
  0
LINE
  5
289
100
AcDbEntity
  8
0
100
AcDbLine
 62
7
  6
BYLAYER
 10
59.8272827814
 20
33.0385766222
 11
59.2884696575
 21
32.7274945769
  0
LINE
  5
28A
100
AcDbEntity
  8
0
100
AcDbLine
 62
7
  6
BYLAYER
 10
71.4117649465
 20
56.2974305498
 11
71.4117649465
 21
55.6752557079
  0
LINE
  5
28B
100
AcDbEntity
  8
0
100
AcDbLine
 62
7
  6
BYLAYER
 10
71.699069283
 20
55.0943699833
 11
71.6990842384
 21
50.9465821765
  0
LINE
  5
28C
100
AcDbEntity
  8
0
100
AcDbLine
 62
7
  6
BYLAYER
 10
60.2044521177
 20
33.2148561758
 11
59.8452433684
 21
33.0074681456
  0
LINE
  5
28D
100
AcDbEntity
  8
0
100
AcDbLine
 62
7
  6
BYLAYER
 10
59.634194826
 20
31.6471064222
 11
63.7131605832
 21
34.0020843428
  0
LINE
  5
28E
100
AcDbEntity
  8
0
100
AcDbLine
 62
7
  6
BYLAYER
 10
58.4993730762
 20
30.9833301394
 11
59.0381862002
 21
31.2944121846
  0
LINE
  5
28F
100
AcDbEntity
  8
0
100
AcDbLine
 62
7
  6
BYLAYER
 10
59.0561467854
 20
31.2633037112
 11
59.4153555347
 21
31.4706917413
  0
ARC
  5
290
100
AcDbEntity
  8
0
100
AcDbCircle
 62
7
  6
BYLAYER
 10
22.2820625583
 20
64.8265854214
 40
8.533323151
100
AcDbArc
 50
209.9995206624
 51
215.6591781262
  0
ARC
  5
291
100
AcDbEntity
  8
0
100
AcDbCircle
 62
7
  6
BYLAYER
 10
21.6249764686
 20
64.4472337694
 40
6.773221653
100
AcDbArc
 50
209.9994695869
 51
216.3767592405
  0
ARC
  5
292
100
AcDbEntity
  8
0
100
AcDbCircle
 62
7
  6
BYLAYER
 10
21.2314076269
 20
64.2174517341
 40
6.7322683221
100
AcDbArc
 50
209.9806261345
 51
216.6730295574
  0
ARC
  5
293
100
AcDbEntity
  8
0
100
AcDbCircle
 62
7
  6
BYLAYER
 10
20.486270388
 20
63.788826232
 40
5.4326902385
100
AcDbArc
 50
210.0189444579
 51
217.9848385124
  0
ARC
  5
294
100
AcDbEntity
  8
0
100
AcDbCircle
 62
7
  6
BYLAYER
 10
56.6126197326
 20
44.2065681932
 40
3.5918323854
100
AcDbArc
 50
0.0006939577
 51
0.4930374712
  0
ARC
  5
295
100
AcDbEntity
  8
0
100
AcDbCircle
 62
7
  6
BYLAYER
 10
17.0958047308
 20
60.9006493277
 40
2.8769399726
100
AcDbArc
 50
357.2574384391
 51
0.0082600326
  0
ARC
  5
296
100
AcDbEntity
  8
0
100
AcDbCircle
 62
7
  6
BYLAYER
 10
34.8920074878
 20
55.8116338099
 40
2.6047218942
100
AcDbArc
 50
125.9173683044
 51
133.0859878487
  0
ARC
  5
297
100
AcDbEntity
  8
0
100
AcDbCircle
 62
7
  6
BYLAYER
 10
58.3578673784
 20
32.4501195873
 40
1.3420219821
100
AcDbArc
 50
311.0258137742
 51
315.4563210957
  0
ARC
  5
298
100
AcDbEntity
  8
0
100
AcDbCircle
 62
7
  6
BYLAYER
 10
58.4119511907
 20
32.3812260369
 40
1.2902193692
100
AcDbArc
 50
288.0555144077
 51
299.9524209275
  0
ARC
  5
299
100
AcDbEntity
  8
0
100
AcDbCircle
 62
7
  6
BYLAYER
 10
58.393691001
 20
32.4090446144
 40
1.2875198626
100
AcDbArc
 50
300.0370692559
 51
311.022953736
  0
ARC
  5
29A
100
AcDbEntity
  8
0
100
AcDbCircle
 62
7
  6
BYLAYER
 10
58.7791765133
 20
32.572592268
 40
1.2723353528
100
AcDbArc
 50
299.9998617794
 51
300.6479438373
  0
SPLINE
  5
29B
100
AcDbEntity
  8
0
100
AcDbSpline
 62
7
  6
BYLAYER
 70
0
 71
3
 72
11
 73
7
 74
0
 42
0.0000001
 43
0.0000001
 44
0.0000000001
 40
0.0
 40
0.0
 40
0.0
 40
0.0
 40
0.2843367812
 40
0.542072267
 40
0.7773763401
 40
1.0
 40
1.0
 40
1.0
 40
1.0
 10
14.6003722229
 20
56.115753532
 30
0.0
 10
14.5552151525
 20
56.0846829732
 30
0.0
 10
14.4735225704
 20
56.0184859184
 30
0.0
 10
14.3772287523
 20
55.9020896649
 30
0.0
 10
14.3170939739
 20
55.7761458609
 30
0.0
 10
14.3032834028
 20
55.6873651709
 30
0.0
 10
14.3032872748
 20
55.6444483726
 30
0.0
  0
SPLINE
  5
29C
100
AcDbEntity
  8
0
100
AcDbSpline
 62
7
  6
BYLAYER
 70
0
 71
3
 72
13
 73
9
 74
0
 42
0.0000001
 43
0.0000001
 44
0.0000000001
 40
0.0
 40
0.0
 40
0.0
 40
0.0
 40
0.2842136723
 40
0.5414020275
 40
0.6614359254
 40
0.7769705058
 40
0.8893154471
 40
1.0
 40
1.0
 40
1.0
 40
1.0
 10
11.6817327149
 20
57.3430166758
 30
0.0
 10
11.5009737555
 20
57.2186445267
 30
0.0
 10
11.1741263781
 20
56.9542118058
 30
0.0
 10
10.8460204601
 20
56.5568781586
 30
0.0
 10
10.6623319326
 20
56.2226355311
 30
0.0
 10
10.5651576242
 20
55.9712975199
 30
0.0
 10
10.5063799785
 20
55.7157033687
 30
0.0
 10
10.4932796665
 20
55.5432445142
 30
0.0
 10
10.4932779515
 20
55.4577958725
 30
0.0
  0
SPLINE
  5
29D
100
AcDbEntity
  8
0
100
AcDbSpline
 62
7
  6
BYLAYER
 70
0
 71
3
 72
13
 73
9
 74
0
 42
0.0000001
 43
0.0000001
 44
0.0000000001
 40
0.0
 40
0.0
 40
0.0
 40
0.0
 40
0.2842127268
 40
0.5414017245
 40
0.661436823
 40
0.776972349
 40
0.8893170745
 40
1.0
 40
1.0
 40
1.0
 40
1.0
 10
10.7088528569
 20
57.1921470176
 30
0.0
 10
10.4829046633
 20
57.0366821793
 30
0.0
 10
10.0743444786
 20
56.706142255
 30
0.0
 10
9.6642093701
 20
56.2094752504
 30
0.0
 10
9.4345971635
 20
55.7916690192
 30
0.0
 10
9.3131297836
 20
55.4774939573
 30
0.0
 10
9.2396560613
 20
55.158002364
 30
0.0
 10
9.2232788288
 20
54.9424303915
 30
0.0
 10
9.2232767318
 20
54.8356210435
 30
0.0
  0
SPLINE
  5
29E
100
AcDbEntity
  8
0
100
AcDbSpline
 62
7
  6
BYLAYER
 70
0
 71
3
 72
9
 73
5
 74
0
 42
0.0000001
 43
0.0000001
 44
0.0000000001
 40
0.0
 40
0.0
 40
0.0
 40
0.0
 40
0.5221008173
 40
1.0
 40
1.0
 40
1.0
 40
1.0
 10
12.7215586228
 20
58.1112545497
 30
0.0
 10
12.3505804974
 20
58.0035986637
 30
0.0
 10
11.6523067237
 20
57.7511105614
 30
0.0
 10
11.0001419564
 20
57.3925700085
 30
0.0
 10
10.7088528569
 20
57.1921470176
 30
0.0
  0
SPLINE
  5
29F
100
AcDbEntity
  8
0
100
AcDbSpline
 62
7
  6
BYLAYER
 70
0
 71
3
 72
15
 73
11
 74
0
 42
0.0000001
 43
0.0000001
 44
0.0000000001
 40
0.0
 40
0.0
 40
0.0
 40
0.0
 40
0.1080107303
 40
0.2180579151
 40
0.3319993355
 40
0.4513565775
 40
0.5772621208
 40
0.7104933333
 40
0.8514588228
 40
1.0
 40
1.0
 40
1.0
 40
1.0
 10
33.045724201
 20
57.7530129055
 30
0.0
 10
33.1706457871
 20
57.8251514884
 30
0.0
 10
33.4358997564
 20
57.9493436
 30
0.0
 10
33.8650784508
 20
58.068057582
 30
0.0
 10
34.3226097305
 20
58.1190412638
 30
0.0
 10
34.8035848493
 20
58.1023570374
 30
0.0
 10
35.3034008368
 20
58.0185083378
 30
0.0
 10
35.8174736552
 20
57.8686769888
 30
0.0
 10
36.340782526
 20
57.6543998467
 30
0.0
 10
36.6838887827
 20
57.4748472158
 30
0.0
 10
36.8556964711
 20
57.3756562446
 30
0.0
  0
SPLINE
  5
2A0
100
AcDbEntity
  8
0
100
AcDbSpline
 62
7
  6
BYLAYER
 70
0
 71
3
 72
13
 73
9
 74
0
 42
0.0000001
 43
0.0000001
 44
0.0000000001
 40
0.0
 40
0.0
 40
0.0
 40
0.0
 40
0.0908486811
 40
0.1881373159
 40
0.2962869128
 40
0.4171942003
 40
0.6936497206
 40
1.0
 40
1.0
 40
1.0
 40
1.0
 10
14.8919693837
 20
61.1465530671
 30
0.0
 10
14.8752145907
 20
61.1368804688
 30
0.0
 10
14.8438312036
 20
61.1105522942
 30
0.0
 10
14.8105042247
 20
61.0559633478
 30
0.0
 10
14.7906315752
 20
60.9887075266
 30
0.0
 10
14.7821252428
 20
60.8807981193
 30
0.0
 10
14.8088141164
 20
60.7310476294
 30
0.0
 10
14.8593332034
 20
60.61648318
 30
0.0
 10
14.8919522362
 20
60.5599856716
 30
0.0
  0
SPLINE
  5
2A1
100
AcDbEntity
  8
0
100
AcDbSpline
 62
7
  6
BYLAYER
 70
0
 71
3
 72
13
 73
9
 74
0
 42
0.0000001
 43
0.0000001
 44
0.0000000001
 40
0.0
 40
0.0
 40
0.0
 40
0.0
 40
0.0908486811
 40
0.1881373159
 40
0.2962869128
 40
0.4171942003
 40
0.6936497206
 40
1.0
 40
1.0
 40
1.0
 40
1.0
 10
53.1480197336
 20
39.059911766
 30
0.0
 10
53.1312649406
 20
39.0502391678
 30
0.0
 10
53.0998815535
 20
39.0239109931
 30
0.0
 10
53.0665545746
 20
38.9693220467
 30
0.0
 10
53.0466819251
 20
38.9020662256
 30
0.0
 10
53.0381755928
 20
38.7941568182
 30
0.0
 10
53.0648644663
 20
38.6444063284
 30
0.0
 10
53.1153835533
 20
38.5298418789
 30
0.0
 10
53.1480025861
 20
38.4733443705
 30
0.0
  0
SPLINE
  5
2A2
100
AcDbEntity
  8
0
100
AcDbSpline
 62
7
  6
BYLAYER
 70
0
 71
3
 72
11
 73
7
 74
0
 42
0.0000001
 43
0.0000001
 44
0.0000000001
 40
0.0
 40
0.0
 40
0.0
 40
0.0
 40
0.2812197773
 40
0.5378501839
 40
0.7744818506
 40
1.0
 40
1.0
 40
1.0
 40
1.0
 10
41.2959870371
 20
36.4015734552
 30
0.0
 10
41.2170948247
 20
36.3413741268
 30
0.0
 10
41.0746498703
 20
36.2142422801
 30
0.0
 10
40.908358537
 20
35.994790925
 30
0.0
 10
40.8051501852
 20
35.7602402784
 30
0.0
 10
40.7815794141
 20
35.5963409784
 30
0.0
 10
40.781562394
 20
35.5167601724
 30
0.0
  0
SPLINE
  5
2A3
100
AcDbEntity
  8
0
100
AcDbSpline
 62
7
  6
BYLAYER
 70
0
 71
3
 72
19
 73
15
 74
0
 42
0.0000001
 43
0.0000001
 44
0.0000000001
 40
0.0
 40
0.0
 40
0.0
 40
0.0
 40
0.0428385741
 40
0.0874433207
 40
0.1352549764
 40
0.1871925429
 40
0.2436709144
 40
0.3046630743
 40
0.4382667828
 40
0.5825421017
 40
0.7296386972
 40
0.8711665501
 40
0.9376089289
 40
1.0
 40
1.0
 40
1.0
 40
1.0
 10
67.3025373939
 20
56.4944332871
 30
0.0
 10
67.302542041
 20
56.4329742448
 30
0.0
 10
67.2860675218
 20
56.3069943311
 30
0.0
 10
67.2138557485
 20
56.1250645266
 30
0.0
 10
67.0965829858
 20
55.9526246992
 30
0.0
 10
66.9376855323
 20
55.7930375448
 30
0.0
 10
66.7407762873
 20
55.6491238791
 30
0.0
 10
66.4235513483
 20
55.476692455
 30
0.0
 10
65.9587650782
 20
55.3214257532
 30
0.0
 10
65.3521655362
 20
55.2362541485
 30
0.0
 10
64.7285630971
 20
55.2534508898
 30
0.0
 10
64.2259035504
 20
55.353952168
 30
0.0
 10
63.8607054792
 20
55.4863632916
 30
0.0
 10
63.6944262386
 20
55.5682797506
 30
0.0
 10
63.6169075687
 20
55.613034163
 30
0.0
  0
SPLINE
  5
2A4
100
AcDbEntity
  8
0
100
AcDbSpline
 62
7
  6
BYLAYER
 70
0
 71
3
 72
9
 73
5
 74
0
 42
0.0000001
 43
0.0000001
 44
0.0000000001
 40
0.0
 40
0.0
 40
0.0
 40
0.0
 40
0.2451162089
 40
1.0
 40
1.0
 40
1.0
 40
1.0
 10
67.2332984828
 20
56.1854013802
 30
0.0
 10
67.2282452685
 20
56.196647702
 30
0.0
 10
67.2066400847
 20
56.2420811671
 30
0.0
 10
67.1811868071
 20
56.2856603754
 30
0.0
 10
67.1602246594
 20
56.3173207239
 30
0.0
  0
SPLINE
  5
2A5
100
AcDbEntity
  8
0
100
AcDbSpline
 62
7
  6
BYLAYER
 70
0
 71
3
 72
10
 73
6
 74
0
 42
0.0000001
 43
0.0000001
 44
0.0000000001
 40
0.0
 40
0.0
 40
0.0
 40
0.0
 40
0.2282196859
 40
0.5973951269
 40
1.0
 40
1.0
 40
1.0
 40
1.0
 10
67.1602246594
 20
56.3173207239
 30
0.0
 10
67.1324541805
 20
56.3592640903
 30
0.0
 10
67.0515230541
 20
56.4637358102
 30
0.0
 10
66.8890657801
 20
56.6144301383
 30
0.0
 10
66.7470343502
 20
56.7092878204
 30
0.0
 10
66.6701819378
 20
56.7536575776
 30
0.0
  0
SPLINE
  5
2A6
100
AcDbEntity
  8
0
100
AcDbSpline
 62
7
  6
BYLAYER
 70
0
 71
3
 72
19
 73
15
 74
0
 42
0.0000001
 43
0.0000001
 44
0.0000000001
 40
0.0
 40
0.0
 40
0.0
 40
0.0
 40
0.0428385741
 40
0.0874433207
 40
0.1352549764
 40
0.1871925429
 40
0.2436709144
 40
0.3046630743
 40
0.4382667828
 40
0.5825421017
 40
0.7296386972
 40
0.8711665501
 40
0.9376089289
 40
1.0
 40
1.0
 40
1.0
 40
1.0
 10
29.046487044
 20
78.5810745881
 30
0.0
 10
29.0464916911
 20
78.5196155459
 30
0.0
 10
29.0300171719
 20
78.3936356321
 30
0.0
 10
28.9578053986
 20
78.2117058277
 30
0.0
 10
28.8405326359
 20
78.0392660002
 30
0.0
 10
28.6816351824
 20
77.8796788458
 30
0.0
 10
28.4847259374
 20
77.7357651801
 30
0.0
 10
28.1675009984
 20
77.563333756
 30
0.0
 10
27.7027147283
 20
77.4080670542
 30
0.0
 10
27.0961151863
 20
77.3228954496
 30
0.0
 10
26.4725127472
 20
77.3400921908
 30
0.0
 10
25.9698532005
 20
77.4405934691
 30
0.0
 10
25.6046551293
 20
77.5730045926
 30
0.0
 10
25.4383758887
 20
77.6549210516
 30
0.0
 10
25.3608572188
 20
77.6996754641
 30
0.0
  0
SPLINE
  5
2A7
100
AcDbEntity
  8
0
100
AcDbSpline
 62
7
  6
BYLAYER
 70
0
 71
3
 72
9
 73
5
 74
0
 42
0.0000001
 43
0.0000001
 44
0.0000000001
 40
0.0
 40
0.0
 40
0.0
 40
0.0
 40
0.2451162089
 40
1.0
 40
1.0
 40
1.0
 40
1.0
 10
28.9772481329
 20
78.2720426813
 30
0.0
 10
28.9721949186
 20
78.283289003
 30
0.0
 10
28.9505897348
 20
78.3287224681
 30
0.0
 10
28.9251364572
 20
78.3723016764
 30
0.0
 10
28.9041743095
 20
78.4039620249
 30
0.0
  0
SPLINE
  5
2A8
100
AcDbEntity
  8
0
100
AcDbSpline
 62
7
  6
BYLAYER
 70
0
 71
3
 72
10
 73
6
 74
0
 42
0.0000001
 43
0.0000001
 44
0.0000000001
 40
0.0
 40
0.0
 40
0.0
 40
0.0
 40
0.2282196859
 40
0.5973951269
 40
1.0
 40
1.0
 40
1.0
 40
1.0
 10
28.9041743095
 20
78.4039620249
 30
0.0
 10
28.8764038306
 20
78.4459053913
 30
0.0
 10
28.7954727042
 20
78.5503771113
 30
0.0
 10
28.6330154302
 20
78.7010714394
 30
0.0
 10
28.4909840003
 20
78.7959291214
 30
0.0
 10
28.4141315879
 20
78.8402988786
 30
0.0
  0
SPLINE
  5
2A9
100
AcDbEntity
  8
0
100
AcDbSpline
 62
7
  6
BYLAYER
 70
0
 71
3
 72
12
 73
8
 74
0
 42
0.0000001
 43
0.0000001
 44
0.0000000001
 40
0.0
 40
0.0
 40
0.0
 40
0.0
 40
0.289532505
 40
0.5486594533
 40
0.781624295
 40
0.8918333986
 40
1.0
 40
1.0
 40
1.0
 40
1.0
 10
41.5254924814
 20
50.4074960151
 30
0.0
 10
41.4140202903
 20
50.4718530588
 30
0.0
 10
41.2118051013
 20
50.6111654288
 30
0.0
 10
40.9701505909
 20
50.8648901864
 30
0.0
 10
40.8404851786
 20
51.1040655148
 30
0.0
 10
40.7899046711
 20
51.2990615106
 30
0.0
 10
40.7815521227
 20
51.3963489452
 30
0.0
 10
40.7815624063
 20
51.4444361238
 30
0.0
  0
SPLINE
  5
2AA
100
AcDbEntity
  8
0
100
AcDbSpline
 62
7
  6
BYLAYER
 70
0
 71
3
 72
15
 73
11
 74
0
 42
0.0000001
 43
0.0000001
 44
0.0000000001
 40
0.0
 40
0.0
 40
0.0
 40
0.0
 40
0.1141464977
 40
0.237335278
 40
0.3669759337
 40
0.4999994786
 40
0.633023096
 40
0.7626639635
 40
0.8858530776
 40
1.0
 40
1.0
 40
1.0
 40
1.0
 10
48.7097123345
 20
48.3336416343
 30
0.0
 10
48.5867675068
 20
48.2626598288
 30
0.0
 10
48.3178911546
 20
48.1374720176
 30
0.0
 10
47.8800748429
 20
48.004373865
 30
0.0
 10
47.4060466267
 20
47.9224961911
 30
0.0
 10
46.9136641233
 20
47.8948370678
 30
0.0
 10
46.4212812263
 20
47.9224938541
 30
0.0
 10
45.9472518473
 20
48.0043692773
 30
0.0
 10
45.5094336507
 20
48.1374653486
 30
0.0
 10
45.2405556512
 20
48.262651817
 30
0.0
 10
45.1176098543
 20
48.3336329999
 30
0.0
  0
SPLINE
  5
2AB
100
AcDbEntity
  8
0
100
AcDbSpline
 62
7
  6
BYLAYER
 70
0
 71
3
 72
12
 73
8
 74
0
 42
0.0000001
 43
0.0000001
 44
0.0000000001
 40
0.0
 40
0.0
 40
0.0
 40
0.0
 40
0.2895577051
 40
0.5486551373
 40
0.7816333829
 40
0.8918396706
 40
1.0
 40
1.0
 40
1.0
 40
1.0
 10
41.525477527
 20
53.1035425421
 30
0.0
 10
41.4139970116
 20
53.0391796206
 30
0.0
 10
41.2117772995
 20
52.8998785503
 30
0.0
 10
40.9701381509
 20
52.6461375153
 30
0.0
 10
40.8404749106
 20
52.4069753977
 30
0.0
 10
40.7898929689
 20
52.2119773036
 30
0.0
 10
40.781554887
 20
52.1146950137
 30
0.0
 10
40.7815548876
 20
52.0666110164
 30
0.0
  0
SPLINE
  5
2AC
100
AcDbEntity
  8
0
100
AcDbSpline
 62
7
  6
BYLAYER
 70
0
 71
3
 72
13
 73
9
 74
0
 42
0.0000001
 43
0.0000001
 44
0.0000000001
 40
0.0
 40
0.0
 40
0.0
 40
0.0
 40
0.1080936316
 40
0.2182319596
 40
0.3322552351
 40
0.451683196
 40
0.7106208532
 40
1.0
 40
1.0
 40
1.0
 40
1.0
 10
31.6852964396
 20
77.6996681664
 30
0.0
 10
31.6852964405
 20
77.6275421713
 30
0.0
 10
31.6728083142
 20
77.4816271277
 30
0.0
 10
31.6168325324
 20
77.2661351768
 30
0.0
 10
31.5245880757
 20
77.0552605603
 30
0.0
 10
31.3500018177
 20
76.7757505259
 30
0.0
 10
31.039878742
 20
76.4495045608
 30
0.0
 10
30.7366332702
 20
76.2408152727
 30
0.0
 10
30.5694124989
 20
76.1442708917
 30
0.0
  0
SPLINE
  5
2AD
100
AcDbEntity
  8
0
100
AcDbSpline
 62
7
  6
BYLAYER
 70
0
 71
3
 72
13
 73
9
 74
0
 42
0.0000001
 43
0.0000001
 44
0.0000000001
 40
0.0
 40
0.0
 40
0.0
 40
0.0
 40
0.1080933872
 40
0.2182315081
 40
0.3322546464
 40
0.4516825566
 40
0.7106203807
 40
1.0
 40
1.0
 40
1.0
 40
1.0
 10
31.6852964396
 20
78.3218430083
 30
0.0
 10
31.6852964387
 20
78.3939697712
 30
0.0
 10
31.6728080414
 20
78.5398864013
 30
0.0
 10
31.6168310636
 20
78.7553806222
 30
0.0
 10
31.5245846402
 20
78.966257348
 30
0.0
 10
31.3499946741
 20
79.2457700802
 30
0.0
 10
31.0398651862
 20
79.5720185743
 30
0.0
 10
30.7366139643
 20
79.7807086559
 30
0.0
 10
30.5693900659
 20
79.8772532345
 30
0.0
  0
SPLINE
  5
2AE
100
AcDbEntity
  8
0
100
AcDbSpline
 62
7
  6
BYLAYER
 70
0
 71
3
 72
13
 73
9
 74
0
 42
0.0000001
 43
0.0000001
 44
0.0000000001
 40
0.0
 40
0.0
 40
0.0
 40
0.0
 40
0.2893766917
 40
0.5483136645
 40
0.6677419416
 40
0.7817659142
 40
0.8919052276
 40
1.0
 40
1.0
 40
1.0
 40
1.0
 10
56.5943816047
 20
31.1720176424
 30
0.0
 10
56.7616031829
 20
31.0754744033
 30
0.0
 10
57.093959485
 20
30.9172047194
 30
0.0
 10
57.5315619342
 20
30.8117590289
 30
0.0
 10
57.8609211894
 20
30.8003217419
 30
0.0
 10
58.0896693398
 20
30.8258755047
 30
0.0
 10
58.3042821593
 20
30.885147187
 30
0.0
 10
58.4368948061
 20
30.9472908455
 30
0.0
 10
58.499359073
 20
30.9833543937
 30
0.0
  0
SPLINE
  5
2AF
100
AcDbEntity
  8
0
100
AcDbSpline
 62
7
  6
BYLAYER
 70
0
 71
3
 72
10
 73
6
 74
0
 42
0.0000001
 43
0.0000001
 44
0.0000000001
 40
0.0
 40
0.0
 40
0.0
 40
0.0
 40
0.463836077
 40
0.7237956313
 40
1.0
 40
1.0
 40
1.0
 40
1.0
 10
39.4221963935
 20
76.1726539537
 30
0.0
 10
39.6239150039
 20
76.1255048818
 30
0.0
 10
39.9258718567
 20
75.9941324833
 30
0.0
 10
40.2977372164
 20
75.7465877457
 30
0.0
 10
40.4820025626
 20
75.5926465333
 30
0.0
 10
40.5728102328
 20
75.5091550024
 30
0.0
  0
SPLINE
  5
2B0
100
AcDbEntity
  8
0
100
AcDbSpline
 62
7
  6
BYLAYER
 70
0
 71
3
 72
13
 73
9
 74
0
 42
0.0000001
 43
0.0000001
 44
0.0000000001
 40
0.0
 40
0.0
 40
0.0
 40
0.0
 40
0.1080960838
 40
0.2182380358
 40
0.3322525221
 40
0.4516801425
 40
0.7106588081
 40
1.0
 40
1.0
 40
1.0
 40
1.0
 10
15.7809791844
 20
64.7394586995
 30
0.0
 10
15.7289184297
 20
64.7094138998
 30
0.0
 10
15.6288329357
 20
64.63956352
 30
0.0
 10
15.4966321679
 20
64.5093859224
 30
0.0
 10
15.3828424334
 20
64.3549718177
 30
0.0
 10
15.2538893491
 20
64.1124681988
 30
0.0
 10
15.1476622019
 20
63.7527108463
 30
0.0
 10
15.1233891695
 20
63.4468970522
 30
0.0
 10
15.1233891695
 20
63.2860048421
 30
0.0
  0
SPLINE
  5
2B1
100
AcDbEntity
  8
0
100
AcDbSpline
 62
7
  6
BYLAYER
 70
0
 71
3
 72
11
 73
7
 74
0
 42
0.0000001
 43
0.0000001
 44
0.0000000001
 40
0.0
 40
0.0
 40
0.0
 40
0.0
 40
0.2177849011
 40
0.4509184398
 40
0.7103088704
 40
1.0
 40
1.0
 40
1.0
 40
1.0
 10
16.288972322
 20
63.8595834736
 30
0.0
 10
16.3601946982
 20
63.9006905084
 30
0.0
 10
16.5238193303
 20
63.9600900203
 30
0.0
 10
16.7956164261
 20
63.9669657895
 30
0.0
 10
17.0852765853
 20
63.8970131212
 30
0.0
 10
17.273731697
 20
63.8073608094
 30
0.0
 10
17.3684625468
 20
63.7526691651
 30
0.0
  0
SPLINE
  5
2B2
100
AcDbEntity
  8
0
100
AcDbSpline
 62
7
  6
BYLAYER
 70
0
 71
3
 72
11
 73
7
 74
0
 42
0.0000001
 43
0.0000001
 44
0.0000000001
 40
0.0
 40
0.0
 40
0.0
 40
0.0
 40
0.2281591434
 40
0.474674434
 40
0.7341590761
 40
1.0
 40
1.0
 40
1.0
 40
1.0
 10
36.8556964711
 20
57.3756562446
 30
0.0
 10
37.2351393524
 20
57.1565897509
 30
0.0
 10
37.9840279239
 20
56.628903881
 30
0.0
 10
39.0108993761
 20
55.6572645174
 30
0.0
 10
39.9526353348
 20
54.5080727168
 30
0.0
 10
40.497414414
 20
53.655853602
 30
0.0
 10
40.7471223675
 20
53.2105918472
 30
0.0
  0
SPLINE
  5
2B3
100
AcDbEntity
  8
0
100
AcDbSpline
 62
7
  6
BYLAYER
 70
0
 71
3
 72
12
 73
8
 74
0
 42
0.0000001
 43
0.0000001
 44
0.0000000001
 40
0.0
 40
0.0
 40
0.0
 40
0.0
 40
0.2895581804
 40
0.5486557819
 40
0.7816338328
 40
0.8918399141
 40
1.0
 40
1.0
 40
1.0
 40
1.0
 10
41.5254924823
 20
33.8576452213
 30
0.0
 10
41.4140098822
 20
33.9220082746
 30
0.0
 10
41.2117863325
 20
34.061309879
 30
0.0
 10
40.9701422755
 20
34.3150527869
 30
0.0
 10
40.8404761923
 20
34.5542173111
 30
0.0
 10
40.7898931506
 20
34.7492175246
 30
0.0
 10
40.7815548882
 20
34.8465008722
 30
0.0
 10
40.7815548876
 20
34.8945853813
 30
0.0
  0
SPLINE
  5
2B4
100
AcDbEntity
  8
0
100
AcDbSpline
 62
7
  6
BYLAYER
 70
0
 71
3
 72
15
 73
11
 74
0
 42
0.0000001
 43
0.0000001
 44
0.0000000001
 40
0.0
 40
0.0
 40
0.0
 40
0.0
 40
0.1141464977
 40
0.237335278
 40
0.3669759337
 40
0.4999994786
 40
0.633023096
 40
0.7626639635
 40
0.8858530776
 40
1.0
 40
1.0
 40
1.0
 40
1.0
 10
48.7097123345
 20
31.783790841
 30
0.0
 10
48.5867675068
 20
31.7128090355
 30
0.0
 10
48.3178911546
 20
31.5876212243
 30
0.0
 10
47.8800748429
 20
31.4545230717
 30
0.0
 10
47.4060466267
 20
31.3726453978
 30
0.0
 10
46.9136641233
 20
31.3449862745
 30
0.0
 10
46.4212812263
 20
31.3726430609
 30
0.0
 10
45.9472518473
 20
31.454518484
 30
0.0
 10
45.5094336507
 20
31.5876145554
 30
0.0
 10
45.2405556512
 20
31.7128010237
 30
0.0
 10
45.1176098543
 20
31.7837822067
 30
0.0
  0
SPLINE
  5
2B5
100
AcDbEntity
  8
0
100
AcDbSpline
 62
7
  6
BYLAYER
 70
0
 71
3
 72
10
 73
6
 74
0
 42
0.0000001
 43
0.0000001
 44
0.0000000001
 40
0.0
 40
0.0
 40
0.0
 40
0.0
 40
0.5245357191
 40
0.7705141959
 40
1.0
 40
1.0
 40
1.0
 40
1.0
 10
69.0491022286
 20
48.7593612631
 30
0.0
 10
69.1894242885
 20
48.4780383349
 30
0.0
 10
69.3575488516
 20
48.0430962375
 30
0.0
 10
69.4771945226
 20
47.4548385912
 30
0.0
 10
69.4989227973
 20
47.1696048394
 30
0.0
 10
69.4989227973
 20
47.0320640659
 30
0.0
  0
SPLINE
  5
2B6
100
AcDbEntity
  8
0
100
AcDbSpline
 62
7
  6
BYLAYER
 70
0
 71
3
 72
13
 73
9
 74
0
 42
0.0000001
 43
0.0000001
 44
0.0000000001
 40
0.0
 40
0.0
 40
0.0
 40
0.0
 40
0.114176888
 40
0.2375715548
 40
0.5000017735
 40
0.762431024
 40
0.8858245003
 40
1.0
 40
1.0
 40
1.0
 40
1.0
 10
59.8272827814
 20
48.3648168932
 30
0.0
 10
59.8272827814
 20
48.4073791555
 30
0.0
 10
59.8351273665
 20
48.4960235445
 30
0.0
 10
59.8774028728
 20
48.6780128365
 30
0.0
 10
59.9759062308
 20
48.9011811022
 30
0.0
 10
60.1199227341
 20
49.0980720157
 30
0.0
 10
60.2563910367
 20
49.2256777933
 30
0.0
 10
60.3292362981
 20
49.2767930031
 30
0.0
 10
60.3660959054
 20
49.2980737803
 30
0.0
  0
SPLINE
  5
2B7
100
AcDbEntity
  8
0
100
AcDbSpline
 62
7
  6
BYLAYER
 70
0
 71
3
 72
15
 73
11
 74
0
 42
0.0000001
 43
0.0000001
 44
0.0000000001
 40
0.0
 40
0.0
 40
0.0
 40
0.0
 40
0.1141242661
 40
0.2373486253
 40
0.3669740476
 40
0.5000015346
 40
0.6330288076
 40
0.7626536034
 40
0.8858770013
 40
1.0
 40
1.0
 40
1.0
 40
1.0
 10
14.4229232847
 20
73.9562841296
 30
0.0
 10
14.4229232847
 20
74.0414459943
 30
0.0
 10
14.4385600585
 20
74.2187214535
 30
0.0
 10
14.5007114271
 20
74.4861524619
 30
0.0
 10
14.6003946059
 20
74.7570406235
 30
0.0
 10
14.7337200751
 20
75.0211896121
 30
0.0
 10
14.8958155772
 20
75.2687277745
 30
0.0
 10
15.0805682188
 20
75.4904997849
 30
0.0
 10
15.281092566
 20
75.6780390115
 30
0.0
 10
15.4267979033
 20
75.780217635
 30
0.0
 10
15.5005495326
 20
75.8227979038
 30
0.0
  0
SPLINE
  5
2B8
100
AcDbEntity
  8
0
100
AcDbSpline
 62
7
  6
BYLAYER
 70
0
 71
3
 72
13
 73
9
 74
0
 42
0.0000001
 43
0.0000001
 44
0.0000000001
 40
0.0
 40
0.0
 40
0.0
 40
0.0
 40
0.1080960838
 40
0.2182380358
 40
0.3322525221
 40
0.4516801425
 40
0.7106588081
 40
1.0
 40
1.0
 40
1.0
 40
1.0
 10
54.0370295343
 20
42.6528173984
 30
0.0
 10
53.9849687796
 20
42.6227725988
 30
0.0
 10
53.8848832856
 20
42.5529222189
 30
0.0
 10
53.7526825178
 20
42.4227446214
 30
0.0
 10
53.6388927834
 20
42.2683305167
 30
0.0
 10
53.509939699
 20
42.0258268978
 30
0.0
 10
53.4037125518
 20
41.6660695453
 30
0.0
 10
53.3794395194
 20
41.3602557512
 30
0.0
 10
53.3794395194
 20
41.199363541
 30
0.0
  0
SPLINE
  5
2B9
100
AcDbEntity
  8
0
100
AcDbSpline
 62
7
  6
BYLAYER
 70
0
 71
3
 72
11
 73
7
 74
0
 42
0.0000001
 43
0.0000001
 44
0.0000000001
 40
0.0
 40
0.0
 40
0.0
 40
0.0
 40
0.2177843137
 40
0.4509117637
 40
0.7102976701
 40
1.0
 40
1.0
 40
1.0
 40
1.0
 10
54.545023116
 20
41.7729414526
 30
0.0
 10
54.6162395962
 20
41.8140580297
 30
0.0
 10
54.7798705313
 20
41.8734410361
 30
0.0
 10
55.0516587259
 20
41.8803226608
 30
0.0
 10
55.341321245
 20
41.8103743263
 30
0.0
 10
55.5297785156
 20
41.7207215471
 30
0.0
 10
55.6245128967
 20
41.666027864
 30
0.0
  0
SPLINE
  5
2BA
100
AcDbEntity
  8
0
100
AcDbSpline
 62
7
  6
BYLAYER
 70
0
 71
3
 72
15
 73
11
 74
0
 42
0.0000001
 43
0.0000001
 44
0.0000000001
 40
0.0
 40
0.0
 40
0.0
 40
0.0
 40
0.0975915287
 40
0.2065141975
 40
0.3262706053
 40
0.4550473352
 40
0.590143932
 40
0.7283192445
 40
0.8660984329
 40
1.0
 40
1.0
 40
1.0
 40
1.0
 10
66.7574378232
 20
60.3344279416
 30
0.0
 10
66.8872764522
 20
60.3167286017
 30
0.0
 10
67.1574263254
 20
60.2424753775
 30
0.0
 10
67.5500913728
 20
60.0435295526
 30
0.0
 10
67.9391276269
 20
59.7593233632
 30
0.0
 10
68.3105032961
 20
59.4003395353
 30
0.0
 10
68.6509028562
 20
58.9797494352
 30
0.0
 10
68.9477537965
 20
58.5130457418
 30
0.0
 10
69.1899643411
 20
58.0176694893
 30
0.0
 10
69.311865991
 20
57.6727310617
 30
0.0
 10
69.3607757178
 20
57.4997172496
 30
0.0
  0
SPLINE
  5
2BB
100
AcDbEntity
  8
0
100
AcDbSpline
 62
7
  6
BYLAYER
 70
0
 71
3
 72
10
 73
6
 74
0
 42
0.0000001
 43
0.0000001
 44
0.0000000001
 40
0.0
 40
0.0
 40
0.0
 40
0.0
 40
0.463836077
 40
0.7237956313
 40
1.0
 40
1.0
 40
1.0
 40
1.0
 10
58.6400245036
 20
65.0774867274
 30
0.0
 10
58.8417431139
 20
65.0303376554
 30
0.0
 10
59.1436999667
 20
64.898965257
 30
0.0
 10
59.5155653265
 20
64.6514205193
 30
0.0
 10
59.6998306726
 20
64.497479307
 30
0.0
 10
59.7906383428
 20
64.413987776
 30
0.0
  0
SPLINE
  5
2BC
100
AcDbEntity
  8
0
100
AcDbSpline
 62
7
  6
BYLAYER
 70
0
 71
3
 72
10
 73
6
 74
0
 42
0.0000001
 43
0.0000001
 44
0.0000000001
 40
0.0
 40
0.0
 40
0.0
 40
0.0
 40
0.463836077
 40
0.7237956313
 40
1.0
 40
1.0
 40
1.0
 40
1.0
 10
47.6840664221
 20
71.4027689779
 30
0.0
 10
47.8857850325
 20
71.3556199059
 30
0.0
 10
48.1877418853
 20
71.2242475075
 30
0.0
 10
48.559607245
 20
70.9767027698
 30
0.0
 10
48.7438725912
 20
70.8227615575
 30
0.0
 10
48.8346802614
 20
70.7392700265
 30
0.0
  0
SPLINE
  5
2BD
100
AcDbEntity
  8
0
100
AcDbSpline
 62
7
  6
BYLAYER
 70
0
 71
3
 72
13
 73
9
 74
0
 42
0.0000001
 43
0.0000001
 44
0.0000000001
 40
0.0
 40
0.0
 40
0.0
 40
0.0
 40
0.2891669329
 40
0.5481713593
 40
0.6676856009
 40
0.7817907852
 40
0.8919651916
 40
1.0
 40
1.0
 40
1.0
 40
1.0
 10
60.2044521177
 20
33.2148561983
 30
0.0
 10
60.2044521176
 20
33.0232803926
 30
0.0
 10
60.1757744297
 20
32.6590451674
 30
0.0
 10
60.0503971009
 20
32.2302161922
 30
0.0
 10
59.8981542428
 20
31.9404315552
 30
0.0
 10
59.7638289435
 20
31.755404096
 30
0.0
 10
59.6076904126
 20
31.5988928556
 30
0.0
 10
59.4893403817
 20
31.5144678009
 30
0.0
 10
59.427764075
 20
31.4779820979
 30
0.0
  0
SPLINE
  5
2BE
100
AcDbEntity
  8
0
100
AcDbSpline
 62
7
  6
BYLAYER
 70
0
 71
3
 72
9
 73
5
 74
0
 42
0.0000001
 43
0.0000001
 44
0.0000000001
 40
0.0
 40
0.0
 40
0.0
 40
0.0
 40
0.5212010437
 40
1.0
 40
1.0
 40
1.0
 40
1.0
 10
59.8845024845
 20
45.8616987418
 30
0.0
 10
59.9837917915
 20
45.5906842963
 30
0.0
 10
60.1378100271
 20
45.0563734223
 30
0.0
 10
60.2020407267
 20
44.5026146986
 30
0.0
 10
60.2043191344
 20
44.2374759863
 30
0.0
  0
SPLINE
  5
2BF
100
AcDbEntity
  8
0
100
AcDbSpline
 62
7
  6
BYLAYER
 70
0
 71
3
 72
13
 73
9
 74
0
 42
0.0000001
 43
0.0000001
 44
0.0000000001
 40
0.0
 40
0.0
 40
0.0
 40
0.0
 40
0.1080947723
 40
0.2182340857
 40
0.3322580582
 40
0.4516863353
 40
0.7106233083
 40
1.0
 40
1.0
 40
1.0
 40
1.0
 10
36.38743735
 20
76.9550741764
 30
0.0
 10
36.4499016173
 20
76.9911377249
 30
0.0
 10
36.5825142651
 20
77.0532813837
 30
0.0
 10
36.7971270862
 20
77.1125530661
 30
0.0
 10
37.0258752384
 20
77.1381068285
 30
0.0
 10
37.3552344962
 20
77.1266695401
 30
0.0
 10
37.7928369484
 20
77.021223847
 30
0.0
 10
38.1251932528
 20
76.8629541614
 30
0.0
 10
38.2924148324
 20
76.7664109216
 30
0.0
  0
SPLINE
  5
2C0
100
AcDbEntity
  8
0
100
AcDbSpline
 62
7
  6
BYLAYER
 70
0
 71
3
 72
17
 73
13
 74
0
 42
0.0000001
 43
0.0000001
 44
0.0000000001
 40
0.0
 40
0.0
 40
0.0
 40
0.0
 40
0.0429672767
 40
0.087836307
 40
0.1361196306
 40
0.188775245
 40
0.3079310721
 40
0.4436309177
 40
0.5893016646
 40
0.7362812894
 40
0.8756363339
 40
1.0
 40
1.0
 40
1.0
 40
1.0
 10
16.843216854
 20
55.6444483015
 30
0.0
 10
16.8432134704
 20
55.6819520018
 30
0.0
 10
16.8328332792
 20
55.7589767184
 30
0.0
 10
16.7870004158
 20
55.8697868899
 30
0.0
 10
16.7129500972
 20
55.9744240634
 30
0.0
 10
16.5736290035
 20
56.1080322329
 30
0.0
 10
16.3377426333
 20
56.2437407881
 30
0.0
 10
16.0013763522
 20
56.3464037411
 30
0.0
 10
15.6278046933
 20
56.3880445282
 30
0.0
 10
15.2494861695
 20
56.3647934154
 30
0.0
 10
14.8994702418
 20
56.2790086452
 30
0.0
 10
14.6897987835
 20
56.1772839455
 30
0.0
 10
14.6003722229
 20
56.115753532
 30
0.0
  0
SPLINE
  5
2C1
100
AcDbEntity
  8
0
100
AcDbSpline
 62
7
  6
BYLAYER
 70
0
 71
3
 72
12
 73
8
 74
0
 42
0.0000001
 43
0.0000001
 44
0.0000000001
 40
0.0
 40
0.0
 40
0.0
 40
0.0
 40
0.1103602585
 40
0.2230958485
 40
0.459629099
 40
0.7173505357
 40
1.0
 40
1.0
 40
1.0
 40
1.0
 10
21.9137800719
 20
44.8880476325
 30
0.0
 10
21.9044345413
 20
44.789373792
 30
0.0
 10
21.8714883807
 20
44.5909681938
 30
0.0
 10
21.7495677528
 20
44.195506593
 30
0.0
 10
21.4878631731
 20
43.7106190229
 30
0.0
 10
21.0277484158
 20
43.180423354
 30
0.0
 10
20.6467798501
 20
42.8755812258
 30
0.0
 10
20.4376512719
 20
42.731689212
 30
0.0
  0
SPLINE
  5
2C2
100
AcDbEntity
  8
0
100
AcDbSpline
 62
7
  6
BYLAYER
 70
0
 71
3
 72
15
 73
11
 74
0
 42
0.0000001
 43
0.0000001
 44
0.0000000001
 40
0.0
 40
0.0
 40
0.0
 40
0.0
 40
0.108697933
 40
0.226531602
 40
0.3517607955
 40
0.4820978379
 40
0.6148798118
 40
0.7472884151
 40
0.8765234419
 40
1.0
 40
1.0
 40
1.0
 40
1.0
 10
20.4376512719
 20
42.731689212
 30
0.0
 10
20.1824534173
 20
42.5560989913
 30
0.0
 10
19.617819702
 20
42.2367681351
 30
0.0
 10
18.6823577028
 20
41.869355579
 30
0.0
 10
17.649563848
 20
41.6030991638
 30
0.0
 10
16.5518995856
 20
41.4462604938
 30
0.0
 10
15.4235266899
 20
41.4037155793
 30
0.0
 10
14.299802558
 20
41.4767842765
 30
0.0
 10
13.2161822263
 20
41.6631377115
 30
0.0
 10
12.522699528
 20
41.8649498132
 30
0.0
 10
12.1919567875
 20
41.9850908796
 30
0.0
  0
SPLINE
  5
2C3
100
AcDbEntity
  8
0
100
AcDbSpline
 62
7
  6
BYLAYER
 70
0
 71
3
 72
15
 73
11
 74
0
 42
0.0000001
 43
0.0000001
 44
0.0000000001
 40
0.0
 40
0.0
 40
0.0
 40
0.0
 40
0.1542850372
 40
0.3001121575
 40
0.4368017461
 40
0.5641620391
 40
0.6826136543
 40
0.7933180448
 40
0.8982224036
 40
1.0
 40
1.0
 40
1.0
 40
1.0
 10
12.1919567875
 20
41.9850908796
 30
0.0
 10
11.971573548
 20
42.0651442691
 30
0.0
 10
11.5493332841
 20
42.2396371608
 30
0.0
 10
10.9628938983
 20
42.5531780608
 30
0.0
 10
10.4484790243
 20
42.9070656602
 30
0.0
 10
10.0142031758
 20
43.2962325129
 30
0.0
 10
9.6671242955
 20
43.7152448523
 30
0.0
 10
9.4133168514
 20
44.1582664701
 30
0.0
 10
9.2582628604
 20
44.6184256752
 30
0.0
 10
9.2232761321
 20
44.933540174
 30
0.0
 10
9.2232781021
 20
45.0882151841
 30
0.0
  0
SPLINE
  5
2C4
100
AcDbEntity
  8
0
100
AcDbSpline
 62
7
  6
BYLAYER
 70
0
 71
3
 72
13
 73
9
 74
0
 42
0.0000001
 43
0.0000001
 44
0.0000000001
 40
0.0
 40
0.0
 40
0.0
 40
0.0
 40
0.2893776722
 40
0.5483149917
 40
0.6677431635
 40
0.7817668514
 40
0.8919057348
 40
1.0
 40
1.0
 40
1.0
 40
1.0
 10
69.0050186186
 20
44.9322522728
 30
0.0
 10
69.0050186185
 20
44.7391566912
 30
0.0
 10
68.9759086784
 20
44.3721818375
 30
0.0
 10
68.8484259782
 20
43.9404706599
 30
0.0
 10
68.6936488262
 20
43.6495098671
 30
0.0
 10
68.557141834
 20
43.4641800194
 30
0.0
 10
68.3985009944
 20
43.3079520202
 30
0.0
 10
68.2783736796
 20
43.2241764154
 30
0.0
 10
68.2159080323
 20
43.1881120702
 30
0.0
  0
SPLINE
  5
2C5
100
AcDbEntity
  8
0
100
AcDbSpline
 62
7
  6
BYLAYER
 70
0
 71
3
 72
13
 73
9
 74
0
 42
0.0000001
 43
0.0000001
 44
0.0000000001
 40
0.0
 40
0.0
 40
0.0
 40
0.0
 40
0.2893776722
 40
0.5483149917
 40
0.6677431635
 40
0.7817668514
 40
0.8919057348
 40
1.0
 40
1.0
 40
1.0
 40
1.0
 10
64.4969965224
 20
35.7346210368
 30
0.0
 10
64.4969965223
 20
35.5428127591
 30
0.0
 10
64.4680806485
 20
35.1782844044
 30
0.0
 10
64.3414478329
 20
34.7494513014
 30
0.0
 10
64.1877025286
 20
34.4604302472
 30
0.0
 10
64.0521055831
 20
34.2763359317
 30
0.0
 10
63.894522349
 20
34.1211494525
 30
0.0
 10
63.775195883
 20
34.0379323517
 30
0.0
 10
63.7131466734
 20
34.0021084355
 30
0.0
  0
SPLINE
  5
2C6
100
AcDbEntity
  8
0
100
AcDbSpline
 62
7
  6
BYLAYER
 70
0
 71
3
 72
13
 73
9
 74
0
 42
0.0000001
 43
0.0000001
 44
0.0000000001
 40
0.0
 40
0.0
 40
0.0
 40
0.0
 40
0.2544963957
 40
0.5165244613
 40
0.6453400163
 40
0.7699433246
 40
0.8886799009
 40
1.0
 40
1.0
 40
1.0
 40
1.0
 10
62.7010287919
 20
50.681473648
 30
0.0
 10
62.9703406247
 20
50.4176789094
 30
0.0
 10
63.4620334093
 20
49.8246203931
 30
0.0
 10
63.9364064915
 20
48.9888660241
 30
0.0
 10
64.2211438098
 20
48.2793998449
 30
0.0
 10
64.3773077924
 20
47.7497291287
 30
0.0
 10
64.4734493034
 20
47.2322932783
 30
0.0
 10
64.4969965223
 20
46.8912741002
 30
0.0
 10
64.4969965224
 20
46.7263765354
 30
0.0
  0
SPLINE
  5
2C7
100
AcDbEntity
  8
0
100
AcDbSpline
 62
7
  6
BYLAYER
 70
0
 71
3
 72
11
 73
7
 74
0
 42
0.0000001
 43
0.0000001
 44
0.0000000001
 40
0.0
 40
0.0
 40
0.0
 40
0.0
 40
0.2277212331
 40
0.4759492664
 40
0.7366024967
 40
1.0
 40
1.0
 40
1.0
 40
1.0
 10
66.3109305463
 20
60.5902792849
 30
0.0
 10
66.538324022
 20
60.4589965704
 30
0.0
 10
66.9844366701
 20
60.132927163
 30
0.0
 10
67.5803163809
 20
59.5234809155
 30
0.0
 10
68.1062718306
 20
58.8014315999
 30
0.0
 10
68.3931605032
 20
58.2670670957
 30
0.0
 10
68.5175959753
 20
57.9900237662
 30
0.0
  0
SPLINE
  5
2C8
100
AcDbEntity
  8
0
100
AcDbSpline
 62
7
  6
BYLAYER
 70
0
 71
3
 72
19
 73
15
 74
0
 42
0.0000001
 43
0.0000001
 44
0.0000000001
 40
0.0
 40
0.0
 40
0.0
 40
0.0
 40
0.0453755571
 40
0.0940773173
 40
0.1481663247
 40
0.2086025916
 40
0.3468415821
 40
0.4999851355
 40
0.6531292867
 40
0.7913784578
 40
0.8518214814
 40
0.9059179987
 40
0.9546237043
 40
1.0
 40
1.0
 40
1.0
 40
1.0
 10
53.1480025861
 20
44.1926170174
 30
0.0
 10
53.1312664576
 20
44.1829541328
 30
0.0
 10
53.0999559645
 20
44.1565469582
 30
0.0
 10
53.0665014695
 20
44.1020381453
 30
0.0
 10
53.0466805382
 20
44.0347261479
 30
0.0
 10
53.0381721291
 20
43.9268304256
 30
0.0
 10
53.064911462
 20
43.7770505788
 30
0.0
 10
53.1418476393
 20
43.6024956688
 30
0.0
 10
53.254544146
 20
43.4485813751
 30
0.0
 10
53.3708888462
 20
43.3505233456
 30
0.0
 10
53.4685918589
 20
43.3039376136
 30
0.0
 10
53.5368031573
 20
43.2874415334
 30
0.0
 10
53.6007417982
 20
43.2891607802
 30
0.0
 10
53.6392683002
 20
43.3030733864
 30
0.0
 10
53.6560047011
 20
43.3127364282
 30
0.0
  0
SPLINE
  5
2C9
100
AcDbEntity
  8
0
100
AcDbSpline
 62
7
  6
BYLAYER
 70
0
 71
3
 72
17
 73
13
 74
0
 42
0.0000001
 43
0.0000001
 44
0.0000000001
 40
0.0
 40
0.0
 40
0.0
 40
0.0
 40
0.0450448672
 40
0.0910017681
 40
0.1385721286
 40
0.1883832455
 40
0.2963450755
 40
0.4170327482
 40
0.5501300437
 40
0.6937259749
 40
0.8449132289
 40
1.0
 40
1.0
 40
1.0
 40
1.0
 10
53.6560047011
 20
43.3127364282
 30
0.0
 10
53.7205024677
 20
43.3499752958
 30
0.0
 10
53.8575715495
 20
43.4140710024
 30
0.0
 10
54.0793015726
 20
43.4754932079
 30
0.0
 10
54.31577535
 20
43.5018822454
 30
0.0
 10
54.6561030949
 20
43.4900219546
 30
0.0
 10
55.1083677568
 20
43.380998519
 30
0.0
 10
55.6512616038
 20
43.1225648368
 30
0.0
 10
56.1913781486
 20
42.7439226047
 30
0.0
 10
56.7095197532
 20
42.2592710319
 30
0.0
 10
57.1867238411
 20
41.6865416375
 30
0.0
 10
57.4648121243
 20
41.2618135906
 30
0.0
 10
57.5930210923
 20
41.0397503768
 30
0.0
  0
SPLINE
  5
2CA
100
AcDbEntity
  8
0
100
AcDbSpline
 62
7
  6
BYLAYER
 70
0
 71
3
 72
13
 73
9
 74
0
 42
0.0000001
 43
0.0000001
 44
0.0000000001
 40
0.0
 40
0.0
 40
0.0
 40
0.0
 40
0.3063506246
 40
0.5827902232
 40
0.7036979959
 40
0.8118499759
 40
0.9091454716
 40
1.0
 40
1.0
 40
1.0
 40
1.0
 10
57.5930210923
 20
41.0397503768
 30
0.0
 10
57.6256397619
 20
40.9832534975
 30
0.0
 10
57.699592636
 20
40.8822230805
 30
0.0
 10
57.8159332272
 20
40.7842422917
 30
0.0
 10
57.9136314398
 20
40.7376469854
 30
0.0
 10
57.9818149602
 20
40.7212340018
 30
0.0
 10
58.0457568316
 20
40.7227946547
 30
0.0
 10
58.084250394
 20
40.7368134226
 30
0.0
 10
58.1010060599
 20
40.7464865248
 30
0.0
  0
SPLINE
  5
2CB
100
AcDbEntity
  8
0
100
AcDbSpline
 62
7
  6
BYLAYER
 70
0
 71
3
 72
18
 73
14
 74
0
 42
0.0000001
 43
0.0000001
 44
0.0000000001
 40
0.0
 40
0.0
 40
0.0
 40
0.0
 40
0.1550699885
 40
0.3062053944
 40
0.4497879542
 40
0.5828590296
 40
0.7035253683
 40
0.7591156924
 40
0.811658766
 40
0.8614578689
 40
0.909008113
 40
0.9549510119
 40
1.0
 40
1.0
 40
1.0
 40
1.0
 10
53.1480025861
 20
38.4733443705
 30
0.0
 10
53.3093110916
 20
38.1939513942
 30
0.0
 10
53.6591351128
 20
37.6596133245
 30
0.0
 10
54.2595056642
 20
36.9391226668
 30
0.0
 10
54.9113925568
 20
36.3293279125
 30
0.0
 10
55.5906320889
 20
35.8530972846
 30
0.0
 10
56.175621634
 20
35.5747082621
 30
0.0
 10
56.6334850597
 20
35.4412478577
 30
0.0
 10
56.9583665933
 20
35.3867016983
 30
0.0
 10
57.2710110608
 20
35.3758438441
 30
0.0
 10
57.5684619697
 20
35.4089874806
 30
0.0
 10
57.847417399
 20
35.4862451763
 30
0.0
 10
58.0198579317
 20
35.5669191399
 30
0.0
 10
58.1010232073
 20
35.6137812735
 30
0.0
  0
SPLINE
  5
2CC
100
AcDbEntity
  8
0
100
AcDbSpline
 62
7
  6
BYLAYER
 70
0
 71
3
 72
19
 73
15
 74
0
 42
0.0000001
 43
0.0000001
 44
0.0000000001
 40
0.0
 40
0.0
 40
0.0
 40
0.0
 40
0.0453755571
 40
0.0940773173
 40
0.1481663247
 40
0.2086025916
 40
0.3468415821
 40
0.4999851355
 40
0.6531292867
 40
0.7913784578
 40
0.8518214814
 40
0.9059179987
 40
0.9546237043
 40
1.0
 40
1.0
 40
1.0
 40
1.0
 10
14.8919522362
 20
66.2792583184
 30
0.0
 10
14.8752161077
 20
66.2695954339
 30
0.0
 10
14.8439056146
 20
66.2431882592
 30
0.0
 10
14.8104511196
 20
66.1886794463
 30
0.0
 10
14.7906301883
 20
66.1213674489
 30
0.0
 10
14.7821217791
 20
66.0134717267
 30
0.0
 10
14.8088611121
 20
65.8636918798
 30
0.0
 10
14.8857972894
 20
65.6891369698
 30
0.0
 10
14.9984937961
 20
65.5352226762
 30
0.0
 10
15.1148384963
 20
65.4371646466
 30
0.0
 10
15.212541509
 20
65.3905789147
 30
0.0
 10
15.2807528074
 20
65.3740828344
 30
0.0
 10
15.3446914483
 20
65.3758020813
 30
0.0
 10
15.3832179503
 20
65.3897146875
 30
0.0
 10
15.3999543512
 20
65.3993777293
 30
0.0
  0
SPLINE
  5
2CD
100
AcDbEntity
  8
0
100
AcDbSpline
 62
7
  6
BYLAYER
 70
0
 71
3
 72
17
 73
13
 74
0
 42
0.0000001
 43
0.0000001
 44
0.0000000001
 40
0.0
 40
0.0
 40
0.0
 40
0.0
 40
0.0450448672
 40
0.0910017681
 40
0.1385721286
 40
0.1883832455
 40
0.2963450755
 40
0.4170327482
 40
0.5501300437
 40
0.6937259749
 40
0.8449132289
 40
1.0
 40
1.0
 40
1.0
 40
1.0
 10
15.3999543512
 20
65.3993777293
 30
0.0
 10
15.4644521178
 20
65.4366165969
 30
0.0
 10
15.6015211996
 20
65.5007123035
 30
0.0
 10
15.8232512227
 20
65.5621345089
 30
0.0
 10
16.0597250001
 20
65.5885235465
 30
0.0
 10
16.400052745
 20
65.5766632557
 30
0.0
 10
16.8523174069
 20
65.46763982
 30
0.0
 10
17.3952112539
 20
65.2092061379
 30
0.0
 10
17.9353277987
 20
64.8305639057
 30
0.0
 10
18.4534694033
 20
64.3459123329
 30
0.0
 10
18.9306734912
 20
63.7731829386
 30
0.0
 10
19.2087617744
 20
63.3484548917
 30
0.0
 10
19.3369707424
 20
63.1263916778
 30
0.0
  0
SPLINE
  5
2CE
100
AcDbEntity
  8
0
100
AcDbSpline
 62
7
  6
BYLAYER
 70
0
 71
3
 72
13
 73
9
 74
0
 42
0.0000001
 43
0.0000001
 44
0.0000000001
 40
0.0
 40
0.0
 40
0.0
 40
0.0
 40
0.3063506246
 40
0.5827902232
 40
0.7036979959
 40
0.8118499759
 40
0.9091454716
 40
1.0
 40
1.0
 40
1.0
 40
1.0
 10
19.3369707424
 20
63.1263916778
 30
0.0
 10
19.369589412
 20
63.0698947986
 30
0.0
 10
19.4435422861
 20
62.9688643816
 30
0.0
 10
19.5598828773
 20
62.8708835927
 30
0.0
 10
19.6575810899
 20
62.8242882864
 30
0.0
 10
19.7257646103
 20
62.8078753028
 30
0.0
 10
19.7897064817
 20
62.8094359558
 30
0.0
 10
19.8282000441
 20
62.8234547237
 30
0.0
 10
19.84495571
 20
62.8331278259
 30
0.0
  0
SPLINE
  5
2CF
100
AcDbEntity
  8
0
100
AcDbSpline
 62
7
  6
BYLAYER
 70
0
 71
3
 72
11
 73
7
 74
0
 42
0.0000001
 43
0.0000001
 44
0.0000000001
 40
0.0
 40
0.0
 40
0.0
 40
0.0
 40
0.2897036169
 40
0.5490920547
 40
0.7822205729
 40
1.0
 40
1.0
 40
1.0
 40
1.0
 10
63.6169075687
 20
55.613034163
 30
0.0
 10
63.5221722061
 20
55.6677284128
 30
0.0
 10
63.350297347
 20
55.7861084729
 30
0.0
 10
63.1448787618
 20
56.0019842633
 30
0.0
 10
63.0149402386
 20
56.2408020691
 30
0.0
 10
62.9845583304
 20
56.4122010845
 30
0.0
 10
62.9845521127
 20
56.4944332953
 30
0.0
  0
SPLINE
  5
2D0
100
AcDbEntity
  8
0
100
AcDbSpline
 62
7
  6
BYLAYER
 70
0
 71
3
 72
11
 73
7
 74
0
 42
0.0000001
 43
0.0000001
 44
0.0000000001
 40
0.0
 40
0.0
 40
0.0
 40
0.0
 40
0.2897036169
 40
0.5490920547
 40
0.7822205729
 40
1.0
 40
1.0
 40
1.0
 40
1.0
 10
25.3608572188
 20
77.6996754641
 30
0.0
 10
25.2661218562
 20
77.7543697138
 30
0.0
 10
25.0942469971
 20
77.8727497739
 30
0.0
 10
24.8888284119
 20
78.0886255644
 30
0.0
 10
24.7588898887
 20
78.3274433702
 30
0.0
 10
24.7285079805
 20
78.4988423856
 30
0.0
 10
24.7285017628
 20
78.5810745964
 30
0.0
  0
SPLINE
  5
2D1
100
AcDbEntity
  8
0
100
AcDbSpline
 62
7
  6
BYLAYER
 70
0
 71
3
 72
11
 73
7
 74
0
 42
0.0000001
 43
0.0000001
 44
0.0000000001
 40
0.0
 40
0.0
 40
0.0
 40
0.0
 40
0.2282670049
 40
0.4746805104
 40
0.7339577634
 40
1.0
 40
1.0
 40
1.0
 40
1.0
 10
53.3794395194
 20
41.199363541
 30
0.0
 10
53.3794395194
 20
41.0217220513
 30
0.0
 10
53.4120562095
 20
40.6519801525
 30
0.0
 10
53.5418617063
 20
40.0941958398
 30
0.0
 10
53.7499252095
 20
39.5293271599
 30
0.0
 10
53.9347529253
 20
39.1635280331
 30
0.0
 10
54.0383713785
 20
38.9842843345
 30
0.0
  0
SPLINE
  5
2D2
100
AcDbEntity
  8
0
100
AcDbSpline
 62
7
  6
BYLAYER
 70
0
 71
3
 72
16
 73
12
 74
0
 42
0.0000001
 43
0.0000001
 44
0.0000000001
 40
0.0
 40
0.0
 40
0.0
 40
0.0
 40
0.1551469949
 40
0.3063509579
 40
0.4499900263
 40
0.583108537
 40
0.7038201872
 40
0.8118144521
 40
0.9089569825
 40
0.9549020448
 40
1.0
 40
1.0
 40
1.0
 40
1.0
 10
54.0383713785
 20
38.9842843345
 30
0.0
 10
54.1418071855
 20
38.8053565855
 30
0.0
 10
54.3660402095
 20
38.4631496484
 30
0.0
 10
54.7508406182
 20
38.0017685649
 30
0.0
 10
55.1685372597
 20
37.6113539422
 30
0.0
 10
55.6038527075
 20
37.3063976752
 30
0.0
 10
56.0416900505
 20
37.0983071119
 30
0.0
 10
56.4672414491
 20
36.9955260617
 30
0.0
 10
56.8069503282
 20
37.0046133392
 30
0.0
 10
57.0494930917
 20
37.0718377548
 30
0.0
 10
57.1599637358
 20
37.1235523853
 30
0.0
 10
57.2119962591
 20
37.1535808924
 30
0.0
  0
SPLINE
  5
2D3
100
AcDbEntity
  8
0
100
AcDbSpline
 62
7
  6
BYLAYER
 70
0
 71
3
 72
19
 73
15
 74
0
 42
0.0000001
 43
0.0000001
 44
0.0000000001
 40
0.0
 40
0.0
 40
0.0
 40
0.0
 40
0.0623912204
 40
0.12883165
 40
0.2703521188
 40
0.4174418405
 40
0.5617162437
 40
0.6953237839
 40
0.7563173263
 40
0.8127977205
 40
0.8647364846
 40
0.9125503751
 40
0.9571578678
 40
1.0
 40
1.0
 40
1.0
 40
1.0
 10
55.6245128967
 20
41.666027864
 30
0.0
 10
55.7020325742
 20
41.6212728699
 30
0.0
 10
55.8561154966
 20
41.5182324514
 30
0.0
 10
56.1533824345
 20
41.2681770507
 30
0.0
 10
56.4917422151
 20
40.8831300981
 30
0.0
 10
56.8184375863
 20
40.3516913007
 30
0.0
 10
57.0479827532
 20
39.7837772931
 30
0.0
 10
57.14592479
 20
39.3036169319
 30
0.0
 10
57.1552017477
 20
38.942662687
 30
0.0
 10
57.1290340531
 20
38.7001664408
 30
0.0
 10
57.0702652291
 20
38.4827565925
 30
0.0
 10
56.9795711041
 20
38.2949593066
 30
0.0
 10
56.8581055102
 20
38.1414516953
 30
0.0
 10
56.757237478
 20
38.0641811047
 30
0.0
 10
56.7040031215
 20
38.0334561183
 30
0.0
  0
SPLINE
  5
2D4
100
AcDbEntity
  8
0
100
AcDbSpline
 62
7
  6
BYLAYER
 70
0
 71
3
 72
15
 73
11
 74
0
 42
0.0000001
 43
0.0000001
 44
0.0000000001
 40
0.0
 40
0.0
 40
0.0
 40
0.0
 40
0.1141469224
 40
0.2373360366
 40
0.366976904
 40
0.5000005214
 40
0.6330240662
 40
0.7626647219
 40
0.8858535023
 40
1.0
 40
1.0
 40
1.0
 40
1.0
 10
67.3885934543
 20
58.6201571467
 30
0.0
 10
67.2041747608
 20
58.7266289203
 30
0.0
 10
66.8008577646
 20
58.9144086201
 30
0.0
 10
66.144130475
 20
59.1140527229
 30
0.0
 10
65.4330864129
 20
59.2368658552
 30
0.0
 10
64.6945120746
 20
59.278351034
 30
0.0
 10
63.9559383268
 20
59.2368623498
 30
0.0
 10
63.244896009
 20
59.1140458414
 30
0.0
 10
62.5881715467
 20
58.9143986167
 30
0.0
 10
62.1848570214
 20
58.7266169025
 30
0.0
 10
62.0004397817
 20
58.6201441951
 30
0.0
  0
SPLINE
  5
2D5
100
AcDbEntity
  8
0
100
AcDbSpline
 62
7
  6
BYLAYER
 70
0
 71
3
 72
16
 73
12
 74
0
 42
0.0000001
 43
0.0000001
 44
0.0000000001
 40
0.0
 40
0.0
 40
0.0
 40
0.0
 40
0.1210677735
 40
0.2532997556
 40
0.3919736175
 40
0.5315410799
 40
0.6663284465
 40
0.7912853404
 40
0.8489494617
 40
0.9029904236
 40
1.0
 40
1.0
 40
1.0
 40
1.0
 10
66.6701819378
 20
56.7536575776
 30
0.0
 10
66.5363070255
 20
56.8309485457
 30
0.0
 10
66.2377482145
 20
56.9613922459
 30
0.0
 10
65.7500082415
 20
57.0816469325
 30
0.0
 10
65.2262998555
 20
57.130407644
 30
0.0
 10
64.6977560525
 20
57.1047263313
 30
0.0
 10
64.1956307667
 20
57.0061319808
 30
0.0
 10
63.8134470932
 20
56.8642505562
 30
0.0
 10
63.5487276813
 20
56.7171688816
 30
0.0
 10
63.3315943747
 20
56.5623807095
 30
0.0
 10
63.1953390109
 20
56.4206455824
 30
0.0
 10
63.1269366789
 20
56.3173793704
 30
0.0
  0
SPLINE
  5
2D6
100
AcDbEntity
  8
0
100
AcDbSpline
 62
7
  6
BYLAYER
 70
0
 71
3
 72
9
 73
5
 74
0
 42
0.0000001
 43
0.0000001
 44
0.0000000001
 40
0.0
 40
0.0
 40
0.0
 40
0.0
 40
0.255535728
 40
1.0
 40
1.0
 40
1.0
 40
1.0
 10
63.1269366789
 20
56.3173793704
 30
0.0
 10
63.1195324745
 20
56.3062013283
 30
0.0
 10
63.0914271098
 20
56.2618914852
 30
0.0
 10
63.0669245414
 20
56.2152675559
 30
0.0
 10
63.0511798029
 20
56.179519481
 30
0.0
  0
SPLINE
  5
2D7
100
AcDbEntity
  8
0
100
AcDbSpline
 62
7
  6
BYLAYER
 70
0
 71
3
 72
16
 73
12
 74
0
 42
0.0000001
 43
0.0000001
 44
0.0000000001
 40
0.0
 40
0.0
 40
0.0
 40
0.0
 40
0.1210677735
 40
0.2532997556
 40
0.3919736175
 40
0.5315410799
 40
0.6663284465
 40
0.7912853404
 40
0.8489494617
 40
0.9029904236
 40
1.0
 40
1.0
 40
1.0
 40
1.0
 10
28.4141315879
 20
78.8402988786
 30
0.0
 10
28.2802566756
 20
78.9175898468
 30
0.0
 10
27.9816978646
 20
79.0480335469
 30
0.0
 10
27.4939578916
 20
79.1682882335
 30
0.0
 10
26.9702495056
 20
79.2170489451
 30
0.0
 10
26.4417057026
 20
79.1913676324
 30
0.0
 10
25.9395804168
 20
79.0927732818
 30
0.0
 10
25.5573967433
 20
78.9508918572
 30
0.0
 10
25.2926773314
 20
78.8038101827
 30
0.0
 10
25.0755440248
 20
78.6490220105
 30
0.0
 10
24.939288661
 20
78.5072868834
 30
0.0
 10
24.870886329
 20
78.4040206714
 30
0.0
  0
SPLINE
  5
2D8
100
AcDbEntity
  8
0
100
AcDbSpline
 62
7
  6
BYLAYER
 70
0
 71
3
 72
9
 73
5
 74
0
 42
0.0000001
 43
0.0000001
 44
0.0000000001
 40
0.0
 40
0.0
 40
0.0
 40
0.0
 40
0.255535728
 40
1.0
 40
1.0
 40
1.0
 40
1.0
 10
24.870886329
 20
78.4040206714
 30
0.0
 10
24.8634821246
 20
78.3928426294
 30
0.0
 10
24.8353767599
 20
78.3485327863
 30
0.0
 10
24.8108741915
 20
78.301908857
 30
0.0
 10
24.795129453
 20
78.266160782
 30
0.0
  0
SPLINE
  5
2D9
100
AcDbEntity
  8
0
100
AcDbSpline
 62
7
  6
BYLAYER
 70
0
 71
3
 72
11
 73
7
 74
0
 42
0.0000001
 43
0.0000001
 44
0.0000000001
 40
0.0
 40
0.0
 40
0.0
 40
0.0
 40
0.286659757
 40
0.5464443985
 40
0.7817627117
 40
1.0
 40
1.0
 40
1.0
 40
1.0
 10
69.4989227973
 20
47.0320640659
 30
0.0
 10
69.4989227973
 20
46.9015650602
 30
0.0
 10
69.4809504725
 20
46.6521526208
 30
0.0
 10
69.3910314655
 20
46.3053507879
 30
0.0
 10
69.2402766305
 20
46.0141638264
 30
0.0
 10
69.0970374019
 20
45.8607151917
 30
0.0
 10
69.0188292778
 20
45.799445438
 30
0.0
  0
SPLINE
  5
2DA
100
AcDbEntity
  8
0
100
AcDbSpline
 62
7
  6
BYLAYER
 70
0
 71
3
 72
11
 73
7
 74
0
 42
0.0000001
 43
0.0000001
 44
0.0000000001
 40
0.0
 40
0.0
 40
0.0
 40
0.0
 40
0.2282670049
 40
0.4746805104
 40
0.7339577634
 40
1.0
 40
1.0
 40
1.0
 40
1.0
 10
15.1233891695
 20
63.2860048421
 30
0.0
 10
15.1233891695
 20
63.1083633523
 30
0.0
 10
15.1560058596
 20
62.7386214536
 30
0.0
 10
15.2858113564
 20
62.1808371408
 30
0.0
 10
15.4938748596
 20
61.6159684609
 30
0.0
 10
15.6787025754
 20
61.2501693341
 30
0.0
 10
15.7823210286
 20
61.0709256355
 30
0.0
  0
SPLINE
  5
2DB
100
AcDbEntity
  8
0
100
AcDbSpline
 62
7
  6
BYLAYER
 70
0
 71
3
 72
15
 73
11
 74
0
 42
0.0000001
 43
0.0000001
 44
0.0000000001
 40
0.0
 40
0.0
 40
0.0
 40
0.0
 40
0.1129615254
 40
0.2345294458
 40
0.3623678408
 40
0.4939532321
 40
0.6263676329
 40
0.7566296675
 40
0.881968393
 40
1.0
 40
1.0
 40
1.0
 40
1.0
 10
17.3684625468
 20
63.7526691651
 30
0.0
 10
17.4658962089
 20
63.6964170866
 30
0.0
 10
17.6587233116
 20
63.5628410061
 30
0.0
 10
17.9262293505
 20
63.3193090996
 30
0.0
 10
18.175340631
 20
63.0319781539
 30
0.0
 10
18.3978819381
 20
62.710498323
 30
0.0
 10
18.5865597445
 20
62.3653024952
 30
0.0
 10
18.7352508154
 20
62.0077625909
 30
0.0
 10
18.839045038
 20
61.6495834552
 30
0.0
 10
18.8772871847
 20
61.4093552258
 30
0.0
 10
18.887168041
 20
61.2922155126
 30
0.0
  0
SPLINE
  5
2DC
100
AcDbEntity
  8
0
100
AcDbSpline
 62
7
  6
BYLAYER
 70
0
 71
3
 72
11
 73
7
 74
0
 42
0.0000001
 43
0.0000001
 44
0.0000000001
 40
0.0
 40
0.0
 40
0.0
 40
0.0
 40
0.2226261679
 40
0.4579368094
 40
0.7156746423
 40
1.0
 40
1.0
 40
1.0
 40
1.0
 10
16.8432149646
 20
55.4577958018
 30
0.0
 10
16.8432207716
 20
55.4148785871
 30
0.0
 10
16.8294077127
 20
55.3260962177
 30
0.0
 10
16.7692729219
 20
55.2001505221
 30
0.0
 10
16.6729776771
 20
55.0837561391
 30
0.0
 10
16.5912870917
 20
55.0175599517
 30
0.0
 10
16.5461319059
 20
54.9864906895
 30
0.0
  0
SPLINE
  5
2DD
100
AcDbEntity
  8
0
100
AcDbSpline
 62
7
  6
BYLAYER
 70
0
 71
3
 72
17
 73
13
 74
0
 42
0.0000001
 43
0.0000001
 44
0.0000000001
 40
0.0
 40
0.0
 40
0.0
 40
0.0
 40
0.0429672767
 40
0.087836307
 40
0.1361196306
 40
0.188775245
 40
0.3079310721
 40
0.4436309177
 40
0.5893016646
 40
0.7362812894
 40
0.8756363339
 40
1.0
 40
1.0
 40
1.0
 40
1.0
 10
14.3032872748
 20
55.6444483726
 30
0.0
 10
14.3032906584
 20
55.6069446723
 30
0.0
 10
14.3136708496
 20
55.5299199557
 30
0.0
 10
14.359503713
 20
55.4191097842
 30
0.0
 10
14.4335540316
 20
55.3144726107
 30
0.0
 10
14.5728751253
 20
55.1808644412
 30
0.0
 10
14.8087614955
 20
55.045155886
 30
0.0
 10
15.1451277766
 20
54.942492933
 30
0.0
 10
15.5186994355
 20
54.9008521459
 30
0.0
 10
15.8970179593
 20
54.9241032587
 30
0.0
 10
16.2470338869
 20
55.0098880289
 30
0.0
 10
16.4567053453
 20
55.1116127286
 30
0.0
 10
16.5461319059
 20
55.1731431421
 30
0.0
  0
SPLINE
  5
2DE
100
AcDbEntity
  8
0
100
AcDbSpline
 62
7
  6
BYLAYER
 70
0
 71
3
 72
15
 73
11
 74
0
 42
0.0000001
 43
0.0000001
 44
0.0000000001
 40
0.0
 40
0.0
 40
0.0
 40
0.0
 40
0.1141229605
 40
0.2373462928
 40
0.366971064
 40
0.4999983279
 40
0.633025824
 40
0.762651271
 40
0.8858756957
 40
1.0
 40
1.0
 40
1.0
 40
1.0
 10
60.3660959054
 20
49.9202486221
 30
0.0
 10
60.2923443008
 20
49.8776683675
 30
0.0
 10
60.1466390119
 20
49.7754898108
 30
0.0
 10
59.9461147369
 20
49.5879506465
 30
0.0
 10
59.7613621177
 20
49.3661787158
 30
0.0
 10
59.5992665964
 20
49.1186405876
 30
0.0
 10
59.4659410879
 20
48.8544915986
 30
0.0
 10
59.3662578514
 20
48.5836033777
 30
0.0
 10
59.3041064649
 20
48.3161722756
 30
0.0
 10
59.2884696575
 20
48.1388967412
 30
0.0
 10
59.2884696575
 20
48.0537348479
 30
0.0
  0
SPLINE
  5
2DF
100
AcDbEntity
  8
0
100
AcDbSpline
 62
7
  6
BYLAYER
 70
0
 71
3
 72
19
 73
15
 74
0
 42
0.0000001
 43
0.0000001
 44
0.0000000001
 40
0.0
 40
0.0
 40
0.0
 40
0.0
 40
0.0428385741
 40
0.0874433207
 40
0.1352549764
 40
0.1871925429
 40
0.2436709144
 40
0.3046630743
 40
0.4382667828
 40
0.5825421017
 40
0.7296386972
 40
0.8711665501
 40
0.9376089289
 40
1.0
 40
1.0
 40
1.0
 40
1.0
 10
24.7285017628
 20
78.5810745964
 30
0.0
 10
24.7284971157
 20
78.6425336387
 30
0.0
 10
24.7449716349
 20
78.7685135524
 30
0.0
 10
24.8171834082
 20
78.9504433568
 30
0.0
 10
24.9344561709
 20
79.1228831843
 30
0.0
 10
25.0933536243
 20
79.2824703387
 30
0.0
 10
25.2902628694
 20
79.4263840044
 30
0.0
 10
25.6074878083
 20
79.5988154285
 30
0.0
 10
26.0722740785
 20
79.7540821303
 30
0.0
 10
26.6788736205
 20
79.8392537349
 30
0.0
 10
27.3024760596
 20
79.8220569937
 30
0.0
 10
27.8051356063
 20
79.7215557154
 30
0.0
 10
28.1703336775
 20
79.5891445919
 30
0.0
 10
28.3366129181
 20
79.5072281329
 30
0.0
 10
28.4141315879
 20
79.4624737205
 30
0.0
  0
SPLINE
  5
2E0
100
AcDbEntity
  8
0
100
AcDbSpline
 62
7
  6
BYLAYER
 70
0
 71
3
 72
15
 73
11
 74
0
 42
0.0000001
 43
0.0000001
 44
0.0000000001
 40
0.0
 40
0.0
 40
0.0
 40
0.0
 40
0.118678151
 40
0.2453521906
 40
0.3771868334
 40
0.510917035
 40
0.6431282854
 40
0.7705253407
 40
0.8902109476
 40
1.0
 40
1.0
 40
1.0
 40
1.0
 10
12.3079072107
 20
53.2110582516
 30
0.0
 10
12.5730123413
 20
53.0826298273
 30
0.0
 10
13.1430026146
 20
52.8611229882
 30
0.0
 10
14.0549148614
 20
52.6395107011
 30
0.0
 10
15.0237929674
 20
52.5234105852
 30
0.0
 10
16.0131753923
 20
52.517271741
 30
0.0
 10
16.9860819692
 20
52.6212636733
 30
0.0
 10
17.906271934
 20
52.8316089444
 30
0.0
 10
18.7392804708
 20
53.1403795143
 30
0.0
 10
19.2402689014
 20
53.4181049635
 30
0.0
 10
19.4647714469
 20
53.5725751159
 30
0.0
  0
SPLINE
  5
2E1
100
AcDbEntity
  8
0
100
AcDbSpline
 62
7
  6
BYLAYER
 70
0
 71
3
 72
13
 73
9
 74
0
 42
0.0000001
 43
0.0000001
 44
0.0000000001
 40
0.0
 40
0.0
 40
0.0
 40
0.0
 40
0.1080960838
 40
0.2182380358
 40
0.3322525221
 40
0.4516801425
 40
0.7106588081
 40
1.0
 40
1.0
 40
1.0
 40
1.0
 10
57.2119962591
 20
37.1535808924
 30
0.0
 10
57.2640570138
 20
37.183625692
 30
0.0
 10
57.3641425078
 20
37.2534760719
 30
0.0
 10
57.4963432756
 20
37.3836536694
 30
0.0
 10
57.6101330101
 20
37.5380677742
 30
0.0
 10
57.7390860944
 20
37.7805713931
 30
0.0
 10
57.8453132416
 20
38.1403287456
 30
0.0
 10
57.8695862741
 20
38.4461425396
 30
0.0
 10
57.8695862741
 20
38.6070347498
 30
0.0
  0
SPLINE
  5
2E2
100
AcDbEntity
  8
0
100
AcDbSpline
 62
7
  6
BYLAYER
 70
0
 71
3
 72
10
 73
6
 74
0
 42
0.0000001
 43
0.0000001
 44
0.0000000001
 40
0.0
 40
0.0
 40
0.0
 40
0.0
 40
0.2361602543
 40
0.4802005264
 40
1.0
 40
1.0
 40
1.0
 40
1.0
 10
33.1127345008
 20
57.7139386708
 30
0.0
 10
33.0186257492
 20
57.6260233576
 30
0.0
 10
32.8400349605
 20
57.4330700675
 30
0.0
 10
32.526206561
 20
56.9856411686
 30
0.0
 10
32.3545444218
 20
56.6006490302
 30
0.0
 10
32.265215343
 20
56.331630925
 30
0.0
  0
SPLINE
  5
2E3
100
AcDbEntity
  8
0
100
AcDbSpline
 62
7
  6
BYLAYER
 70
0
 71
3
 72
16
 73
12
 74
0
 42
0.0000001
 43
0.0000001
 44
0.0000000001
 40
0.0
 40
0.0
 40
0.0
 40
0.0
 40
0.0450963096
 40
0.0910403927
 40
0.1881823251
 40
0.2961777245
 40
0.4168905427
 40
0.5500090134
 40
0.6936469396
 40
0.8448503341
 40
1.0
 40
1.0
 40
1.0
 40
1.0
 10
54.3962380667
 20
42.8602057989
 30
0.0
 10
54.4482705816
 20
42.8902346838
 30
0.0
 10
54.5587403859
 20
42.9419547867
 30
0.0
 10
54.8012915294
 20
43.0091710306
 30
0.0
 10
55.1410119973
 20
43.0182649746
 30
0.0
 10
55.5665814284
 20
42.9154680746
 30
0.0
 10
56.0044339183
 20
42.7073590932
 30
0.0
 10
56.4397597159
 20
42.4023805569
 30
0.0
 10
56.8574618868
 20
42.0119425334
 30
0.0
 10
57.2422710263
 20
41.5505360402
 30
0.0
 10
57.4665045923
 20
41.2083065861
 30
0.0
 10
57.569941516
 20
41.029365941
 30
0.0
  0
SPLINE
  5
2E4
100
AcDbEntity
  8
0
100
AcDbSpline
 62
7
  6
BYLAYER
 70
0
 71
3
 72
11
 73
7
 74
0
 42
0.0000001
 43
0.0000001
 44
0.0000000001
 40
0.0
 40
0.0
 40
0.0
 40
0.0
 40
0.2660439765
 40
0.5253219726
 40
0.7717373563
 40
1.0
 40
1.0
 40
1.0
 40
1.0
 10
57.569941516
 20
41.029365941
 30
0.0
 10
57.6735489183
 20
40.8501303764
 30
0.0
 10
57.858353991
 20
40.4843486351
 30
0.0
 10
58.0663947495
 20
39.9195113191
 30
0.0
 10
58.196182406
 20
39.3617638827
 30
0.0
 10
58.2287950234
 20
38.9920489268
 30
0.0
 10
58.2287950234
 20
38.81442278
 30
0.0
  0
SPLINE
  5
2E5
100
AcDbEntity
  8
0
100
AcDbSpline
 62
7
  6
BYLAYER
 70
0
 71
3
 72
11
 73
7
 74
0
 42
0.0000001
 43
0.0000001
 44
0.0000000001
 40
0.0
 40
0.0
 40
0.0
 40
0.0
 40
0.2832453152
 40
0.5428783991
 40
0.7801823199
 40
1.0
 40
1.0
 40
1.0
 40
1.0
 10
59.8272827814
 20
33.0385766222
 30
0.0
 10
59.8272827814
 20
32.8826442153
 30
0.0
 10
59.8078932098
 20
32.5831862576
 30
0.0
 10
59.7122168526
 20
32.1622725049
 30
0.0
 10
59.5521753069
 20
31.7986301899
 30
0.0
 10
59.3992451748
 20
31.594991783
 30
0.0
 10
59.314347797
 20
31.5087545097
 30
0.0
  0
SPLINE
  5
2E6
100
AcDbEntity
  8
0
100
AcDbSpline
 62
7
  6
BYLAYER
 70
0
 71
3
 72
9
 73
5
 74
0
 42
0.0000001
 43
0.0000001
 44
0.0000000001
 40
0.0
 40
0.0
 40
0.0
 40
0.0
 40
0.2449154455
 40
1.0
 40
1.0
 40
1.0
 40
1.0
 10
59.8452433684
 20
43.9992235773
 30
0.0
 10
59.8452433684
 20
44.0293888733
 30
0.0
 10
59.8436916585
 20
44.1525521791
 30
0.0
 10
59.8360774503
 20
44.2756225066
 30
0.0
 10
59.8272827814
 20
44.3682066049
 30
0.0
  0
SPLINE
  5
2E7
100
AcDbEntity
  8
0
100
AcDbSpline
 62
7
  6
BYLAYER
 70
0
 71
3
 72
15
 73
11
 74
0
 42
0.0000001
 43
0.0000001
 44
0.0000000001
 40
0.0
 40
0.0
 40
0.0
 40
0.0
 40
0.1141469224
 40
0.2373360365
 40
0.366976904
 40
0.5000005214
 40
0.6330240663
 40
0.762664722
 40
0.8858535023
 40
1.0
 40
1.0
 40
1.0
 40
1.0
 10
45.1176098543
 20
48.9558078418
 30
0.0
 10
45.2405556512
 20
48.8848266588
 30
0.0
 10
45.5094336507
 20
48.7596401905
 30
0.0
 10
45.9472518473
 20
48.6265441192
 30
0.0
 10
46.4212812263
 20
48.544668696
 30
0.0
 10
46.9136641233
 20
48.5170119097
 30
0.0
 10
47.4060466267
 20
48.544671033
 30
0.0
 10
47.8800748429
 20
48.6265487069
 30
0.0
 10
48.3178911546
 20
48.7596468594
 30
0.0
 10
48.5867675068
 20
48.8848346707
 30
0.0
 10
48.7097123345
 20
48.9558164762
 30
0.0
  0
SPLINE
  5
2E8
100
AcDbEntity
  8
0
100
AcDbSpline
 62
7
  6
BYLAYER
 70
0
 71
3
 72
13
 73
9
 74
0
 42
0.0000001
 43
0.0000001
 44
0.0000000001
 40
0.0
 40
0.0
 40
0.0
 40
0.0
 40
0.0908486811
 40
0.1881373159
 40
0.2962869128
 40
0.4171942003
 40
0.6936497206
 40
1.0
 40
1.0
 40
1.0
 40
1.0
 10
58.1010060599
 20
40.7464865248
 30
0.0
 10
58.1177608529
 20
40.756159123
 30
0.0
 10
58.1491442399
 20
40.7824872977
 30
0.0
 10
58.1824712188
 20
40.8370762441
 30
0.0
 10
58.2023438683
 20
40.9043320652
 30
0.0
 10
58.2108502007
 20
41.0122414726
 30
0.0
 10
58.1841613271
 20
41.1619919625
 30
0.0
 10
58.1336422401
 20
41.2765564119
 30
0.0
 10
58.1010232073
 20
41.3330539203
 30
0.0
  0
SPLINE
  5
2E9
100
AcDbEntity
  8
0
100
AcDbSpline
 62
7
  6
BYLAYER
 70
0
 71
3
 72
18
 73
14
 74
0
 42
0.0000001
 43
0.0000001
 44
0.0000000001
 40
0.0
 40
0.0
 40
0.0
 40
0.0
 40
0.1550699885
 40
0.3062053944
 40
0.4497879542
 40
0.5828590296
 40
0.7035253683
 40
0.7591156924
 40
0.811658766
 40
0.8614578689
 40
0.909008113
 40
0.9549510119
 40
1.0
 40
1.0
 40
1.0
 40
1.0
 10
58.1010232073
 20
41.3330539203
 30
0.0
 10
57.9397147018
 20
41.6124468966
 30
0.0
 10
57.5898906807
 20
42.1467849663
 30
0.0
 10
56.9895201293
 20
42.867275624
 30
0.0
 10
56.3376332367
 20
43.4770703783
 30
0.0
 10
55.6583937045
 20
43.9533010063
 30
0.0
 10
55.0734041594
 20
44.2316900287
 30
0.0
 10
54.6155407337
 20
44.3651504331
 30
0.0
 10
54.2906592002
 20
44.4196965926
 30
0.0
 10
53.9780147326
 20
44.4305544467
 30
0.0
 10
53.6805638237
 20
44.3974108102
 30
0.0
 10
53.4016083945
 20
44.3201531145
 30
0.0
 10
53.2291678617
 20
44.2394791509
 30
0.0
 10
53.1480025861
 20
44.1926170174
 30
0.0
  0
SPLINE
  5
2EA
100
AcDbEntity
  8
0
100
AcDbSpline
 62
7
  6
BYLAYER
 70
0
 71
3
 72
11
 73
7
 74
0
 42
0.0000001
 43
0.0000001
 44
0.0000000001
 40
0.0
 40
0.0
 40
0.0
 40
0.0
 40
0.2177849011
 40
0.4509184398
 40
0.7103088704
 40
1.0
 40
1.0
 40
1.0
 40
1.0
 10
56.7040031215
 20
38.0334561183
 30
0.0
 10
56.6327807454
 20
37.9923490834
 30
0.0
 10
56.4691561133
 20
37.9329495716
 30
0.0
 10
56.1973590174
 20
37.9260738024
 30
0.0
 10
55.9076988583
 20
37.9960264707
 30
0.0
 10
55.7192437465
 20
38.0856787825
 30
0.0
 10
55.6245128967
 20
38.1403704268
 30
0.0
  0
SPLINE
  5
2EB
100
AcDbEntity
  8
0
100
AcDbSpline
 62
7
  6
BYLAYER
 70
0
 71
3
 72
14
 73
10
 74
0
 42
0.0000001
 43
0.0000001
 44
0.0000000001
 40
0.0
 40
0.0
 40
0.0
 40
0.0
 40
0.1511666148
 40
0.2942932192
 40
0.5549180965
 40
0.6738652508
 40
0.7864728411
 40
0.8944593803
 40
1.0
 40
1.0
 40
1.0
 40
1.0
 10
12.3079072107
 20
52.5888834098
 30
0.0
 10
12.1701052214
 20
52.6556406708
 30
0.0
 10
11.9070610711
 20
52.7971366732
 30
0.0
 10
11.4394581325
 20
53.1096561622
 30
0.0
 10
11.0456643919
 20
53.4732046697
 30
0.0
 10
10.7582246091
 20
53.8825695464
 30
0.0
 10
10.6063090941
 20
54.1929324276
 30
0.0
 10
10.5139866058
 20
54.5118931833
 30
0.0
 10
10.4932757996
 20
54.7287161844
 30
0.0
 10
10.4932779492
 20
54.8356210305
 30
0.0
  0
SPLINE
  5
2EC
100
AcDbEntity
  8
0
100
AcDbSpline
 62
7
  6
BYLAYER
 70
0
 71
3
 72
13
 73
9
 74
0
 42
0.0000001
 43
0.0000001
 44
0.0000000001
 40
0.0
 40
0.0
 40
0.0
 40
0.0
 40
0.090848907
 40
0.1881376545
 40
0.2962872097
 40
0.4171943242
 40
0.6936494679
 40
1.0
 40
1.0
 40
1.0
 40
1.0
 10
15.2511781664
 20
61.3539411167
 30
0.0
 10
15.2679321398
 20
61.3636147019
 30
0.0
 10
15.3064242733
 20
61.3776291249
 30
0.0
 10
15.3703623525
 20
61.3791966517
 30
0.0
 10
15.4385429924
 20
61.3627792867
 30
0.0
 10
15.5362470991
 20
61.3161921973
 30
0.0
 10
15.6525889961
 20
61.2182053921
 30
0.0
 10
15.7265444867
 20
61.117174028
 30
0.0
 10
15.7591631005
 20
61.0606772453
 30
0.0
  0
SPLINE
  5
2ED
100
AcDbEntity
  8
0
100
AcDbSpline
 62
7
  6
BYLAYER
 70
0
 71
3
 72
15
 73
11
 74
0
 42
0.0000001
 43
0.0000001
 44
0.0000000001
 40
0.0
 40
0.0
 40
0.0
 40
0.0
 40
0.1097890643
 40
0.229474685
 40
0.3568717473
 40
0.489083001
 40
0.6228131999
 40
0.7546478364
 40
0.8813218617
 40
1.0
 40
1.0
 40
1.0
 40
1.0
 10
19.4647714469
 20
52.9504002741
 30
0.0
 10
19.2402688771
 20
52.7959301049
 30
0.0
 10
18.7392803841
 20
52.5182046347
 30
0.0
 10
17.9062717668
 20
52.209434048
 30
0.0
 10
16.9860817357
 20
51.9990887955
 30
0.0
 10
16.013175138
 20
51.8950968864
 30
0.0
 10
15.0237927269
 20
51.9012357558
 30
0.0
 10
14.0549146826
 20
52.017335896
 30
0.0
 10
13.1430025194
 20
52.2389481745
 30
0.0
 10
12.573012313
 20
52.4604549992
 30
0.0
 10
12.3079072107
 20
52.5888834098
 30
0.0
  0
SPLINE
  5
2EE
100
AcDbEntity
  8
0
100
AcDbSpline
 62
7
  6
BYLAYER
 70
0
 71
3
 72
13
 73
9
 74
0
 42
0.0000001
 43
0.0000001
 44
0.0000000001
 40
0.0
 40
0.0
 40
0.0
 40
0.0
 40
0.3063506246
 40
0.5827902232
 40
0.7036979959
 40
0.8118499759
 40
0.9091454716
 40
1.0
 40
1.0
 40
1.0
 40
1.0
 10
15.3999543512
 20
60.8532892151
 30
0.0
 10
15.3673356817
 20
60.9097860944
 30
0.0
 10
15.2933828075
 20
61.0108165113
 30
0.0
 10
15.1770422163
 20
61.1087973002
 30
0.0
 10
15.0793440038
 20
61.1553926065
 30
0.0
 10
15.0111604833
 20
61.1718055901
 30
0.0
 10
14.9472186119
 20
61.1702449371
 30
0.0
 10
14.9087250496
 20
61.1562261692
 30
0.0
 10
14.8919693837
 20
61.1465530671
 30
0.0
  0
SPLINE
  5
2EF
100
AcDbEntity
  8
0
100
AcDbSpline
 62
7
  6
BYLAYER
 70
0
 71
3
 72
12
 73
8
 74
0
 42
0.0000001
 43
0.0000001
 44
0.0000000001
 40
0.0
 40
0.0
 40
0.0
 40
0.0
 40
0.2826494643
 40
0.540370901
 40
0.7769041515
 40
0.8896397415
 40
1.0
 40
1.0
 40
1.0
 40
1.0
 10
20.4376512719
 20
52.4790950677
 30
0.0
 10
20.6467798501
 20
52.6229870815
 30
0.0
 10
21.0277484158
 20
52.9278292097
 30
0.0
 10
21.4878631731
 20
53.4580248786
 30
0.0
 10
21.7495677528
 20
53.9429124487
 30
0.0
 10
21.8714883807
 20
54.3383740495
 30
0.0
 10
21.9044345413
 20
54.5367796477
 30
0.0
 10
21.9137800719
 20
54.6354534882
 30
0.0
  0
SPLINE
  5
2F0
100
AcDbEntity
  8
0
100
AcDbSpline
 62
7
  6
BYLAYER
 70
0
 71
3
 72
13
 73
9
 74
0
 42
0.0000001
 43
0.0000001
 44
0.0000000001
 40
0.0
 40
0.0
 40
0.0
 40
0.0
 40
0.090848907
 40
0.1881376545
 40
0.2962872097
 40
0.4171943242
 40
0.6936494679
 40
1.0
 40
1.0
 40
1.0
 40
1.0
 10
53.5072285163
 20
39.2672998157
 30
0.0
 10
53.5239824897
 20
39.2769734008
 30
0.0
 10
53.5624746232
 20
39.2909878238
 30
0.0
 10
53.6264127024
 20
39.2925553507
 30
0.0
 10
53.6945933423
 20
39.2761379856
 30
0.0
 10
53.792297449
 20
39.2295508962
 30
0.0
 10
53.908639346
 20
39.131564091
 30
0.0
 10
53.9825948366
 20
39.030532727
 30
0.0
 10
54.0152134504
 20
38.9740359442
 30
0.0
  0
SPLINE
  5
2F1
100
AcDbEntity
  8
0
100
AcDbSpline
 62
7
  6
BYLAYER
 70
0
 71
3
 72
17
 73
13
 74
0
 42
0.0000001
 43
0.0000001
 44
0.0000000001
 40
0.0
 40
0.0
 40
0.0
 40
0.0
 40
0.124361929
 40
0.2637083583
 40
0.4106808867
 40
0.5563512982
 40
0.6920556584
 40
0.8112145952
 40
0.8638716936
 40
0.9121573062
 40
0.957029196
 40
1.0
 40
1.0
 40
1.0
 40
1.0
 10
16.5461319059
 20
54.9864906895
 30
0.0
 10
16.4567066485
 20
54.9249611727
 30
0.0
 10
16.2470440554
 20
54.8232395159
 30
0.0
 10
15.897044
 20
54.737456264
 30
0.0
 10
15.5187402992
 20
54.714198844
 30
0.0
 10
15.1451708754
 20
54.755832805
 30
0.0
 10
14.80879565
 20
54.8584887134
 30
0.0
 10
14.5729004125
 20
54.9941962833
 30
0.0
 10
14.4335684544
 20
55.127801972
 30
0.0
 10
14.3595138247
 20
55.2324430972
 30
0.0
 10
14.3136742069
 20
55.3432589337
 30
0.0
 10
14.3032942391
 20
55.4202892109
 30
0.0
 10
14.3032891642
 20
55.4577959672
 30
0.0
  0
SPLINE
  5
2F2
100
AcDbEntity
  8
0
100
AcDbSpline
 62
7
  6
BYLAYER
 70
0
 71
3
 72
19
 73
15
 74
0
 42
0.0000001
 43
0.0000001
 44
0.0000000001
 40
0.0
 40
0.0
 40
0.0
 40
0.0
 40
0.0453755571
 40
0.0940773173
 40
0.1481663247
 40
0.2086025916
 40
0.3468415821
 40
0.4999851355
 40
0.6531292867
 40
0.7913784578
 40
0.8518214814
 40
0.9059179987
 40
0.9546237043
 40
1.0
 40
1.0
 40
1.0
 40
1.0
 10
58.1010232073
 20
35.6137812735
 30
0.0
 10
58.1177593358
 20
35.623444158
 30
0.0
 10
58.1490698289
 20
35.6498513327
 30
0.0
 10
58.1825243239
 20
35.7043601456
 30
0.0
 10
58.2023452552
 20
35.771672143
 30
0.0
 10
58.2108536644
 20
35.8795678652
 30
0.0
 10
58.1841143314
 20
36.029347712
 30
0.0
 10
58.1071781542
 20
36.203902622
 30
0.0
 10
57.9944816474
 20
36.3578169157
 30
0.0
 10
57.8781369472
 20
36.4558749453
 30
0.0
 10
57.7804339345
 20
36.5024606772
 30
0.0
 10
57.7122226361
 20
36.5189567574
 30
0.0
 10
57.6482839953
 20
36.5172375106
 30
0.0
 10
57.6097574932
 20
36.5033249044
 30
0.0
 10
57.5930210923
 20
36.4936618626
 30
0.0
  0
SPLINE
  5
2F3
100
AcDbEntity
  8
0
100
AcDbSpline
 62
7
  6
BYLAYER
 70
0
 71
3
 72
17
 73
13
 74
0
 42
0.0000001
 43
0.0000001
 44
0.0000000001
 40
0.0
 40
0.0
 40
0.0
 40
0.0
 40
0.0450448672
 40
0.0910017681
 40
0.1385721286
 40
0.1883832455
 40
0.2963450755
 40
0.4170327482
 40
0.5501300437
 40
0.6937259749
 40
0.8449132289
 40
1.0
 40
1.0
 40
1.0
 40
1.0
 10
57.5930210923
 20
36.4936618626
 30
0.0
 10
57.5285233258
 20
36.456422995
 30
0.0
 10
57.3914542439
 20
36.3923272884
 30
0.0
 10
57.1697242209
 20
36.330905083
 30
0.0
 10
56.9332504434
 20
36.3045160454
 30
0.0
 10
56.5929226985
 20
36.3163763362
 30
0.0
 10
56.1406580366
 20
36.4253997718
 30
0.0
 10
55.5977641897
 20
36.683833454
 30
0.0
 10
55.0576476448
 20
37.0624756861
 30
0.0
 10
54.5395060403
 20
37.547127259
 30
0.0
 10
54.0623019524
 20
38.1198566533
 30
0.0
 10
53.7842136691
 20
38.5445847002
 30
0.0
 10
53.6560047011
 20
38.7666479141
 30
0.0
  0
SPLINE
  5
2F4
100
AcDbEntity
  8
0
100
AcDbSpline
 62
7
  6
BYLAYER
 70
0
 71
3
 72
13
 73
9
 74
0
 42
0.0000001
 43
0.0000001
 44
0.0000000001
 40
0.0
 40
0.0
 40
0.0
 40
0.0
 40
0.3063506246
 40
0.5827902232
 40
0.7036979959
 40
0.8118499759
 40
0.9091454716
 40
1.0
 40
1.0
 40
1.0
 40
1.0
 10
53.6560047011
 20
38.7666479141
 30
0.0
 10
53.6233860316
 20
38.8231447933
 30
0.0
 10
53.5494331574
 20
38.9241752103
 30
0.0
 10
53.4330925662
 20
39.0221559992
 30
0.0
 10
53.3353943537
 20
39.0687513054
 30
0.0
 10
53.2672108332
 20
39.0851642891
 30
0.0
 10
53.2032689618
 20
39.0836036361
 30
0.0
 10
53.1647753995
 20
39.0695848682
 30
0.0
 10
53.1480197336
 20
39.059911766
 30
0.0
  0
SPLINE
  5
2F5
100
AcDbEntity
  8
0
100
AcDbSpline
 62
7
  6
BYLAYER
 70
0
 71
3
 72
11
 73
7
 74
0
 42
0.0000001
 43
0.0000001
 44
0.0000000001
 40
0.0
 40
0.0
 40
0.0
 40
0.0
 40
0.2843367812
 40
0.542072267
 40
0.7773763401
 40
1.0
 40
1.0
 40
1.0
 40
1.0
 10
16.5461319059
 20
55.1731431421
 30
0.0
 10
16.5912889763
 20
55.2042137009
 30
0.0
 10
16.6729815584
 20
55.2704107557
 30
0.0
 10
16.7692753765
 20
55.3868070092
 30
0.0
 10
16.8294101549
 20
55.5127508132
 30
0.0
 10
16.843220726
 20
55.6015315032
 30
0.0
 10
16.843216854
 20
55.6444483015
 30
0.0
  0
SPLINE
  5
2F6
100
AcDbEntity
  8
0
100
AcDbSpline
 62
7
  6
BYLAYER
 70
0
 71
3
 72
18
 73
14
 74
0
 42
0.0000001
 43
0.0000001
 44
0.0000000001
 40
0.0
 40
0.0
 40
0.0
 40
0.0
 40
0.1550699885
 40
0.3062053944
 40
0.4497879542
 40
0.5828590296
 40
0.7035253683
 40
0.7591156924
 40
0.811658766
 40
0.8614578689
 40
0.909008113
 40
0.9549510119
 40
1.0
 40
1.0
 40
1.0
 40
1.0
 10
19.8449728574
 20
63.4196952214
 30
0.0
 10
19.6836643519
 20
63.6990881976
 30
0.0
 10
19.3338403308
 20
64.2334262673
 30
0.0
 10
18.7334697794
 20
64.953916925
 30
0.0
 10
18.0815828868
 20
65.5637116793
 30
0.0
 10
17.4023433546
 20
66.0399423073
 30
0.0
 10
16.8173538095
 20
66.3183313297
 30
0.0
 10
16.3594903838
 20
66.4517917342
 30
0.0
 10
16.0346088503
 20
66.5063378936
 30
0.0
 10
15.7219643827
 20
66.5171957478
 30
0.0
 10
15.4245134738
 20
66.4840521113
 30
0.0
 10
15.1455580446
 20
66.4067944156
 30
0.0
 10
14.9731175118
 20
66.326120452
 30
0.0
 10
14.8919522362
 20
66.2792583184
 30
0.0
  0
SPLINE
  5
2F7
100
AcDbEntity
  8
0
100
AcDbSpline
 62
7
  6
BYLAYER
 70
0
 71
3
 72
13
 73
9
 74
0
 42
0.0000001
 43
0.0000001
 44
0.0000000001
 40
0.0
 40
0.0
 40
0.0
 40
0.0
 40
0.3063503715
 40
0.5827903469
 40
0.7036982925
 40
0.8118503148
 40
0.9091456975
 40
1.0
 40
1.0
 40
1.0
 40
1.0
 10
20.2041816068
 20
63.6270832515
 30
0.0
 10
20.2368006952
 20
63.5705856467
 30
0.0
 10
20.28732027
 20
63.4560239367
 30
0.0
 10
20.3140045868
 20
63.306277586
 30
0.0
 10
20.3055083169
 20
63.1983691748
 30
0.0
 10
20.2856304335
 20
63.1311130493
 30
0.0
 10
20.2523075102
 20
63.0765173826
 30
0.0
 10
20.2209196468
 20
63.050190142
 30
0.0
 10
20.2041644258
 20
63.0405158365
 30
0.0
  0
SPLINE
  5
2F8
100
AcDbEntity
  8
0
100
AcDbSpline
 62
7
  6
BYLAYER
 70
0
 71
3
 72
18
 73
14
 74
0
 42
0.0000001
 43
0.0000001
 44
0.0000000001
 40
0.0
 40
0.0
 40
0.0
 40
0.0
 40
0.0450489906
 40
0.0909918964
 40
0.1385421477
 40
0.188341255
 40
0.2408843322
 40
0.2964746602
 40
0.4171410044
 40
0.5502120801
 40
0.6937946363
 40
0.844930027
 40
1.0
 40
1.0
 40
1.0
 40
1.0
 10
15.2511609855
 20
66.4866463486
 30
0.0
 10
15.3323262656
 20
66.5335084847
 30
0.0
 10
15.5047668212
 20
66.6141824462
 30
0.0
 10
15.7837222832
 20
66.6914401515
 30
0.0
 10
16.0811732322
 20
66.7245837818
 30
0.0
 10
16.3938177311
 20
66.7137259122
 30
0.0
 10
16.7186992847
 20
66.6591797229
 30
0.0
 10
17.1765627304
 20
66.5257192924
 30
0.0
 10
17.7615522802
 20
66.2473302327
 30
0.0
 10
18.4407917994
 20
65.77109958
 30
0.0
 10
19.0926786411
 20
65.1613048289
 30
0.0
 10
19.6930491387
 20
64.4408142206
 30
0.0
 10
20.0428731174
 20
63.9064761998
 30
0.0
 10
20.2041816068
 20
63.6270832515
 30
0.0
  0
SPLINE
  5
2F9
100
AcDbEntity
  8
0
100
AcDbSpline
 62
7
  6
BYLAYER
 70
0
 71
3
 72
15
 73
11
 74
0
 42
0.0000001
 43
0.0000001
 44
0.0000000001
 40
0.0
 40
0.0
 40
0.0
 40
0.0
 40
0.1141469224
 40
0.2373360365
 40
0.366976904
 40
0.5000005214
 40
0.6330240663
 40
0.762664722
 40
0.8858535023
 40
1.0
 40
1.0
 40
1.0
 40
1.0
 10
45.1176098543
 20
32.4059570485
 30
0.0
 10
45.2405556512
 20
32.3349758655
 30
0.0
 10
45.5094336507
 20
32.2097893972
 30
0.0
 10
45.9472518473
 20
32.0766933259
 30
0.0
 10
46.4212812263
 20
31.9948179027
 30
0.0
 10
46.9136641233
 20
31.9671611164
 30
0.0
 10
47.4060466267
 20
31.9948202397
 30
0.0
 10
47.8800748429
 20
32.0766979136
 30
0.0
 10
48.3178911546
 20
32.2097960662
 30
0.0
 10
48.5867675068
 20
32.3349838774
 30
0.0
 10
48.7097123345
 20
32.4059656829
 30
0.0
  0
SPLINE
  5
2FA
100
AcDbEntity
  8
0
100
AcDbSpline
 62
7
  6
BYLAYER
 70
0
 71
3
 72
16
 73
12
 74
0
 42
0.0000001
 43
0.0000001
 44
0.0000000001
 40
0.0
 40
0.0
 40
0.0
 40
0.0
 40
0.0450963096
 40
0.0910403927
 40
0.1881823251
 40
0.2961777245
 40
0.4168905427
 40
0.5500090134
 40
0.6936469396
 40
0.8448503341
 40
1.0
 40
1.0
 40
1.0
 40
1.0
 10
16.1401877168
 20
64.9468471
 30
0.0
 10
16.1922202317
 20
64.9768759849
 30
0.0
 10
16.302690036
 20
65.0285960878
 30
0.0
 10
16.5452411795
 20
65.0958123317
 30
0.0
 10
16.8849616474
 20
65.1049062757
 30
0.0
 10
17.3105310785
 20
65.0021093757
 30
0.0
 10
17.7483835684
 20
64.7940003943
 30
0.0
 10
18.183709366
 20
64.489021858
 30
0.0
 10
18.6014115369
 20
64.0985838344
 30
0.0
 10
18.9862206764
 20
63.6371773412
 30
0.0
 10
19.2104542424
 20
63.2949478872
 30
0.0
 10
19.3138911661
 20
63.116007242
 30
0.0
  0
SPLINE
  5
2FB
100
AcDbEntity
  8
0
100
AcDbSpline
 62
7
  6
BYLAYER
 70
0
 71
3
 72
11
 73
7
 74
0
 42
0.0000001
 43
0.0000001
 44
0.0000000001
 40
0.0
 40
0.0
 40
0.0
 40
0.0
 40
0.2660439765
 40
0.5253219726
 40
0.7717373563
 40
1.0
 40
1.0
 40
1.0
 40
1.0
 10
19.3138911661
 20
63.116007242
 30
0.0
 10
19.4174985684
 20
62.9367716774
 30
0.0
 10
19.6023036411
 20
62.5709899361
 30
0.0
 10
19.8103443996
 20
62.0061526201
 30
0.0
 10
19.9401320561
 20
61.4484051837
 30
0.0
 10
19.9727446735
 20
61.0786902278
 30
0.0
 10
19.9727446735
 20
60.901064081
 30
0.0
  0
SPLINE
  5
2FC
100
AcDbEntity
  8
0
100
AcDbSpline
 62
7
  6
BYLAYER
 70
0
 71
3
 72
19
 73
15
 74
0
 42
0.0000001
 43
0.0000001
 44
0.0000000001
 40
0.0
 40
0.0
 40
0.0
 40
0.0
 40
0.0453754065
 40
0.0940767671
 40
0.1481652364
 40
0.2086009359
 40
0.3468390001
 40
0.4999822071
 40
0.6531267046
 40
0.7913768019
 40
0.851820393
 40
0.9059174485
 40
0.9546235537
 40
1.0
 40
1.0
 40
1.0
 40
1.0
 10
57.9522298417
 20
36.7010498928
 30
0.0
 10
57.9689659146
 20
36.7107127452
 30
0.0
 10
58.0074898812
 20
36.724625733
 30
0.0
 10
58.0714226738
 20
36.7263450818
 30
0.0
 10
58.1396266882
 20
36.709855701
 30
0.0
 10
58.2373210805
 20
36.6632777843
 30
0.0
 10
58.3536646485
 20
36.5652321489
 30
0.0
 10
58.4663660102
 20
36.4113268403
 30
0.0
 10
58.5433123961
 20
36.2367716424
 30
0.0
 10
58.5700618966
 20
36.0869846181
 30
0.0
 10
58.5615559455
 20
35.9790775227
 30
0.0
 10
58.5417371741
 20
35.9117558675
 30
0.0
 10
58.5082798434
 20
35.8572419387
 30
0.0
 10
58.4769684131
 20
35.8308323775
 30
0.0
 10
58.4602319567
 20
35.8211693036
 30
0.0
  0
SPLINE
  5
2FD
100
AcDbEntity
  8
0
100
AcDbSpline
 62
7
  6
BYLAYER
 70
0
 71
3
 72
17
 73
13
 74
0
 42
0.0000001
 43
0.0000001
 44
0.0000000001
 40
0.0
 40
0.0
 40
0.0
 40
0.0
 40
0.1550867711
 40
0.3062740251
 40
0.4498699563
 40
0.5829672518
 40
0.7036549245
 40
0.8116167545
 40
0.8614278714
 40
0.9089982319
 40
0.9549551328
 40
1.0
 40
1.0
 40
1.0
 40
1.0
 10
54.0152134504
 20
38.9740359442
 30
0.0
 10
54.1434224184
 20
38.7519727304
 30
0.0
 10
54.4215107017
 20
38.3272446835
 30
0.0
 10
54.8987147896
 20
37.7545152891
 30
0.0
 10
55.4168563941
 20
37.2698637163
 30
0.0
 10
55.956972939
 20
36.8912214842
 30
0.0
 10
56.499866786
 20
36.632787802
 30
0.0
 10
56.9521314478
 20
36.5237643663
 30
0.0
 10
57.2924591927
 20
36.5119040756
 30
0.0
 10
57.5289329702
 20
36.5382931131
 30
0.0
 10
57.7506629932
 20
36.5997153186
 30
0.0
 10
57.8877320751
 20
36.6638110252
 30
0.0
 10
57.9522298417
 20
36.7010498928
 30
0.0
  0
SPLINE
  5
2FE
100
AcDbEntity
  8
0
100
AcDbSpline
 62
7
  6
BYLAYER
 70
0
 71
3
 72
13
 73
9
 74
0
 42
0.0000001
 43
0.0000001
 44
0.0000000001
 40
0.0
 40
0.0
 40
0.0
 40
0.0
 40
0.3063503715
 40
0.5827903469
 40
0.7036982925
 40
0.8118503148
 40
0.9091456975
 40
1.0
 40
1.0
 40
1.0
 40
1.0
 10
58.4602319567
 20
41.5404419505
 30
0.0
 10
58.4928510451
 20
41.4839443456
 30
0.0
 10
58.5433706199
 20
41.3693826357
 30
0.0
 10
58.5700549367
 20
41.2196362849
 30
0.0
 10
58.5615586668
 20
41.1117278737
 30
0.0
 10
58.5416807834
 20
41.0444717482
 30
0.0
 10
58.5083578601
 20
40.9898760815
 30
0.0
 10
58.4769699967
 20
40.963548841
 30
0.0
 10
58.4602147757
 20
40.9538745355
 30
0.0
  0
SPLINE
  5
2FF
100
AcDbEntity
  8
0
100
AcDbSpline
 62
7
  6
BYLAYER
 70
0
 71
3
 72
18
 73
14
 74
0
 42
0.0000001
 43
0.0000001
 44
0.0000000001
 40
0.0
 40
0.0
 40
0.0
 40
0.0
 40
0.0450489906
 40
0.0909918964
 40
0.1385421477
 40
0.188341255
 40
0.2408843322
 40
0.2964746602
 40
0.4171410044
 40
0.5502120801
 40
0.6937946363
 40
0.844930027
 40
1.0
 40
1.0
 40
1.0
 40
1.0
 10
53.5072113354
 20
44.4000050475
 30
0.0
 10
53.5883766156
 20
44.4468671837
 30
0.0
 10
53.7608171711
 20
44.5275411451
 30
0.0
 10
54.0397726331
 20
44.6047988505
 30
0.0
 10
54.3372235821
 20
44.6379424807
 30
0.0
 10
54.649868081
 20
44.6270846112
 30
0.0
 10
54.9747496346
 20
44.5725384219
 30
0.0
 10
55.4326130803
 20
44.4390779913
 30
0.0
 10
56.0176026301
 20
44.1606889316
 30
0.0
 10
56.6968421493
 20
43.6844582789
 30
0.0
 10
57.348728991
 20
43.0746635278
 30
0.0
 10
57.9490994886
 20
42.3541729195
 30
0.0
 10
58.2989234673
 20
41.8198348987
 30
0.0
 10
58.4602319567
 20
41.5404419505
 30
0.0
  0
SPLINE
  5
300
100
AcDbEntity
  8
0
100
AcDbSpline
 62
7
  6
BYLAYER
 70
0
 71
3
 72
11
 73
7
 74
0
 42
0.0000001
 43
0.0000001
 44
0.0000000001
 40
0.0
 40
0.0
 40
0.0
 40
0.0
 40
0.2897036169
 40
0.5490920547
 40
0.7822205729
 40
1.0
 40
1.0
 40
1.0
 40
1.0
 10
66.6701819378
 20
57.3758324194
 30
0.0
 10
66.7649173005
 20
57.3211381696
 30
0.0
 10
66.9367921595
 20
57.2027581095
 30
0.0
 10
67.1422107448
 20
56.9868823191
 30
0.0
 10
67.272149268
 20
56.7480645133
 30
0.0
 10
67.3025311762
 20
56.5766654979
 30
0.0
 10
67.3025373939
 20
56.4944332871
 30
0.0
  0
SPLINE
  5
301
100
AcDbEntity
  8
0
100
AcDbSpline
 62
7
  6
BYLAYER
 70
0
 71
3
 72
11
 73
7
 74
0
 42
0.0000001
 43
0.0000001
 44
0.0000000001
 40
0.0
 40
0.0
 40
0.0
 40
0.0
 40
0.2897036169
 40
0.5490920547
 40
0.7822205729
 40
1.0
 40
1.0
 40
1.0
 40
1.0
 10
28.4141315879
 20
79.4624737205
 30
0.0
 10
28.5088669506
 20
79.4077794707
 30
0.0
 10
28.6807418096
 20
79.2893994106
 30
0.0
 10
28.8861603949
 20
79.0735236201
 30
0.0
 10
29.0160989181
 20
78.8347058143
 30
0.0
 10
29.0464808263
 20
78.6633067989
 30
0.0
 10
29.046487044
 20
78.5810745881
 30
0.0
  0
SPLINE
  5
302
100
AcDbEntity
  8
0
100
AcDbSpline
 62
7
  6
BYLAYER
 70
0
 71
3
 72
13
 73
9
 74
0
 42
0.0000001
 43
0.0000001
 44
0.0000000001
 40
0.0
 40
0.0
 40
0.0
 40
0.0
 40
0.2893468923
 40
0.548322408
 40
0.6677487008
 40
0.7817630718
 40
0.8919044546
 40
1.0
 40
1.0
 40
1.0
 40
1.0
 10
58.2287950234
 20
38.81442278
 30
0.0
 10
58.2287950234
 20
38.6535272652
 30
0.0
 10
58.2045219631
 20
38.3477118587
 30
0.0
 10
58.0982946373
 20
37.9879531912
 30
0.0
 10
57.9693394223
 20
37.7454533047
 30
0.0
 10
57.8555516744
 20
37.5910394859
 30
0.0
 10
57.7233544404
 20
37.4608582268
 30
0.0
 10
57.6232655986
 20
37.3910135147
 30
0.0
 10
57.5712052253
 20
37.3609685522
 30
0.0
  0
SPLINE
  5
303
100
AcDbEntity
  8
0
100
AcDbSpline
 62
7
  6
BYLAYER
 70
0
 71
3
 72
11
 73
7
 74
0
 42
0.0000001
 43
0.0000001
 44
0.0000000001
 40
0.0
 40
0.0
 40
0.0
 40
0.0
 40
0.2791281409
 40
0.5381854305
 40
0.7775175013
 40
1.0
 40
1.0
 40
1.0
 40
1.0
 10
30.5694124989
 20
76.7664457336
 30
0.0
 10
30.6876047407
 20
76.8346836489
 30
0.0
 10
30.9083142309
 20
76.9794278798
 30
0.0
 10
31.1962270987
 20
77.2297304819
 30
0.0
 10
31.4232976917
 20
77.5014273772
 30
0.0
 10
31.5342981351
 20
77.7001262208
 30
0.0
 10
31.5766466172
 20
77.8003247321
 30
0.0
  0
SPLINE
  5
304
100
AcDbEntity
  8
0
100
AcDbSpline
 62
7
  6
BYLAYER
 70
0
 71
3
 72
9
 73
5
 74
0
 42
0.0000001
 43
0.0000001
 44
0.0000000001
 40
0.0
 40
0.0
 40
0.0
 40
0.0
 40
0.5068531376
 40
1.0
 40
1.0
 40
1.0
 40
1.0
 10
31.5766466172
 20
77.8003247321
 30
0.0
 10
31.6118632863
 20
77.8836490366
 30
0.0
 10
31.6665329175
 20
78.0548769875
 30
0.0
 10
31.6852964407
 20
78.2338284561
 30
0.0
 10
31.6852964396
 20
78.3218430083
 30
0.0
  0
SPLINE
  5
305
100
AcDbEntity
  8
0
100
AcDbSpline
 62
7
  6
BYLAYER
 70
0
 71
3
 72
20
 73
16
 74
0
 42
0.0000001
 43
0.0000001
 44
0.0000000001
 40
0.0
 40
0.0
 40
0.0
 40
0.0
 40
0.0623915494
 40
0.1288092209
 40
0.2703023795
 40
0.4173639433
 40
0.5616163603
 40
0.6302527158
 40
0.6953794076
 40
0.7563618777
 40
0.8128312358
 40
0.8647639405
 40
0.9125657992
 40
0.9571672225
 40
1.0
 40
1.0
 40
1.0
 40
1.0
 10
57.8695862741
 20
38.6070347498
 30
0.0
 10
57.8695862741
 20
38.7386929793
 30
0.0
 10
57.8516806095
 20
39.0106966969
 30
0.0
 10
57.7517388348
 20
39.5731278116
 30
0.0
 10
57.5101533839
 20
40.2872032715
 30
0.0
 10
57.073696901
 20
41.0937840828
 30
0.0
 10
56.6035253578
 20
41.6959623914
 30
0.0
 10
56.1803891962
 20
42.1035043257
 30
0.0
 10
55.8561747824
 20
42.3573585045
 30
0.0
 10
55.5266872657
 20
42.55891308
 30
0.0
 10
55.1986316329
 20
42.7038857643
 30
0.0
 10
54.8785416278
 20
42.7889777346
 30
0.0
 10
54.572682242
 20
42.8114275285
 30
0.0
 10
54.2878470558
 20
42.7697469745
 30
0.0
 10
54.1153137536
 20
42.6979960305
 30
0.0
 10
54.0370295343
 20
42.6528173984
 30
0.0
  0
SPLINE
  5
306
100
AcDbEntity
  8
0
100
AcDbSpline
 62
7
  6
BYLAYER
 70
0
 71
3
 72
15
 73
11
 74
0
 42
0.0000001
 43
0.0000001
 44
0.0000000001
 40
0.0
 40
0.0
 40
0.0
 40
0.0
 40
0.1141232787
 40
0.2373467935
 40
0.3669716251
 40
0.4999988493
 40
0.6330262331
 40
0.7626515288
 40
0.885875802
 40
1.0
 40
1.0
 40
1.0
 40
1.0
 10
55.6245128967
 20
38.1403704268
 30
0.0
 10
55.5200306681
 20
38.200691905
 30
0.0
 10
55.3136132311
 20
38.345443758
 30
0.0
 10
55.0295347583
 20
38.6111228833
 30
0.0
 10
54.7677996573
 20
38.925298547
 30
0.0
 10
54.5381623865
 20
39.2759764863
 30
0.0
 10
54.3492829795
 20
39.6501866833
 30
0.0
 10
54.2080638616
 20
40.0339443669
 30
0.0
 10
54.1200153172
 20
40.412804736
 30
0.0
 10
54.0978630001
 20
40.6639449593
 30
0.0
 10
54.0978630001
 20
40.7845909344
 30
0.0
  0
SPLINE
  5
307
100
AcDbEntity
  8
0
100
AcDbSpline
 62
7
  6
BYLAYER
 70
0
 71
3
 72
9
 73
5
 74
0
 42
0.0000001
 43
0.0000001
 44
0.0000000001
 40
0.0
 40
0.0
 40
0.0
 40
0.0
 40
0.2482053171
 40
1.0
 40
1.0
 40
1.0
 40
1.0
 10
59.0561327822
 20
31.2633279655
 30
0.0
 10
59.0824503495
 20
31.2785223304
 30
0.0
 10
59.1862791724
 20
31.3435016667
 30
0.0
 10
59.2805438925
 20
31.4235733659
 30
0.0
 10
59.3442908545
 20
31.4899714225
 30
0.0
  0
SPLINE
  5
308
100
AcDbEntity
  8
0
100
AcDbSpline
 62
7
  6
BYLAYER
 70
0
 71
3
 72
11
 73
7
 74
0
 42
0.0000001
 43
0.0000001
 44
0.0000000001
 40
0.0
 40
0.0
 40
0.0
 40
0.0
 40
0.2200277201
 40
0.4575255419
 40
0.7171234318
 40
1.0
 40
1.0
 40
1.0
 40
1.0
 10
59.3442908545
 20
31.4899714225
 30
0.0
 10
59.4273128176
 20
31.5764460846
 30
0.0
 10
59.5766543971
 20
31.7796168466
 30
0.0
 10
59.7328790462
 20
32.14056016
 30
0.0
 10
59.8262853393
 20
32.5572258796
 30
0.0
 10
59.8452433684
 20
32.8533493322
 30
0.0
 10
59.8452433684
 20
33.0074681681
 30
0.0
  0
SPLINE
  5
309
100
AcDbEntity
  8
0
100
AcDbSpline
 62
7
  6
BYLAYER
 70
0
 71
3
 72
11
 73
7
 74
0
 42
0.0000001
 43
0.0000001
 44
0.0000000001
 40
0.0
 40
0.0
 40
0.0
 40
0.0
 40
0.2897033281
 40
0.5490895198
 40
0.7822165953
 40
1.0
 40
1.0
 40
1.0
 40
1.0
 10
54.0978630001
 20
40.7845909344
 30
0.0
 10
54.0978630001
 20
40.8939834582
 30
0.0
 10
54.1144485162
 20
41.1020248536
 30
0.0
 10
54.1987027853
 20
41.3878628289
 30
0.0
 10
54.3405589927
 20
41.6198041812
 30
0.0
 10
54.4738050291
 20
41.7318239478
 30
0.0
 10
54.545023116
 20
41.7729414526
 30
0.0
  0
SPLINE
  5
30A
100
AcDbEntity
  8
0
100
AcDbSpline
 62
7
  6
BYLAYER
 70
0
 71
3
 72
11
 73
7
 74
0
 42
0.0000001
 43
0.0000001
 44
0.0000000001
 40
0.0
 40
0.0
 40
0.0
 40
0.0
 40
0.2643827048
 40
0.5168032728
 40
0.7606466609
 40
1.0
 40
1.0
 40
1.0
 40
1.0
 10
31.8796822021
 20
56.4132405756
 30
0.0
 10
31.945383616
 20
56.5579832471
 30
0.0
 10
32.0921517124
 20
56.8331649219
 30
0.0
 10
32.3647119997
 20
57.2025481819
 30
0.0
 10
32.681459038
 20
57.5139341247
 30
0.0
 10
32.9211029132
 20
57.6810477362
 30
0.0
 10
33.045724201
 20
57.7530129055
 30
0.0
  0
SPLINE
  5
30B
100
AcDbEntity
  8
0
100
AcDbSpline
 62
7
  6
BYLAYER
 70
0
 71
3
 72
13
 73
9
 74
0
 42
0.0000001
 43
0.0000001
 44
0.0000000001
 40
0.0
 40
0.0
 40
0.0
 40
0.0
 40
0.0908486811
 40
0.1881373159
 40
0.2962869128
 40
0.4171942003
 40
0.6936497206
 40
1.0
 40
1.0
 40
1.0
 40
1.0
 10
19.84495571
 20
62.8331278259
 30
0.0
 10
19.8617105029
 20
62.8428004241
 30
0.0
 10
19.89309389
 20
62.8691285988
 30
0.0
 10
19.9264208689
 20
62.9237175452
 30
0.0
 10
19.9462935184
 20
62.9909733663
 30
0.0
 10
19.9547998508
 20
63.0988827736
 30
0.0
 10
19.9281109772
 20
63.2486332635
 30
0.0
 10
19.8775918902
 20
63.3631977129
 30
0.0
 10
19.8449728574
 20
63.4196952214
 30
0.0
  0
SPLINE
  5
30C
100
AcDbEntity
  8
0
100
AcDbSpline
 62
7
  6
BYLAYER
 70
0
 71
3
 72
13
 73
9
 74
0
 42
0.0000001
 43
0.0000001
 44
0.0000000001
 40
0.0
 40
0.0
 40
0.0
 40
0.0
 40
0.1080942654
 40
0.2182331488
 40
0.3322568368
 40
0.4516850086
 40
0.7106223278
 40
1.0
 40
1.0
 40
1.0
 40
1.0
 10
58.499359073
 20
30.9833543937
 30
0.0
 10
58.5618247197
 20
31.0194187386
 30
0.0
 10
58.6819520335
 20
31.1031943426
 30
0.0
 10
58.8405928721
 20
31.2594223401
 30
0.0
 10
58.9770998636
 20
31.4447521857
 30
0.0
 10
59.1318770152
 20
31.7357129748
 30
0.0
 10
59.2593597165
 20
32.1674241473
 30
0.0
 10
59.2884696575
 20
32.5343989973
 30
0.0
 10
59.2884696575
 20
32.7274945769
 30
0.0
  0
SPLINE
  5
30D
100
AcDbEntity
  8
0
100
AcDbSpline
 62
7
  6
BYLAYER
 70
0
 71
3
 72
9
 73
5
 74
0
 42
0.0000001
 43
0.0000001
 44
0.0000000001
 40
0.0
 40
0.0
 40
0.0
 40
0.0
 40
0.4860035856
 40
1.0
 40
1.0
 40
1.0
 40
1.0
 10
40.7815548876
 20
52.0666110164
 30
0.0
 10
40.7815548887
 20
51.9801336395
 30
0.0
 10
40.8096552739
 20
51.8012740628
 30
0.0
 10
40.8878655302
 20
51.6387947043
 30
0.0
 10
40.936908866
 20
51.5615977366
 30
0.0
  0
SPLINE
  5
30E
100
AcDbEntity
  8
0
100
AcDbSpline
 62
7
  6
BYLAYER
 70
0
 71
3
 72
10
 73
6
 74
0
 42
0.0000001
 43
0.0000001
 44
0.0000000001
 40
0.0
 40
0.0
 40
0.0
 40
0.0
 40
0.2275322815
 40
0.596274582
 40
1.0
 40
1.0
 40
1.0
 40
1.0
 10
40.936908866
 20
51.5615977366
 30
0.0
 10
40.9694459267
 20
51.5103825739
 30
0.0
 10
41.06529841
 20
51.3827248156
 30
0.0
 10
41.2604000035
 20
51.1986846088
 30
0.0
 10
41.4322534843
 20
51.0835011994
 30
0.0
 10
41.5254924823
 20
51.0296708565
 30
0.0
  0
SPLINE
  5
30F
100
AcDbEntity
  8
0
100
AcDbSpline
 62
7
  6
BYLAYER
 70
0
 71
3
 72
9
 73
5
 74
0
 42
0.0000001
 43
0.0000001
 44
0.0000000001
 40
0.0
 40
0.0
 40
0.0
 40
0.0
 40
0.4877591496
 40
1.0
 40
1.0
 40
1.0
 40
1.0
 10
40.781562394
 20
35.5167601724
 30
0.0
 10
40.7815452051
 20
35.436389699
 30
0.0
 10
40.8056662191
 20
35.2708587484
 30
0.0
 10
40.8733931381
 20
35.1184874364
 30
0.0
 10
40.9161469628
 20
35.045712297
 30
0.0
  0
SPLINE
  5
310
100
AcDbEntity
  8
0
100
AcDbSpline
 62
7
  6
BYLAYER
 70
0
 71
3
 72
10
 73
6
 74
0
 42
0.0000001
 43
0.0000001
 44
0.0000000001
 40
0.0
 40
0.0
 40
0.0
 40
0.0
 40
0.2263703391
 40
0.5946281198
 40
1.0
 40
1.0
 40
1.0
 40
1.0
 10
40.9161469628
 20
35.045712297
 30
0.0
 10
40.9482394685
 20
34.99108475
 30
0.0
 10
41.0448191087
 20
34.8546041012
 30
0.0
 10
41.246932775
 20
34.6583167254
 30
0.0
 10
41.4272360106
 20
34.5365471804
 30
0.0
 10
41.5254924814
 20
34.4798200637
 30
0.0
  0
SPLINE
  5
311
100
AcDbEntity
  8
0
100
AcDbSpline
 62
7
  6
BYLAYER
 70
0
 71
3
 72
14
 73
10
 74
0
 42
0.0000001
 43
0.0000001
 44
0.0000000001
 40
0.0
 40
0.0
 40
0.0
 40
0.0
 40
0.1055406267
 40
0.2135271712
 40
0.3261347637
 40
0.4450819221
 40
0.7057067944
 40
0.8488333842
 40
1.0
 40
1.0
 40
1.0
 40
1.0
 10
10.4932779515
 20
55.4577958725
 30
0.0
 10
10.493275806
 20
55.3508910191
 30
0.0
 10
10.5139865963
 20
55.1340680032
 30
0.0
 10
10.6063091157
 20
54.8151072405
 30
0.0
 10
10.7582246172
 20
54.5047443401
 30
0.0
 10
11.0456644345
 20
54.095379483
 30
0.0
 10
11.4394581576
 20
53.7318309869
 30
0.0
 10
11.9070610778
 20
53.4193115011
 30
0.0
 10
12.1701052204
 20
53.2778155131
 30
0.0
 10
12.3079072107
 20
53.2110582516
 30
0.0
  0
SPLINE
  5
312
100
AcDbEntity
  8
0
100
AcDbSpline
 62
7
  6
BYLAYER
 70
0
 71
3
 72
24
 73
20
 74
0
 42
0.0000001
 43
0.0000001
 44
0.0000000001
 40
0.0
 40
0.0
 40
0.0
 40
0.0
 40
0.0213795962
 40
0.0430057587
 40
0.0878191596
 40
0.1360476692
 40
0.1886351866
 40
0.2459574149
 40
0.3079179181
 40
0.3740551582
 40
0.4436350241
 40
0.5157277574
 40
0.5892761378
 40
0.6631518914
 40
0.7362113257
 40
0.8073529833
 40
0.8755573182
 40
0.9399966827
 40
1.0
 40
1.0
 40
1.0
 40
1.0
 10
9.2232767318
 20
54.8356210435
 30
0.0
 10
9.2232748976
 20
54.7421978044
 30
0.0
 10
9.2357758836
 20
54.5540244443
 30
0.0
 10
9.3113489414
 20
54.1768594997
 30
0.0
 10
9.5043123575
 20
53.7085856098
 30
0.0
 10
9.8748398369
 20
53.1858579787
 30
0.0
 10
10.3757410501
 20
52.7048127805
 30
0.0
 10
10.9947715651
 20
52.2749542723
 30
0.0
 10
11.7178526048
 20
51.9048059302
 30
0.0
 10
12.5287592059
 20
51.6022506868
 30
0.0
 10
13.4091906711
 20
51.3739533466
 30
0.0
 10
14.3391272303
 20
51.2250212505
 30
0.0
 10
15.2973280864
 20
51.1588380821
 30
0.0
 10
16.26184909
 20
51.1769097429
 30
0.0
 10
17.2106101561
 20
51.2788438549
 30
0.0
 10
18.1218398153
 20
51.4623470089
 30
0.0
 10
18.9749531496
 20
51.7231796613
 30
0.0
 10
19.7502165071
 20
52.055567637
 30
0.0
 10
20.2216444825
 20
52.3304704646
 30
0.0
 10
20.4376512719
 20
52.4790950677
 30
0.0
  0
SPLINE
  5
313
100
AcDbEntity
  8
0
100
AcDbSpline
 62
7
  6
BYLAYER
 70
0
 71
3
 72
19
 73
15
 74
0
 42
0.0000001
 43
0.0000001
 44
0.0000000001
 40
0.0
 40
0.0
 40
0.0
 40
0.0
 40
0.1331666919
 40
0.2768585045
 40
0.4239852588
 40
0.5668112785
 40
0.6344338208
 40
0.6984952001
 40
0.7584717066
 40
0.8140810093
 40
0.8653712638
 40
0.9127774187
 40
0.9572054103
 40
1.0
 40
1.0
 40
1.0
 40
1.0
 10
19.603398453
 20
60.945122866
 30
0.0
 10
19.5822024508
 20
61.2141153207
 30
0.0
 10
19.4733411195
 20
61.7689680038
 30
0.0
 10
19.1599863382
 20
62.5727981239
 30
0.0
 10
18.7119339738
 20
63.3329136847
 30
0.0
 10
18.2455321305
 20
63.8925515301
 30
0.0
 10
17.832938417
 20
64.2667251254
 30
0.0
 10
17.5197177708
 20
64.4975868304
 30
0.0
 10
17.2032204498
 20
64.6792148007
 30
0.0
 10
16.8893115017
 20
64.8079106074
 30
0.0
 10
16.5838251439
 20
64.8810330213
 30
0.0
 10
16.2923070837
 20
64.8962115242
 30
0.0
 10
16.0208139798
 20
64.8523498893
 30
0.0
 10
15.8560814812
 20
64.7828010112
 30
0.0
 10
15.7809791844
 20
64.7394586995
 30
0.0
  0
SPLINE
  5
314
100
AcDbEntity
  8
0
100
AcDbSpline
 62
7
  6
BYLAYER
 70
0
 71
3
 72
19
 73
15
 74
0
 42
0.0000001
 43
0.0000001
 44
0.0000000001
 40
0.0
 40
0.0
 40
0.0
 40
0.0
 40
0.0428385741
 40
0.0874433207
 40
0.1352549764
 40
0.1871925429
 40
0.2436709144
 40
0.3046630743
 40
0.4382667828
 40
0.5825421017
 40
0.7296386972
 40
0.8711665501
 40
0.9376089289
 40
1.0
 40
1.0
 40
1.0
 40
1.0
 10
62.9845521127
 20
56.4944332953
 30
0.0
 10
62.9845474656
 20
56.5558923376
 30
0.0
 10
63.0010219848
 20
56.6818722513
 30
0.0
 10
63.0732337581
 20
56.8638020558
 30
0.0
 10
63.1905065208
 20
57.0362418832
 30
0.0
 10
63.3494039742
 20
57.1958290376
 30
0.0
 10
63.5463132193
 20
57.3397427033
 30
0.0
 10
63.8635381582
 20
57.5121741275
 30
0.0
 10
64.3283244284
 20
57.6674408292
 30
0.0
 10
64.9349239704
 20
57.7526124339
 30
0.0
 10
65.5585264095
 20
57.7354156927
 30
0.0
 10
66.0611859562
 20
57.6349144144
 30
0.0
 10
66.4263840274
 20
57.5025032908
 30
0.0
 10
66.592663268
 20
57.4205868318
 30
0.0
 10
66.6701819378
 20
57.3758324194
 30
0.0
  0
SPLINE
  5
315
100
AcDbEntity
  8
0
100
AcDbSpline
 62
7
  6
BYLAYER
 70
0
 71
3
 72
17
 73
13
 74
0
 42
0.0000001
 43
0.0000001
 44
0.0000000001
 40
0.0
 40
0.0
 40
0.0
 40
0.0
 40
0.1471491118
 40
0.2965935069
 40
0.4427176853
 40
0.5803202313
 40
0.7052797516
 40
0.8154393335
 40
0.8652510297
 40
0.9120512759
 40
0.9566202065
 40
1.0
 40
1.0
 40
1.0
 40
1.0
 10
16.7042218154
 20
60.7861120443
 30
0.0
 10
16.5929085545
 20
60.9124849319
 30
0.0
 10
16.3874255899
 20
61.1843530125
 30
0.0
 10
16.1388876394
 20
61.6275588272
 30
0.0
 10
15.9572028641
 20
62.0906039896
 30
0.0
 10
15.8523050785
 20
62.5484991215
 30
0.0
 10
15.8299090544
 20
62.9768404303
 30
0.0
 10
15.884091484
 20
63.3024318171
 30
0.0
 10
15.9738692343
 20
63.5223578437
 30
0.0
 10
16.0592149609
 20
63.6605670586
 30
0.0
 10
16.1638640999
 20
63.7751036604
 30
0.0
 10
16.2459737309
 20
63.8347662087
 30
0.0
 10
16.288972322
 20
63.8595834736
 30
0.0
  0
ENDSEC
  0
SECTION
  2
OBJECTS
  0
DICTIONARY
  5
C
100
AcDbDictionary
280
0
281
1
  3
ACAD_GROUP
350
D
  3
ACAD_MLINESTYLE
350
17
  3
ACAD_LAYOUT
350
1A
  3
ACAD_PLOTSETTINGS
350
19
  3
ACAD_PLOTSTYLENAME
350
E
  0
DICTIONARY
  5
D
102
{ACAD_REACTORS
330
C
102
}
100
AcDbDictionary
280
0
281
1
  0
ACDBDICTIONARYWDFLT
  5
E
102
{ACAD_REACTORS
330
C
102
}
100
AcDbDictionary
281
1
  3
Normal
350
F
100
AcDbDictionaryWithDefault
340
F
  0
DICTIONARY
  5
17
102
{ACAD_REACTORS
330
C
102
}
100
AcDbDictionary
280
0
281
1
  3
Standard
350
18
  0
DICTIONARY
  5
19
102
{ACAD_REACTORS
330
C
102
}
100
AcDbDictionary
281
1
  0
DICTIONARY
  5
1A
102
{ACAD_REACTORS
330
C
102
}
100
AcDbDictionary
281
1
  3
Model
350
316
  3
Layout1
350
317
  0
ACDBPLACEHOLDER
  5
F
102
{ACAD_REACTORS
330
E
102
}
  0
MLINESTYLE
  5
18
102
{ACAD_REACTORS
330
17
102
}
100
AcDbMlineStyle
  2
STANDARD
 70
0
  3

 62
256
 51
90.0
 52
90.0
 71
2
 49
0.5
 62
256
  6
BYLAYER
 49
-0.5
 62
256
  6
BYLAYER
  0
LAYOUT
  5
316
102
{ACAD_REACTORS
330
1A
102
}
100
AcDbPlotSettings
  1

  2
none_device
  4

  6

 40
0.0
 41
0.0
 42
0.0
 43
0.0
 44
210.0
 45
297.0
 46
0.0
 47
0.0
 48
0.0
 49
0.0
140
0.0
141
0.0
142
1.0
143
1.0
 70
1024
 72
1
 73
0
 74
0
  7

 75
0
147
1.0
148
0.0
149
0.0
100
AcDbLayout
  1
Model
 70
0
 71
0
 10
0.0
 20
0.0
 11
210.0
 21
297.0
 12
0.0
 22
0.0
 32
0.0
 14
0.0
 24
0.0
 34
0.0
 15
0.0
 25
0.0
 35
0.0
146
0.0
 13
0.0
 23
0.0
 33
0.0
 16
1.0
 26
0.0
 36
0.0
 17
0.0
 27
1.0
 37
0.0
 76
0
330
210
345
0
346
0
  0
LAYOUT
  5
317
102
{ACAD_REACTORS
330
1A
102
}
100
AcDbPlotSettings
  1

  2
none_device
  4

  6

 40
0.0
 41
0.0
 42
0.0
 43
0.0
 44
210.0
 45
297.0
 46
0.0
 47
0.0
 48
0.0
 49
0.0
140
0.0
141
0.0
142
1.0
143
1.0
 70
0
 72
1
 73
0
 74
0
  7

 75
0
147
1.0
148
0.0
149
0.0
100
AcDbLayout
  1
Layout1
 70
0
 71
1
 10
0.0
 20
0.0
 11
210.0
 21
297.0
 12
0.0
 22
0.0
 32
0.0
 14
0.0
 24
0.0
 34
0.0
 15
0.0
 25
0.0
 35
0.0
146
0.0
 13
0.0
 23
0.0
 33
0.0
 16
1.0
 26
0.0
 36
0.0
 17
0.0
 27
1.0
 37
0.0
 76
0
330
211
345
0
346
0
  0
ENDSEC
  0
EOF
