999
DXF file: C:\Users\sesa63760\Dev\_Creo\CAD\MCADID0002509_3D-CAD\drw0001_5.dxf
999
Pro/ENGINEER 2019471 by Parametric Technology Corporation
  0
SECTION
  2
HEADER
  9
$ACADVER
  1
AC1024
  9
$DWGCODEPAGE
  3
ANSI_1252
  9
$EXTMAX
 10
63.8981660431
 20
90.3702634038
 30
0.0
  9
$EXTMIN
 10
0.0
 20
0.0
 30
0.0
  9
$LIMMIN
 10
0.0
 20
0.0
  9
$LIMMAX
 10
63.8981660431
 20
90.3702634038
  9
$VIEWCTR
 10
31.9490830215
 20
45.1851317019
  9
$VIEWSIZE
 40
90.3702634038
  9
$CLAYER
  8
0
  9
$LTSCALE
 40
5.8908023552
  9
$CELTYPE
  6
BYLAYER
  9
$DIMSCALE
 40
1.0
  9
$DIMASZ
 40
0.7606924529
  9
$DIMEXO
 40
1.0
  9
$DIMDLI
 40
4.0700089
  9
$DIMEXE
 40
1.0
  9
$DIMCEN
 40
0.9639494763
  9
$DIMLFAC
 40
1.0
  9
$DIMBLK
  1
_FILLED
  9
$DIMALT
 70
0
  9
$DIMALTF
 40
0.0393700787
  9
$DIMTXT
 40
1.0649694341
  9
$DIMTOL
 70
1
  9
$DIMLIM
 70
0
  9
$DIMTFAC
 40
1.0
  9
$DIMTP
 40
0.01
  9
$DIMTM
 40
0.01
  9
$DIMGAP
 40
0.625
  9
$DIMDSEP
 70
46
  9
$AUNITS
 70
0
  9
$PDMODE
 70
3
  9
$PDSIZE
 40
0.3125
  9
$HANDSEED
  5
23E
  9
$TILEMODE
 70
1
  9
$MEASUREMENT
 70
1
  9
$INSUNITS
 70
4
  0
ENDSEC
  0
SECTION
  2
CLASSES
  0
CLASS
  1
ACDBDICTIONARYWDFLT
  2
AcDbDictionaryWithDefault
  3
AutoCAD 2000
 90
0
 91
1
280
0
281
0
  0
CLASS
  1
ACDBPLACEHOLDER
  2
AcDbPlaceHolder
  3
AutoCAD 2000
 90
0
 91
1
280
0
281
0
  0
CLASS
  1
LAYOUT
  2
AcDbLayout
  3
AutoCAD 2000
 90
0
 91
0
280
0
281
0
  0
ENDSEC
  0
SECTION
  2
TABLES
  0
TABLE
  2
VPORT
  5
8
100
AcDbSymbolTable
 70
2
  0
VPORT
  5
1F4
100
AcDbSymbolTableRecord
100
AcDbViewportTableRecord
  2
*ACTIVE
 70
0
 10
0.0
 20
0.0
 11
1.0
 21
1.0
 12
31.9490830215
 22
45.1851317019
 13
0.0
 23
0.0
 14
1.0
 24
1.0
 15
0.0
 25
0.0
 16
0.0
 26
0.0
 36
1.0
 17
0.0
 27
0.0
 37
0.0
 40
90.3702634038
 41
0.7070707071
 42
50.0
 43
0.0
 44
0.0
 50
0.0
 51
0.0
 71
0
 72
100
 73
1
 74
1
 75
0
 76
0
 77
0
 78
0
  0
ENDTAB
  0
TABLE
  2
LTYPE
  5
5
100
AcDbSymbolTable
 70
6
  0
LTYPE
  5
14
100
AcDbSymbolTableRecord
100
AcDbLinetypeTableRecord
  2
BYBLOCK
 70
0
  3

 72
65
 73
0
 40
0.0
  0
LTYPE
  5
15
100
AcDbSymbolTableRecord
100
AcDbLinetypeTableRecord
  2
BYLAYER
 70
0
  3

 72
65
 73
0
 40
0.0
  0
LTYPE
  5
16
100
AcDbSymbolTableRecord
100
AcDbLinetypeTableRecord
  2
CONTINUOUS
 70
64
  3
Solid line
 72
65
 73
0
 40
0.0
  0
LTYPE
  5
1F5
100
AcDbSymbolTableRecord
100
AcDbLinetypeTableRecord
  2
CENTER
 70
64
  3
____ _ ____ _ ____ _ ____ _ ____ _ ____ _ ____
 72
65
 73
4
 40
0.6
 49
0.375
 74
0
 49
-0.075
 74
0
 49
0.075
 74
0
 49
-0.075
 74
0
  0
LTYPE
  5
1F6
100
AcDbSymbolTableRecord
100
AcDbLinetypeTableRecord
  2
HIDDEN
 70
64
  3
- - - - - - - - - - - - - - - - - - - -
 72
65
 73
2
 40
0.2
 49
0.1
 74
0
 49
-0.1
 74
0
  0
LTYPE
  5
1F7
100
AcDbSymbolTableRecord
100
AcDbLinetypeTableRecord
  2
PHANTOM
 70
64
  3
_____ _ _ _____ _ _ _____ _ _ _____
 72
65
 73
6
 40
0.8
 49
0.45
 74
0
 49
-0.05
 74
0
 49
0.1
 74
0
 49
-0.05
 74
0
 49
0.1
 74
0
 49
-0.05
 74
0
  0
LTYPE
  5
1F8
100
AcDbSymbolTableRecord
100
AcDbLinetypeTableRecord
  2
DOT
 70
64
  3
. . . . . . . . . . . . . . . . . . . .
 72
65
 73
2
 40
0.2
 49
0.1
 74
0
 49
-0.1
 74
0
  0
LTYPE
  5
1F9
100
AcDbSymbolTableRecord
100
AcDbLinetypeTableRecord
  2
DASHED
 70
64
  3
- - - - - - - - - - - - - - - - - - - -
 72
65
 73
2
 40
0.2
 49
0.1
 74
0
 49
-0.1
 74
0
  0
ENDTAB
  0
TABLE
  2
LAYER
  5
2
100
AcDbSymbolTable
 70
36
  0
LAYER
  5
10
100
AcDbSymbolTableRecord
100
AcDbLayerTableRecord
  2
0
 70
0
 62
7
  6
CONTINUOUS
370
-3
390
F
  0
LAYER
  5
1FA
100
AcDbSymbolTableRecord
100
AcDbLayerTableRecord
  2
DEFAULT_1
 70
0
 62
7
  6
CENTER
370
-3
390
F
  0
LAYER
  5
1FB
100
AcDbSymbolTableRecord
100
AcDbLayerTableRecord
  2
DEFAULT_2
 70
0
 62
7
  6
HIDDEN
370
-3
390
F
  0
LAYER
  5
1FC
100
AcDbSymbolTableRecord
100
AcDbLayerTableRecord
  2
DEFAULT_3
 70
0
 62
7
  6
PHANTOM
370
-3
390
F
  0
LAYER
  5
1FD
100
AcDbSymbolTableRecord
100
AcDbLayerTableRecord
  2
00_COMPONENTS
 70
0
 62
7
  6
CONTINUOUS
370
-3
390
F
  0
LAYER
  5
1FE
100
AcDbSymbolTableRecord
100
AcDbLayerTableRecord
  2
01_1_DEFAULT_DATUMS
 70
0
 62
7
  6
CONTINUOUS
370
-3
390
F
  0
LAYER
  5
1FF
100
AcDbSymbolTableRecord
100
AcDbLayerTableRecord
  2
01_PLANES
 70
0
 62
7
  6
CONTINUOUS
370
-3
390
F
  0
LAYER
  5
200
100
AcDbSymbolTableRecord
100
AcDbLayerTableRecord
  2
02_COORD_SYS
 70
0
 62
7
  6
CONTINUOUS
370
-3
390
F
  0
LAYER
  5
201
100
AcDbSymbolTableRecord
100
AcDbLayerTableRecord
  2
03_AXES
 70
0
 62
7
  6
CONTINUOUS
370
-3
390
F
  0
LAYER
  5
202
100
AcDbSymbolTableRecord
100
AcDbLayerTableRecord
  2
04_POINTS
 70
0
 62
7
  6
CONTINUOUS
370
-3
390
F
  0
LAYER
  5
203
100
AcDbSymbolTableRecord
100
AcDbLayerTableRecord
  2
05_CURVES
 70
0
 62
7
  6
CONTINUOUS
370
-3
390
F
  0
LAYER
  5
204
100
AcDbSymbolTableRecord
100
AcDbLayerTableRecord
  2
06_SURFS
 70
0
 62
7
  6
CONTINUOUS
370
-3
390
F
  0
LAYER
  5
205
100
AcDbSymbolTableRecord
100
AcDbLayerTableRecord
  2
07_COSMETICS
 70
0
 62
7
  6
CONTINUOUS
370
-3
390
F
  0
LAYER
  5
206
100
AcDbSymbolTableRecord
100
AcDbLayerTableRecord
  2
10_NOTES
 70
0
 62
7
  6
CONTINUOUS
370
-3
390
F
  0
LAYER
  5
207
100
AcDbSymbolTableRecord
100
AcDbLayerTableRecord
  2
11_NOTES_PUB
 70
0
 62
7
  6
CONTINUOUS
370
-3
390
F
  0
LAYER
  5
208
100
AcDbSymbolTableRecord
100
AcDbLayerTableRecord
  2
13_REF_GTOL
 70
0
 62
7
  6
CONTINUOUS
370
-3
390
F
  0
LAYER
  5
209
100
AcDbSymbolTableRecord
100
AcDbLayerTableRecord
  2
16_MISC
 70
0
 62
7
  6
CONTINUOUS
370
-3
390
F
  0
LAYER
  5
20A
100
AcDbSymbolTableRecord
100
AcDbLayerTableRecord
  2
17_NO_PRINT
 70
0
 62
7
  6
CONTINUOUS
370
-3
390
F
  0
LAYER
  5
20B
100
AcDbSymbolTableRecord
100
AcDbLayerTableRecord
  2
18_DATUM_CAMS_JOINTS
 70
0
 62
7
  6
CONTINUOUS
370
-3
390
F
  0
LAYER
  5
20C
100
AcDbSymbolTableRecord
100
AcDbLayerTableRecord
  2
19_DATUM_FUNCTIONAL
 70
0
 62
7
  6
CONTINUOUS
370
-3
390
F
  0
LAYER
  5
20D
100
AcDbSymbolTableRecord
100
AcDbLayerTableRecord
  2
20_DATUM_KINEMATIC_SCHEME
 70
0
 62
7
  6
CONTINUOUS
370
-3
390
F
  0
ENDTAB
  0
TABLE
  2
STYLE
  5
3
100
AcDbSymbolTable
 70
1
  0
STYLE
  5
11
100
AcDbSymbolTableRecord
100
AcDbTextStyleTableRecord
  2
STANDARD
 70
0
 40
0.0
 41
1.0
 50
0.0
 71
0
 42
0.2
  3
ARIAL.TTF
  4

  0
STYLE
  5
20E
100
AcDbSymbolTableRecord
100
AcDbTextStyleTableRecord
  2
TEXTSTYLE_1
 70
0
 40
0.0
 41
0.8
 50
0.0
 71
0
 42
0.2
  3
gdt
  4

  0
ENDTAB
  0
TABLE
  2
VIEW
  5
6
100
AcDbSymbolTable
 70
0
  0
ENDTAB
  0
TABLE
  2
UCS
  5
7
100
AcDbSymbolTable
 70
0
  0
ENDTAB
  0
TABLE
  2
APPID
  5
9
100
AcDbSymbolTable
 70
1
  0
APPID
  5
20F
100
AcDbSymbolTableRecord
100
AcDbRegAppTableRecord
  2
ACAD
 70
0
  0
ENDTAB
  0
TABLE
  2
BLOCK_RECORD
  5
1
100
AcDbSymbolTable
 70
0
  0
BLOCK_RECORD
  5
210
100
AcDbSymbolTableRecord
100
AcDbBlockTableRecord
  2
*Model_Space
  0
BLOCK_RECORD
  5
211
100
AcDbSymbolTableRecord
100
AcDbBlockTableRecord
  2
*Paper_Space
  0
BLOCK_RECORD
  5
212
100
AcDbSymbolTableRecord
100
AcDbBlockTableRecord
  2
_FILLED
  0
ENDTAB
  0
TABLE
  2
DIMSTYLE
  5
A
100
AcDbSymbolTable
 70
1
100
AcDbDimStyleTable
 71
0
  0
DIMSTYLE
105
213
100
AcDbSymbolTableRecord
100
AcDbDimStyleTableRecord
  2
STANDARD
 70
0
  3

  4

 40
1.0
 41
0.7606924529
 42
1.0
 43
0.38
 44
1.0
 45
0.0
 46
0.0
 47
0.01
 48
0.01
140
1.0649694341
141
0.09
142
0.0
143
25.4
144
1.0
145
0.0
146
1.0
147
0.625
 71
1
 72
0
 73
0
 74
0
 75
0
 76
0
 77
1
 78
8
 79
2
170
0
171
1
172
0
173
0
174
0
175
0
176
0
177
0
178
0
270
2
179
2
271
2
272
2
273
2
274
2
275
0
280
0
281
0
282
0
283
1
284
8
285
0
286
0
287
3
288
0
340
11
278
46
341
212
342
212
343
212
344
212
  0
ENDTAB
  0
ENDSEC
  0
SECTION
  2
BLOCKS
  0
BLOCK
  5
20
100
AcDbEntity
  8
0
100
AcDbBlockBegin
  2
*Model_Space
 70
0
 10
0.0
 20
0.0
 30
0.0
  3
*Model_Space
  1

  0
ENDBLK
  5
21
100
AcDbEntity
  8
0
100
AcDbBlockEnd
  0
BLOCK
  5
1C
100
AcDbEntity
  8
0
100
AcDbBlockBegin
  2
*Paper_Space
 70
0
 10
0.0
 20
0.0
 30
0.0
  3
*Paper_Space
  1

  0
ENDBLK
  5
1D
100
AcDbEntity
  8
0
100
AcDbBlockEnd
  0
BLOCK
  5
214
100
AcDbEntity
  8
0
100
AcDbBlockBegin
  2
_FILLED
 70
64
 10
0.0
 20
0.0
  3
_FILLED
  1

  0
SOLID
  5
215
100
AcDbEntity
  8
0
  6
BYBLOCK
 62
0
100
AcDbTrace
 10
0.0
 20
0.0
 11
-1.0
 21
0.25
 12
-1.0
 22
-0.25
 13
-1.0
 23
-0.25
  0
ENDBLK
  5
216
100
AcDbEntity
  8
0
  6
BYBLOCK
 62
0
100
AcDbBlockEnd
  0
ENDSEC
  0
SECTION
  2
ENTITIES
  0
LINE
  5
217
100
AcDbEntity
  8
0
100
AcDbLine
 62
7
  6
BYLAYER
 10
7.4195155723
 20
49.6613690194
 11
7.4195155723
 21
57.5988690194
  0
LINE
  5
218
100
AcDbEntity
  8
0
100
AcDbLine
 62
7
  6
BYLAYER
 10
9.7443554967
 20
49.6613690194
 11
9.7443554967
 21
57.5988690194
  0
LINE
  5
219
100
AcDbEntity
  8
0
100
AcDbLine
 62
7
  6
BYLAYER
 10
55.0445064877
 20
32.9926190194
 11
45.519524657
 21
32.9926190194
  0
LINE
  5
21A
100
AcDbEntity
  8
0
100
AcDbLine
 62
7
  6
BYLAYER
 10
21.8378754067
 20
49.6613690194
 11
21.8378754067
 21
49.7187087092
  0
LINE
  5
21B
100
AcDbEntity
  8
0
100
AcDbLine
 62
7
  6
BYLAYER
 10
21.8378754067
 20
57.5415293296
 11
21.8378754067
 21
57.5988690194
  0
LINE
  5
21C
100
AcDbEntity
  8
0
100
AcDbLine
 62
7
  6
BYLAYER
 10
58.2195046015
 20
35.3738690194
 11
42.3445265432
 21
35.3738690194
  0
LINE
  5
21D
100
AcDbEntity
  8
0
100
AcDbLine
 62
7
  6
BYLAYER
 10
29.6445155723
 20
51.6457440194
 11
27.6601405723
 21
49.6613690194
  0
LINE
  5
21E
100
AcDbEntity
  8
0
100
AcDbLine
 62
7
  6
BYLAYER
 10
27.6601405723
 20
49.6613690194
 11
7.419737874
 21
49.6613690194
  0
LINE
  5
21F
100
AcDbEntity
  8
0
100
AcDbLine
 62
7
  6
BYLAYER
 10
13.9538505534
 20
50.4551190194
 11
16.1989145837
 21
50.4551190194
  0
LINE
  5
220
100
AcDbEntity
  8
0
100
AcDbLine
 62
7
  6
BYLAYER
 10
27.6601405723
 20
57.5988690194
 11
29.6445155723
 21
55.6144940194
  0
LINE
  5
221
100
AcDbEntity
  8
0
100
AcDbLine
 62
7
  6
BYLAYER
 10
42.3445265432
 20
51.2488690194
 11
58.2195046015
 21
51.2488690194
  0
LINE
  5
222
100
AcDbEntity
  8
0
100
AcDbLine
 62
7
  6
BYLAYER
 10
50.7149701178
 20
51.6457440194
 11
29.6445155723
 21
51.6457440194
  0
LINE
  5
223
100
AcDbEntity
  8
0
100
AcDbLine
 62
7
  6
BYLAYER
 10
42.3445155723
 20
51.2488690194
 11
42.3445155723
 21
35.3738690194
  0
LINE
  5
224
100
AcDbEntity
  8
0
100
AcDbLine
 62
7
  6
BYLAYER
 10
29.6445155723
 20
55.6144940194
 11
50.7149701178
 21
55.6144940194
  0
LINE
  5
225
100
AcDbEntity
  8
0
100
AcDbLine
 62
7
  6
BYLAYER
 10
45.5196606895
 20
56.1701190194
 11
55.0443704552
 21
56.1701190194
  0
LINE
  5
226
100
AcDbEntity
  8
0
100
AcDbLine
 62
7
  6
BYLAYER
 10
13.9538505534
 20
56.8051190194
 11
16.1989145837
 21
56.8051190194
  0
LINE
  5
227
100
AcDbEntity
  8
0
100
AcDbLine
 62
7
  6
BYLAYER
 10
48.1390313136
 20
56.8051190194
 11
52.4249998311
 21
56.8051190194
  0
LINE
  5
228
100
AcDbEntity
  8
0
100
AcDbLine
 62
7
  6
BYLAYER
 10
45.5195155723
 20
35.3738690194
 11
45.5195155723
 21
32.9926190194
  0
LINE
  5
229
100
AcDbEntity
  8
0
100
AcDbLine
 62
7
  6
BYLAYER
 10
45.5195155723
 20
51.2488690194
 11
45.5195155723
 21
51.6457440194
  0
LINE
  5
22A
100
AcDbEntity
  8
0
100
AcDbLine
 62
7
  6
BYLAYER
 10
45.5195155723
 20
55.6144940194
 11
45.5195155723
 21
56.1701190194
  0
LINE
  5
22B
100
AcDbEntity
  8
0
100
AcDbLine
 62
7
  6
BYLAYER
 10
7.4197228487
 20
57.5988690194
 11
27.6601405723
 21
57.5988690194
  0
LINE
  5
22C
100
AcDbEntity
  8
0
100
AcDbLine
 62
7
  6
BYLAYER
 10
48.1388905723
 20
56.8051190194
 11
48.1388905723
 21
56.1701190194
  0
LINE
  5
22D
100
AcDbEntity
  8
0
100
AcDbLine
 62
7
  6
BYLAYER
 10
50.7149701178
 20
55.6144940194
 11
50.7149701178
 21
51.6457440194
  0
LINE
  5
22E
100
AcDbEntity
  8
0
100
AcDbLine
 62
7
  6
BYLAYER
 10
52.4251405723
 20
56.8051190194
 11
52.4251405723
 21
56.1701190194
  0
LINE
  5
22F
100
AcDbEntity
  8
0
100
AcDbLine
 62
7
  6
BYLAYER
 10
55.0445155723
 20
35.3738690194
 11
55.0445155723
 21
32.9926190194
  0
LINE
  5
230
100
AcDbEntity
  8
0
100
AcDbLine
 62
7
  6
BYLAYER
 10
55.0445155723
 20
51.2488690194
 11
55.0445155723
 21
56.1701190194
  0
LINE
  5
231
100
AcDbEntity
  8
0
100
AcDbLine
 62
7
  6
BYLAYER
 10
58.2195155723
 20
51.2488690194
 11
58.2195155723
 21
35.3738690194
  0
SPLINE
  5
232
100
AcDbEntity
  8
0
100
AcDbSpline
 62
7
  6
BYLAYER
 70
0
 71
3
 72
17
 73
13
 74
0
 42
0.0000001
 43
0.0000001
 44
0.0000000001
 40
0.0
 40
0.0
 40
0.0
 40
0.0
 40
0.0514973149
 40
0.1034838229
 40
0.156415435
 40
0.2106916071
 40
0.3242819458
 40
0.4459581819
 40
0.5758242765
 40
0.7128192929
 40
0.8550446032
 40
1.0
 40
1.0
 40
1.0
 40
1.0
 10
13.9538505572
 20
56.8050952247
 30
0.0
 10
13.8803230954
 20
56.8050954906
 30
0.0
 10
13.7323638817
 20
56.7948013752
 30
0.0
 10
13.5132052525
 20
56.7485576392
 30
0.0
 10
13.2984161558
 20
56.6721559457
 30
0.0
 10
13.0167174344
 20
56.5289836489
 30
0.0
 10
12.6856251923
 20
56.2748405815
 30
0.0
 10
12.3460198419
 20
55.875048447
 30
0.0
 10
12.0686998381
 20
55.3913862644
 30
0.0
 10
11.8633234517
 20
54.8420820067
 30
0.0
 10
11.7370991631
 20
54.2477040498
 30
0.0
 10
11.7087865232
 20
53.8370851965
 30
0.0
 10
11.7087865232
 20
53.6301190194
 30
0.0
  0
SPLINE
  5
233
100
AcDbEntity
  8
0
100
AcDbSpline
 62
7
  6
BYLAYER
 70
0
 71
3
 72
17
 73
13
 74
0
 42
0.0000001
 43
0.0000001
 44
0.0000000001
 40
0.0
 40
0.0
 40
0.0
 40
0.0
 40
0.1449544376
 40
0.2871768375
 40
0.4241704734
 40
0.5540356825
 40
0.6757129462
 40
0.7893053251
 40
0.8435824814
 40
0.8965150395
 40
0.9485021947
 40
1.0
 40
1.0
 40
1.0
 40
1.0
 10
11.7087865232
 20
53.6301190194
 30
0.0
 10
11.7087865232
 20
53.423154158
 30
0.0
 10
11.7370977932
 20
53.012540629
 30
0.0
 10
11.8633201458
 20
52.4181699454
 30
0.0
 10
12.0686891195
 20
51.868870769
 30
0.0
 10
12.3460052372
 20
51.3852082004
 30
0.0
 10
12.685608913
 20
50.9854105652
 30
0.0
 10
13.0167039569
 20
50.7312608016
 30
0.0
 10
13.2984079355
 20
50.5880862464
 30
0.0
 10
13.5131997613
 20
50.5116810868
 30
0.0
 10
13.7323615547
 20
50.4654369858
 30
0.0
 10
13.8803223687
 20
50.45514308
 30
0.0
 10
13.9538505497
 20
50.4551428141
 30
0.0
  0
SPLINE
  5
234
100
AcDbEntity
  8
0
100
AcDbSpline
 62
7
  6
BYLAYER
 70
0
 71
3
 72
27
 73
23
 74
0
 42
0.0000001
 43
0.0000001
 44
0.0000000001
 40
0.0
 40
0.0
 40
0.0
 40
0.0
 40
0.025732669
 40
0.0517400948
 40
0.078212716
 40
0.1053478393
 40
0.1621429859
 40
0.2229821256
 40
0.2879155809
 40
0.3564147113
 40
0.4275210582
 40
0.4999990077
 40
0.5724766582
 40
0.6435822309
 40
0.7120806109
 40
0.7770139479
 40
0.8378538419
 40
0.8946499733
 40
0.9217857325
 40
0.9482591357
 40
0.9742671455
 40
1.0
 40
1.0
 40
1.0
 40
1.0
 10
20.4645362412
 20
57.5988690194
 30
0.0
 10
20.5563885037
 20
57.5988690194
 30
0.0
 10
20.7413191121
 20
57.5858945434
 30
0.0
 10
21.0153140939
 20
57.5282389127
 30
0.0
 10
21.2838452805
 20
57.4326526488
 30
0.0
 10
21.6359977331
 20
57.2537241039
 30
0.0
 10
22.0498309727
 20
56.9360020493
 30
0.0
 10
22.4743396827
 20
56.4362671782
 30
0.0
 10
22.8209893377
 20
55.8316649048
 30
0.0
 10
23.0776744275
 20
55.1450701337
 30
0.0
 10
23.2354660187
 20
54.4019952006
 30
0.0
 10
23.2887033384
 20
53.6301313738
 30
0.0
 10
23.2354694707
 20
52.8582701264
 30
0.0
 10
23.0776833103
 20
52.1152007441
 30
0.0
 10
22.821004834
 20
51.428609932
 30
0.0
 10
22.4743616407
 20
50.8240044672
 30
0.0
 10
22.0498541853
 20
50.3242610539
 30
0.0
 10
21.6360188415
 20
50.0065277227
 30
0.0
 10
21.2838604549
 20
49.827591621
 30
0.0
 10
21.0153227008
 20
49.7320022191
 30
0.0
 10
20.7413224709
 20
49.6743448473
 30
0.0
 10
20.5563891656
 20
49.6613690194
 30
0.0
 10
20.4645362412
 20
49.6613690194
 30
0.0
  0
SPLINE
  5
235
100
AcDbEntity
  8
0
100
AcDbSpline
 62
7
  6
BYLAYER
 70
0
 71
3
 72
17
 73
13
 74
0
 42
0.0000001
 43
0.0000001
 44
0.0000000001
 40
0.0
 40
0.0
 40
0.0
 40
0.0
 40
0.0514973149
 40
0.1034838229
 40
0.156415435
 40
0.2106916071
 40
0.3242819458
 40
0.4459581819
 40
0.5758242765
 40
0.7128192929
 40
0.8550446032
 40
1.0
 40
1.0
 40
1.0
 40
1.0
 10
16.19891458
 20
56.8050952247
 30
0.0
 10
16.2724420417
 20
56.8050954906
 30
0.0
 10
16.4204012554
 20
56.7948013752
 30
0.0
 10
16.6395598846
 20
56.7485576392
 30
0.0
 10
16.8543489814
 20
56.6721559457
 30
0.0
 10
17.1360477028
 20
56.5289836489
 30
0.0
 10
17.4671399449
 20
56.2748405815
 30
0.0
 10
17.8067452952
 20
55.875048447
 30
0.0
 10
18.084065299
 20
55.3913862644
 30
0.0
 10
18.2894416855
 20
54.8420820067
 30
0.0
 10
18.415665974
 20
54.2477040498
 30
0.0
 10
18.443978614
 20
53.8370851965
 30
0.0
 10
18.443978614
 20
53.6301190194
 30
0.0
  0
SPLINE
  5
236
100
AcDbEntity
  8
0
100
AcDbSpline
 62
7
  6
BYLAYER
 70
0
 71
3
 72
17
 73
13
 74
0
 42
0.0000001
 43
0.0000001
 44
0.0000000001
 40
0.0
 40
0.0
 40
0.0
 40
0.0
 40
0.1449544376
 40
0.2871768375
 40
0.4241704734
 40
0.5540356825
 40
0.6757129462
 40
0.7893053251
 40
0.8435824814
 40
0.8965150395
 40
0.9485021947
 40
1.0
 40
1.0
 40
1.0
 40
1.0
 10
16.1989145837
 20
53.6301190194
 30
0.0
 10
16.1989145837
 20
53.8370838808
 30
0.0
 10
16.1706033137
 20
54.2476974098
 30
0.0
 10
16.0443809611
 20
54.8420680934
 30
0.0
 10
15.8390119874
 20
55.3913672698
 30
0.0
 10
15.5616958696
 20
55.8750298384
 30
0.0
 10
15.2220921938
 20
56.2748274736
 30
0.0
 10
14.89099715
 20
56.5289772372
 30
0.0
 10
14.6092931714
 20
56.6721517924
 30
0.0
 10
14.3945013455
 20
56.748556952
 30
0.0
 10
14.1753395521
 20
56.794801053
 30
0.0
 10
14.0273787382
 20
56.8050949588
 30
0.0
 10
13.9538505572
 20
56.8050952247
 30
0.0
  0
SPLINE
  5
237
100
AcDbEntity
  8
0
100
AcDbSpline
 62
7
  6
BYLAYER
 70
0
 71
3
 72
23
 73
19
 74
0
 42
0.0000001
 43
0.0000001
 44
0.0000000001
 40
0.0
 40
0.0
 40
0.0
 40
0.0
 40
0.0519349207
 40
0.1065175692
 40
0.1644741531
 40
0.226063938
 40
0.2910866648
 40
0.3589907081
 40
0.4289575006
 40
0.4999977337
 40
0.5710378348
 40
0.6410043232
 40
0.7089083921
 40
0.7739318304
 40
0.8355229153
 40
0.8934807114
 40
0.9480646495
 40
1.0
 40
1.0
 40
1.0
 40
1.0
 10
21.8378754067
 20
49.7187087092
 30
0.0
 10
22.0018832405
 20
49.758569087
 30
0.0
 10
22.3291784931
 20
49.8823165982
 30
0.0
 10
22.7779340818
 20
50.1795337041
 30
0.0
 10
23.1813240795
 20
50.5811420386
 30
0.0
 10
23.5279330927
 20
51.0739693386
 30
0.0
 10
23.8082712212
 20
51.6431217978
 30
0.0
 10
24.0144782452
 20
52.2715399201
 30
0.0
 10
24.1406426331
 20
52.9405199199
 30
0.0
 10
24.18311393
 20
53.6300961081
 30
0.0
 10
24.1406486733
 20
54.319671667
 30
0.0
 10
24.0144905457
 20
54.9886514807
 30
0.0
 10
23.8082888441
 20
55.6170728035
 30
0.0
 10
23.5279531704
 20
56.1862339408
 30
0.0
 10
23.1813420888
 20
56.6790725643
 30
0.0
 10
22.7779475688
 20
57.0806941245
 30
0.0
 10
22.3291847417
 20
57.3779180232
 30
0.0
 10
22.0018845978
 20
57.5016686219
 30
0.0
 10
21.8378754067
 20
57.5415293296
 30
0.0
  0
SPLINE
  5
238
100
AcDbEntity
  8
0
100
AcDbSpline
 62
7
  6
BYLAYER
 70
0
 71
3
 72
17
 73
13
 74
0
 42
0.0000001
 43
0.0000001
 44
0.0000000001
 40
0.0
 40
0.0
 40
0.0
 40
0.0
 40
0.0514973149
 40
0.1034838229
 40
0.156415435
 40
0.2106916071
 40
0.3242819458
 40
0.4459581819
 40
0.5758242765
 40
0.7128192929
 40
0.8550446032
 40
1.0
 40
1.0
 40
1.0
 40
1.0
 10
13.9538505497
 20
50.4551428141
 30
0.0
 10
14.0273780115
 20
50.4551425482
 30
0.0
 10
14.1753372251
 20
50.4654366636
 30
0.0
 10
14.3944958544
 20
50.5116803996
 30
0.0
 10
14.6092849511
 20
50.5880820931
 30
0.0
 10
14.8909836725
 20
50.7312543899
 30
0.0
 10
15.2220759146
 20
50.9853974573
 30
0.0
 10
15.5616812649
 20
51.3851895918
 30
0.0
 10
15.8390012687
 20
51.8688517744
 30
0.0
 10
16.0443776552
 20
52.4181560321
 30
0.0
 10
16.1706019438
 20
53.012533989
 30
0.0
 10
16.1989145837
 20
53.4231528423
 30
0.0
 10
16.1989145837
 20
53.6301190194
 30
0.0
  0
SPLINE
  5
239
100
AcDbEntity
  8
0
100
AcDbSpline
 62
7
  6
BYLAYER
 70
0
 71
3
 72
17
 73
13
 74
0
 42
0.0000001
 43
0.0000001
 44
0.0000000001
 40
0.0
 40
0.0
 40
0.0
 40
0.0
 40
0.1449544376
 40
0.2871768375
 40
0.4241704734
 40
0.5540356825
 40
0.6757129462
 40
0.7893053251
 40
0.8435824814
 40
0.8965150395
 40
0.9485021947
 40
1.0
 40
1.0
 40
1.0
 40
1.0
 10
18.443978614
 20
53.6301190194
 30
0.0
 10
18.443978614
 20
53.423154158
 30
0.0
 10
18.4156673439
 20
53.012540629
 30
0.0
 10
18.2894449913
 20
52.4181699454
 30
0.0
 10
18.0840760177
 20
51.868870769
 30
0.0
 10
17.8067598999
 20
51.3852082004
 30
0.0
 10
17.4671562241
 20
50.9854105652
 30
0.0
 10
17.1360611803
 20
50.7312608016
 30
0.0
 10
16.8543572016
 20
50.5880862464
 30
0.0
 10
16.6395653758
 20
50.5116810868
 30
0.0
 10
16.4204035824
 20
50.4654369858
 30
0.0
 10
16.2724427685
 20
50.45514308
 30
0.0
 10
16.1989145874
 20
50.4551428141
 30
0.0
  0
SPLINE
  5
23A
100
AcDbEntity
  8
0
100
AcDbSpline
 62
7
  6
BYLAYER
 70
0
 71
3
 72
27
 73
23
 74
0
 42
0.0000001
 43
0.0000001
 44
0.0000000001
 40
0.0
 40
0.0
 40
0.0
 40
0.0
 40
0.025732669
 40
0.0517400948
 40
0.078212716
 40
0.1053478393
 40
0.1621429859
 40
0.2229821256
 40
0.2879155809
 40
0.3564147113
 40
0.4275210582
 40
0.4999990077
 40
0.5724766582
 40
0.6435822309
 40
0.7120806109
 40
0.7770139479
 40
0.8378538419
 40
0.8946499733
 40
0.9217857325
 40
0.9482591357
 40
0.9742671455
 40
1.0
 40
1.0
 40
1.0
 40
1.0
 10
16.1989145837
 20
49.6613690194
 30
0.0
 10
16.2907668462
 20
49.6613690194
 30
0.0
 10
16.4756974546
 20
49.6743434954
 30
0.0
 10
16.7496924364
 20
49.7319991261
 30
0.0
 10
17.018223623
 20
49.82758539
 30
0.0
 10
17.3703760756
 20
50.0065139349
 30
0.0
 10
17.7842093152
 20
50.3242359895
 30
0.0
 10
18.2087180252
 20
50.8239708606
 30
0.0
 10
18.5553676802
 20
51.428573134
 30
0.0
 10
18.81205277
 20
52.1151679051
 30
0.0
 10
18.9698443612
 20
52.8582428382
 30
0.0
 10
19.0230816809
 20
53.630106665
 30
0.0
 10
18.9698478132
 20
54.4019679124
 30
0.0
 10
18.8120616528
 20
55.1450372947
 30
0.0
 10
18.5553831765
 20
55.8316281068
 30
0.0
 10
18.2087399832
 20
56.4362335716
 30
0.0
 10
17.7842325278
 20
56.9359769849
 30
0.0
 10
17.370397184
 20
57.2537103161
 30
0.0
 10
17.0182387973
 20
57.4326464178
 30
0.0
 10
16.7497010433
 20
57.5282358197
 30
0.0
 10
16.4757008134
 20
57.5858931915
 30
0.0
 10
16.2907675081
 20
57.5988690194
 30
0.0
 10
16.1989145837
 20
57.5988690194
 30
0.0
  0
ELLIPSE
  5
23B
100
AcDbEntity
  8
0
100
AcDbEllipse
 62
7
  6
BYLAYER
 10
20.7917506082
 20
53.6301190194
 30
0.0
 11
6.1764942832
 21
0.0
 31
0.0
 40
0.6425570587
 41
-1.4006039631
 42
1.4006039631
  0
ENDSEC
  0
SECTION
  2
OBJECTS
  0
DICTIONARY
  5
C
100
AcDbDictionary
280
0
281
1
  3
ACAD_GROUP
350
D
  3
ACAD_MLINESTYLE
350
17
  3
ACAD_LAYOUT
350
1A
  3
ACAD_PLOTSETTINGS
350
19
  3
ACAD_PLOTSTYLENAME
350
E
  0
DICTIONARY
  5
D
102
{ACAD_REACTORS
330
C
102
}
100
AcDbDictionary
280
0
281
1
  0
ACDBDICTIONARYWDFLT
  5
E
102
{ACAD_REACTORS
330
C
102
}
100
AcDbDictionary
281
1
  3
Normal
350
F
100
AcDbDictionaryWithDefault
340
F
  0
DICTIONARY
  5
17
102
{ACAD_REACTORS
330
C
102
}
100
AcDbDictionary
280
0
281
1
  3
Standard
350
18
  0
DICTIONARY
  5
19
102
{ACAD_REACTORS
330
C
102
}
100
AcDbDictionary
281
1
  0
DICTIONARY
  5
1A
102
{ACAD_REACTORS
330
C
102
}
100
AcDbDictionary
281
1
  3
Model
350
23C
  3
Layout1
350
23D
  0
ACDBPLACEHOLDER
  5
F
102
{ACAD_REACTORS
330
E
102
}
  0
MLINESTYLE
  5
18
102
{ACAD_REACTORS
330
17
102
}
100
AcDbMlineStyle
  2
STANDARD
 70
0
  3

 62
256
 51
90.0
 52
90.0
 71
2
 49
0.5
 62
256
  6
BYLAYER
 49
-0.5
 62
256
  6
BYLAYER
  0
LAYOUT
  5
23C
102
{ACAD_REACTORS
330
1A
102
}
100
AcDbPlotSettings
  1

  2
none_device
  4

  6

 40
0.0
 41
0.0
 42
0.0
 43
0.0
 44
210.0
 45
297.0
 46
0.0
 47
0.0
 48
0.0
 49
0.0
140
0.0
141
0.0
142
1.0
143
1.0
 70
1024
 72
1
 73
0
 74
0
  7

 75
0
147
1.0
148
0.0
149
0.0
100
AcDbLayout
  1
Model
 70
0
 71
0
 10
0.0
 20
0.0
 11
210.0
 21
297.0
 12
0.0
 22
0.0
 32
0.0
 14
0.0
 24
0.0
 34
0.0
 15
0.0
 25
0.0
 35
0.0
146
0.0
 13
0.0
 23
0.0
 33
0.0
 16
1.0
 26
0.0
 36
0.0
 17
0.0
 27
1.0
 37
0.0
 76
0
330
210
345
0
346
0
  0
LAYOUT
  5
23D
102
{ACAD_REACTORS
330
1A
102
}
100
AcDbPlotSettings
  1

  2
none_device
  4

  6

 40
0.0
 41
0.0
 42
0.0
 43
0.0
 44
210.0
 45
297.0
 46
0.0
 47
0.0
 48
0.0
 49
0.0
140
0.0
141
0.0
142
1.0
143
1.0
 70
0
 72
1
 73
0
 74
0
  7

 75
0
147
1.0
148
0.0
149
0.0
100
AcDbLayout
  1
Layout1
 70
0
 71
1
 10
0.0
 20
0.0
 11
210.0
 21
297.0
 12
0.0
 22
0.0
 32
0.0
 14
0.0
 24
0.0
 34
0.0
 15
0.0
 25
0.0
 35
0.0
146
0.0
 13
0.0
 23
0.0
 33
0.0
 16
1.0
 26
0.0
 36
0.0
 17
0.0
 27
1.0
 37
0.0
 76
0
330
211
345
0
346
0
  0
ENDSEC
  0
EOF
