999
DXF file: C:\Users\sesa63760\Dev\_Creo\CAD\MCADID0004615_3D-CAD\drw0001_7.dxf
999
Pro/ENGINEER 2019471 by Parametric Technology Corporation
  0
SECTION
  2
HEADER
  9
$ACADVER
  1
AC1024
  9
$DWGCODEPAGE
  3
ANSI_1252
  9
$EXTMAX
 10
30.2737419588
 20
42.8157207703
 30
0.0
  9
$EXTMIN
 10
0.0
 20
0.0
 30
0.0
  9
$LIMMIN
 10
0.0
 20
0.0
  9
$LIMMAX
 10
30.2737419588
 20
42.8157207703
  9
$VIEWCTR
 10
15.1368709794
 20
21.4078603852
  9
$VIEWSIZE
 40
42.8157207703
  9
$CLAYER
  8
0
  9
$LTSCALE
 40
2.7909506872
  9
$CELTYPE
  6
BYLAYER
  9
$DIMSCALE
 40
1.0
  9
$DIMASZ
 40
0.36040169
  9
$DIMEXO
 40
1.0
  9
$DIMDLI
 40
1.9282932021
  9
$DIMEXE
 40
1.0
  9
$DIMCEN
 40
0.4567010215
  9
$DIMLFAC
 40
1.0
  9
$DIMBLK
  1
_FILLED
  9
$DIMALT
 70
0
  9
$DIMALTF
 40
0.0393700787
  9
$DIMTXT
 40
0.504562366
  9
$DIMTOL
 70
1
  9
$DIMLIM
 70
0
  9
$DIMTFAC
 40
1.0
  9
$DIMTP
 40
0.01
  9
$DIMTM
 40
0.01
  9
$DIMGAP
 40
0.625
  9
$DIMDSEP
 70
46
  9
$AUNITS
 70
0
  9
$PDMODE
 70
3
  9
$PDSIZE
 40
0.3125
  9
$HANDSEED
  5
426
  9
$TILEMODE
 70
1
  9
$MEASUREMENT
 70
1
  9
$INSUNITS
 70
4
  0
ENDSEC
  0
SECTION
  2
CLASSES
  0
CLASS
  1
ACDBDICTIONARYWDFLT
  2
AcDbDictionaryWithDefault
  3
AutoCAD 2000
 90
0
 91
1
280
0
281
0
  0
CLASS
  1
ACDBPLACEHOLDER
  2
AcDbPlaceHolder
  3
AutoCAD 2000
 90
0
 91
1
280
0
281
0
  0
CLASS
  1
LAYOUT
  2
AcDbLayout
  3
AutoCAD 2000
 90
0
 91
0
280
0
281
0
  0
ENDSEC
  0
SECTION
  2
TABLES
  0
TABLE
  2
VPORT
  5
8
100
AcDbSymbolTable
 70
2
  0
VPORT
  5
1F4
100
AcDbSymbolTableRecord
100
AcDbViewportTableRecord
  2
*ACTIVE
 70
0
 10
0.0
 20
0.0
 11
1.0
 21
1.0
 12
15.1368709794
 22
21.4078603852
 13
0.0
 23
0.0
 14
1.0
 24
1.0
 15
0.0
 25
0.0
 16
0.0
 26
0.0
 36
1.0
 17
0.0
 27
0.0
 37
0.0
 40
42.8157207703
 41
0.7070707071
 42
50.0
 43
0.0
 44
0.0
 50
0.0
 51
0.0
 71
0
 72
100
 73
1
 74
1
 75
0
 76
0
 77
0
 78
0
  0
ENDTAB
  0
TABLE
  2
LTYPE
  5
5
100
AcDbSymbolTable
 70
6
  0
LTYPE
  5
14
100
AcDbSymbolTableRecord
100
AcDbLinetypeTableRecord
  2
BYBLOCK
 70
0
  3

 72
65
 73
0
 40
0.0
  0
LTYPE
  5
15
100
AcDbSymbolTableRecord
100
AcDbLinetypeTableRecord
  2
BYLAYER
 70
0
  3

 72
65
 73
0
 40
0.0
  0
LTYPE
  5
16
100
AcDbSymbolTableRecord
100
AcDbLinetypeTableRecord
  2
CONTINUOUS
 70
64
  3
Solid line
 72
65
 73
0
 40
0.0
  0
LTYPE
  5
1F5
100
AcDbSymbolTableRecord
100
AcDbLinetypeTableRecord
  2
CENTER
 70
64
  3
____ _ ____ _ ____ _ ____ _ ____ _ ____ _ ____
 72
65
 73
4
 40
0.6
 49
0.375
 74
0
 49
-0.075
 74
0
 49
0.075
 74
0
 49
-0.075
 74
0
  0
LTYPE
  5
1F6
100
AcDbSymbolTableRecord
100
AcDbLinetypeTableRecord
  2
HIDDEN
 70
64
  3
- - - - - - - - - - - - - - - - - - - -
 72
65
 73
2
 40
0.2
 49
0.1
 74
0
 49
-0.1
 74
0
  0
LTYPE
  5
1F7
100
AcDbSymbolTableRecord
100
AcDbLinetypeTableRecord
  2
PHANTOM
 70
64
  3
_____ _ _ _____ _ _ _____ _ _ _____
 72
65
 73
6
 40
0.8
 49
0.45
 74
0
 49
-0.05
 74
0
 49
0.1
 74
0
 49
-0.05
 74
0
 49
0.1
 74
0
 49
-0.05
 74
0
  0
LTYPE
  5
1F8
100
AcDbSymbolTableRecord
100
AcDbLinetypeTableRecord
  2
DOT
 70
64
  3
. . . . . . . . . . . . . . . . . . . .
 72
65
 73
2
 40
0.2
 49
0.1
 74
0
 49
-0.1
 74
0
  0
LTYPE
  5
1F9
100
AcDbSymbolTableRecord
100
AcDbLinetypeTableRecord
  2
DASHED
 70
64
  3
- - - - - - - - - - - - - - - - - - - -
 72
65
 73
2
 40
0.2
 49
0.1
 74
0
 49
-0.1
 74
0
  0
ENDTAB
  0
TABLE
  2
LAYER
  5
2
100
AcDbSymbolTable
 70
36
  0
LAYER
  5
10
100
AcDbSymbolTableRecord
100
AcDbLayerTableRecord
  2
0
 70
0
 62
7
  6
CONTINUOUS
370
-3
390
F
  0
LAYER
  5
1FA
100
AcDbSymbolTableRecord
100
AcDbLayerTableRecord
  2
DEFAULT_1
 70
0
 62
7
  6
CENTER
370
-3
390
F
  0
LAYER
  5
1FB
100
AcDbSymbolTableRecord
100
AcDbLayerTableRecord
  2
DEFAULT_2
 70
0
 62
7
  6
HIDDEN
370
-3
390
F
  0
LAYER
  5
1FC
100
AcDbSymbolTableRecord
100
AcDbLayerTableRecord
  2
DEFAULT_3
 70
0
 62
7
  6
PHANTOM
370
-3
390
F
  0
LAYER
  5
1FD
100
AcDbSymbolTableRecord
100
AcDbLayerTableRecord
  2
00_COMPONENTS
 70
0
 62
7
  6
CONTINUOUS
370
-3
390
F
  0
LAYER
  5
1FE
100
AcDbSymbolTableRecord
100
AcDbLayerTableRecord
  2
01_1_DEFAULT_DATUMS
 70
0
 62
7
  6
CONTINUOUS
370
-3
390
F
  0
LAYER
  5
1FF
100
AcDbSymbolTableRecord
100
AcDbLayerTableRecord
  2
01_PLANES
 70
0
 62
7
  6
CONTINUOUS
370
-3
390
F
  0
LAYER
  5
200
100
AcDbSymbolTableRecord
100
AcDbLayerTableRecord
  2
02_COORD_SYS
 70
0
 62
7
  6
CONTINUOUS
370
-3
390
F
  0
LAYER
  5
201
100
AcDbSymbolTableRecord
100
AcDbLayerTableRecord
  2
03_AXES
 70
0
 62
7
  6
CONTINUOUS
370
-3
390
F
  0
LAYER
  5
202
100
AcDbSymbolTableRecord
100
AcDbLayerTableRecord
  2
04_POINTS
 70
0
 62
7
  6
CONTINUOUS
370
-3
390
F
  0
LAYER
  5
203
100
AcDbSymbolTableRecord
100
AcDbLayerTableRecord
  2
05_CURVES
 70
0
 62
7
  6
CONTINUOUS
370
-3
390
F
  0
LAYER
  5
204
100
AcDbSymbolTableRecord
100
AcDbLayerTableRecord
  2
06_SURFS
 70
0
 62
7
  6
CONTINUOUS
370
-3
390
F
  0
LAYER
  5
205
100
AcDbSymbolTableRecord
100
AcDbLayerTableRecord
  2
07_COSMETICS
 70
0
 62
7
  6
CONTINUOUS
370
-3
390
F
  0
LAYER
  5
206
100
AcDbSymbolTableRecord
100
AcDbLayerTableRecord
  2
10_NOTES
 70
0
 62
7
  6
CONTINUOUS
370
-3
390
F
  0
LAYER
  5
207
100
AcDbSymbolTableRecord
100
AcDbLayerTableRecord
  2
11_NOTES_PUB
 70
0
 62
7
  6
CONTINUOUS
370
-3
390
F
  0
LAYER
  5
208
100
AcDbSymbolTableRecord
100
AcDbLayerTableRecord
  2
13_REF_GTOL
 70
0
 62
7
  6
CONTINUOUS
370
-3
390
F
  0
LAYER
  5
209
100
AcDbSymbolTableRecord
100
AcDbLayerTableRecord
  2
16_MISC
 70
0
 62
7
  6
CONTINUOUS
370
-3
390
F
  0
LAYER
  5
20A
100
AcDbSymbolTableRecord
100
AcDbLayerTableRecord
  2
17_NO_PRINT
 70
0
 62
7
  6
CONTINUOUS
370
-3
390
F
  0
LAYER
  5
20B
100
AcDbSymbolTableRecord
100
AcDbLayerTableRecord
  2
18_DATUM_CAMS_JOINTS
 70
0
 62
7
  6
CONTINUOUS
370
-3
390
F
  0
LAYER
  5
20C
100
AcDbSymbolTableRecord
100
AcDbLayerTableRecord
  2
19_DATUM_FUNCTIONAL
 70
0
 62
7
  6
CONTINUOUS
370
-3
390
F
  0
LAYER
  5
20D
100
AcDbSymbolTableRecord
100
AcDbLayerTableRecord
  2
20_DATUM_KINEMATIC_SCHEME
 70
0
 62
7
  6
CONTINUOUS
370
-3
390
F
  0
ENDTAB
  0
TABLE
  2
STYLE
  5
3
100
AcDbSymbolTable
 70
1
  0
STYLE
  5
11
100
AcDbSymbolTableRecord
100
AcDbTextStyleTableRecord
  2
STANDARD
 70
0
 40
0.0
 41
1.0
 50
0.0
 71
0
 42
0.2
  3
ARIAL.TTF
  4

  0
STYLE
  5
20E
100
AcDbSymbolTableRecord
100
AcDbTextStyleTableRecord
  2
TEXTSTYLE_1
 70
0
 40
0.0
 41
0.8
 50
0.0
 71
0
 42
0.2
  3
gdt
  4

  0
ENDTAB
  0
TABLE
  2
VIEW
  5
6
100
AcDbSymbolTable
 70
0
  0
ENDTAB
  0
TABLE
  2
UCS
  5
7
100
AcDbSymbolTable
 70
0
  0
ENDTAB
  0
TABLE
  2
APPID
  5
9
100
AcDbSymbolTable
 70
1
  0
APPID
  5
20F
100
AcDbSymbolTableRecord
100
AcDbRegAppTableRecord
  2
ACAD
 70
0
  0
ENDTAB
  0
TABLE
  2
BLOCK_RECORD
  5
1
100
AcDbSymbolTable
 70
0
  0
BLOCK_RECORD
  5
210
100
AcDbSymbolTableRecord
100
AcDbBlockTableRecord
  2
*Model_Space
  0
BLOCK_RECORD
  5
211
100
AcDbSymbolTableRecord
100
AcDbBlockTableRecord
  2
*Paper_Space
  0
BLOCK_RECORD
  5
212
100
AcDbSymbolTableRecord
100
AcDbBlockTableRecord
  2
_FILLED
  0
ENDTAB
  0
TABLE
  2
DIMSTYLE
  5
A
100
AcDbSymbolTable
 70
1
100
AcDbDimStyleTable
 71
0
  0
DIMSTYLE
105
213
100
AcDbSymbolTableRecord
100
AcDbDimStyleTableRecord
  2
STANDARD
 70
0
  3

  4

 40
1.0
 41
0.36040169
 42
1.0
 43
0.38
 44
1.0
 45
0.0
 46
0.0
 47
0.01
 48
0.01
140
0.504562366
141
0.09
142
0.0
143
25.4
144
1.0
145
0.0
146
1.0
147
0.625
 71
1
 72
0
 73
0
 74
0
 75
0
 76
0
 77
1
 78
8
 79
2
170
0
171
1
172
0
173
0
174
0
175
0
176
0
177
0
178
0
270
2
179
2
271
2
272
2
273
2
274
2
275
0
280
0
281
0
282
0
283
1
284
8
285
0
286
0
287
3
288
0
340
11
278
46
341
212
342
212
343
212
344
212
  0
ENDTAB
  0
ENDSEC
  0
SECTION
  2
BLOCKS
  0
BLOCK
  5
20
100
AcDbEntity
  8
0
100
AcDbBlockBegin
  2
*Model_Space
 70
0
 10
0.0
 20
0.0
 30
0.0
  3
*Model_Space
  1

  0
ENDBLK
  5
21
100
AcDbEntity
  8
0
100
AcDbBlockEnd
  0
BLOCK
  5
1C
100
AcDbEntity
  8
0
100
AcDbBlockBegin
  2
*Paper_Space
 70
0
 10
0.0
 20
0.0
 30
0.0
  3
*Paper_Space
  1

  0
ENDBLK
  5
1D
100
AcDbEntity
  8
0
100
AcDbBlockEnd
  0
BLOCK
  5
214
100
AcDbEntity
  8
0
100
AcDbBlockBegin
  2
_FILLED
 70
64
 10
0.0
 20
0.0
  3
_FILLED
  1

  0
SOLID
  5
215
100
AcDbEntity
  8
0
  6
BYBLOCK
 62
0
100
AcDbTrace
 10
0.0
 20
0.0
 11
-1.0
 21
0.25
 12
-1.0
 22
-0.25
 13
-1.0
 23
-0.25
  0
ENDBLK
  5
216
100
AcDbEntity
  8
0
  6
BYBLOCK
 62
0
100
AcDbBlockEnd
  0
ENDSEC
  0
SECTION
  2
ENTITIES
  0
LINE
  5
217
100
AcDbEntity
  8
0
100
AcDbLine
 62
7
  6
BYLAYER
 10
5.5778962867
 20
22.139689156
 11
5.6798193601
 21
22.9553007302
  0
LINE
  5
218
100
AcDbEntity
  8
0
100
AcDbLine
 62
7
  6
BYLAYER
 10
5.8545381184
 20
24.3506255895
 11
6.071188103
 21
26.043468528
  0
LINE
  5
219
100
AcDbEntity
  8
0
100
AcDbLine
 62
7
  6
BYLAYER
 10
5.7682446755
 20
23.7762468755
 11
6.1154799283
 21
26.0806020937
  0
LINE
  5
21A
100
AcDbEntity
  8
0
100
AcDbLine
 62
7
  6
BYLAYER
 10
5.8789528023
 20
24.4599541996
 11
5.8970110413
 21
24.5748421727
  0
LINE
  5
21B
100
AcDbEntity
  8
0
100
AcDbLine
 62
7
  6
BYLAYER
 10
5.6677247179
 20
23.1071749032
 11
5.7248675217
 21
23.4455041307
  0
LINE
  5
21C
100
AcDbEntity
  8
0
100
AcDbLine
 62
7
  6
BYLAYER
 10
5.8136424004
 20
24.1180390514
 11
5.8529291791
 21
24.340564804
  0
LINE
  5
21D
100
AcDbEntity
  8
0
100
AcDbLine
 62
7
  6
BYLAYER
 10
5.7829085694
 20
23.9090777426
 11
5.8726313095
 21
24.3782699356
  0
LINE
  5
21E
100
AcDbEntity
  8
0
100
AcDbLine
 62
7
  6
BYLAYER
 10
5.9621261667
 20
24.9068565893
 11
6.0149085392
 21
25.176447474
  0
LINE
  5
21F
100
AcDbEntity
  8
0
100
AcDbLine
 62
7
  6
BYLAYER
 10
5.857114049
 20
24.3689702774
 11
5.9412078492
 21
24.7264048033
  0
LINE
  5
220
100
AcDbEntity
  8
0
100
AcDbLine
 62
7
  6
BYLAYER
 10
6.156403126
 20
26.1955951938
 11
7.2021440069
 21
27.6915882094
  0
LINE
  5
221
100
AcDbEntity
  8
0
100
AcDbLine
 62
7
  6
BYLAYER
 10
6.1851006713
 20
26.3156749838
 11
7.1989286272
 21
27.694803589
  0
LWPOLYLINE
  5
222
100
AcDbEntity
  8
0
100
AcDbPolyline
 62
7
  6
BYLAYER
 90
4
 70
0
 10
9.2745307044
 20
29.861842199
 10
11.9379715604
 20
31.2552119068
 10
15.9469373851
 20
31.2862664204
 10
19.5533107059
 20
29.439965147
  0
LINE
  5
223
100
AcDbEntity
  8
0
100
AcDbLine
 62
7
  6
BYLAYER
 10
11.9526080683
 20
31.255325285
 11
11.9614853448
 21
31.2599365737
  0
LINE
  5
224
100
AcDbEntity
  8
0
100
AcDbLine
 62
7
  6
BYLAYER
 10
9.2889195702
 20
29.8474533332
 11
12.0322919718
 21
31.2559425377
  0
LWPOLYLINE
  5
225
100
AcDbEntity
  8
0
100
AcDbPolyline
 62
7
  6
BYLAYER
 90
3
 70
0
 10
12.0844289314
 20
31.286235135
 10
12.1062455103
 20
31.297368836
 10
13.5122491767
 20
31.2674066791
  0
LINE
  5
226
100
AcDbEntity
  8
0
100
AcDbLine
 62
7
  6
BYLAYER
 10
9.2759835367
 20
29.8603893667
 11
10.1756634357
 21
30.3121307904
  0
LINE
  5
227
100
AcDbEntity
  8
0
100
AcDbLine
 62
7
  6
BYLAYER
 10
10.3457494889
 20
30.407127284
 11
10.518037726
 21
30.4928549806
  0
LINE
  5
228
100
AcDbEntity
  8
0
100
AcDbLine
 62
7
  6
BYLAYER
 10
11.5770163913
 20
31.015769029
 11
12.0652211665
 21
31.256197616
  0
LWPOLYLINE
  5
229
100
AcDbEntity
  8
0
100
AcDbPolyline
 62
7
  6
BYLAYER
 90
3
 70
0
 10
12.1328889631
 20
31.2968010599
 10
12.1570027274
 20
31.3086393196
 10
13.951635705
 20
31.2708102838
  0
LINE
  5
22A
100
AcDbEntity
  8
0
100
AcDbLine
 62
7
  6
BYLAYER
 10
9.2518070643
 20
29.8845658391
 11
10.0984307186
 21
30.2928625911
  0
LINE
  5
22B
100
AcDbEntity
  8
0
100
AcDbLine
 62
7
  6
BYLAYER
 10
9.2390117337
 20
29.8973611697
 11
9.9400042523
 21
30.2202400366
  0
LINE
  5
22C
100
AcDbEntity
  8
0
100
AcDbLine
 62
7
  6
BYLAYER
 10
9.7445007065
 20
30.1329082323
 11
12.2517916994
 21
31.2530789015
  0
LINE
  5
22D
100
AcDbEntity
  8
0
100
AcDbLine
 62
7
  6
BYLAYER
 10
10.9746742932
 20
30.6943594983
 11
12.2563635139
 21
31.2395731091
  0
LINE
  5
22E
100
AcDbEntity
  8
0
100
AcDbLine
 62
7
  6
BYLAYER
 10
11.0641123779
 20
30.7241958057
 11
11.5356742381
 21
30.9103339871
  0
LINE
  5
22F
100
AcDbEntity
  8
0
100
AcDbLine
 62
7
  6
BYLAYER
 10
23.2826604267
 20
12.2407019546
 11
22.9446739324
 21
12.240741078
  0
LINE
  5
230
100
AcDbEntity
  8
0
100
AcDbLine
 62
7
  6
BYLAYER
 10
6.3455338251
 20
19.5043740728
 11
5.6234962153
 21
21.5913833614
  0
LINE
  5
231
100
AcDbEntity
  8
0
100
AcDbLine
 62
7
  6
BYLAYER
 10
5.8518036148
 20
21.5425895235
 11
5.7162636904
 21
22.0545253189
  0
LINE
  5
232
100
AcDbEntity
  8
0
100
AcDbLine
 62
7
  6
BYLAYER
 10
6.1186865226
 20
20.5394006262
 11
6.0485700363
 21
20.8092502598
  0
LINE
  5
233
100
AcDbEntity
  8
0
100
AcDbLine
 62
7
  6
BYLAYER
 10
5.6804230365
 20
22.3565807433
 11
5.5896210536
 21
22.7459685352
  0
LINE
  5
234
100
AcDbEntity
  8
0
100
AcDbLine
 62
7
  6
BYLAYER
 10
9.1990731885
 20
16.2139883949
 11
7.9367521358
 21
17.3665438385
  0
LINE
  5
235
100
AcDbEntity
  8
0
100
AcDbLine
 62
7
  6
BYLAYER
 10
9.8885372953
 20
15.5748727579
 11
8.3978587835
 21
16.9566937073
  0
LWPOLYLINE
  5
236
100
AcDbEntity
  8
0
100
AcDbPolyline
 62
7
  6
BYLAYER
 90
3
 70
0
 10
6.8833931642
 20
18.3822957172
 10
6.8656156495
 20
18.398851723
 10
6.414120803
 20
19.7266282088
  0
LINE
  5
237
100
AcDbEntity
  8
0
100
AcDbLine
 62
7
  6
BYLAYER
 10
7.942103553
 20
17.3935551537
 11
6.9665547822
 21
18.3046391399
  0
LINE
  5
238
100
AcDbEntity
  8
0
100
AcDbLine
 62
7
  6
BYLAYER
 10
9.2810452555
 20
16.1391442403
 11
8.4512129682
 21
16.9222022125
  0
LINE
  5
239
100
AcDbEntity
  8
0
100
AcDbLine
 62
7
  6
BYLAYER
 10
9.7239352228
 20
15.6806638496
 11
8.4313070704
 21
16.9161556571
  0
LINE
  5
23A
100
AcDbEntity
  8
0
100
AcDbLine
 62
7
  6
BYLAYER
 10
7.042806008
 20
18.2540753577
 11
6.9389464954
 21
18.3535566627
  0
LINE
  5
23B
100
AcDbEntity
  8
0
100
AcDbLine
 62
7
  6
BYLAYER
 10
7.3678527449
 20
17.970626774
 11
6.9182057989
 21
18.4092295038
  0
LINE
  5
23C
100
AcDbEntity
  8
0
100
AcDbLine
 62
7
  6
BYLAYER
 10
9.2006834295
 20
16.1575029917
 11
8.6739988729
 21
16.6785245477
  0
LINE
  5
23D
100
AcDbEntity
  8
0
100
AcDbLine
 62
7
  6
BYLAYER
 10
9.5265528275
 20
15.823228882
 11
8.602914467
 21
16.7452497687
  0
LINE
  5
23E
100
AcDbEntity
  8
0
100
AcDbLine
 62
7
  6
BYLAYER
 10
7.9006471115
 20
17.4438487425
 11
7.0738831503
 21
18.281963682
  0
LINE
  5
23F
100
AcDbEntity
  8
0
100
AcDbLine
 62
7
  6
BYLAYER
 10
8.0415798177
 20
17.3134477676
 11
7.486412544
 21
17.910955729
  0
LINE
  5
240
100
AcDbEntity
  8
0
100
AcDbLine
 62
7
  6
BYLAYER
 10
7.1089408749
 20
18.3097566205
 11
6.7887732966
 21
18.6551317446
  0
LINE
  5
241
100
AcDbEntity
  8
0
100
AcDbLine
 62
7
  6
BYLAYER
 10
8.1743984432
 20
17.1481238205
 11
8.148210332
 21
17.1785912902
  0
LWPOLYLINE
  5
242
100
AcDbEntity
  8
0
100
AcDbPolyline
 62
7
  6
BYLAYER
 90
4
 70
0
 10
7.0068161711
 20
18.1965262985
 10
5.557024059
 20
22.089614658
 10
6.1016301394
 20
26.1493719024
 10
7.1990354271
 20
27.6946967891
  0
LINE
  5
243
100
AcDbEntity
  8
0
100
AcDbLine
 62
7
  6
BYLAYER
 10
6.9250753029
 20
18.3433776329
 11
6.2566026382
 21
20.1668111199
  0
LINE
  5
244
100
AcDbEntity
  8
0
100
AcDbLine
 62
7
  6
BYLAYER
 10
6.1408698392
 20
20.4957795571
 11
5.5606775139
 21
22.1168492788
  0
LINE
  5
245
100
AcDbEntity
  8
0
100
AcDbLine
 62
7
  6
BYLAYER
 10
5.9054613587
 20
21.1539652057
 11
5.6013639585
 21
22.02737505
  0
LINE
  5
246
100
AcDbEntity
  8
0
100
AcDbLine
 62
7
  6
BYLAYER
 10
6.3570596384
 20
19.8999764311
 11
6.2792757175
 21
20.1242660704
  0
LINE
  5
247
100
AcDbEntity
  8
0
100
AcDbLine
 62
7
  6
BYLAYER
 10
6.837415673
 20
18.443079359
 11
6.2592919699
 21
20.1422649502
  0
LINE
  5
248
100
AcDbEntity
  8
0
100
AcDbLine
 62
7
  6
BYLAYER
 10
5.9528005206
 20
21.091531133
 11
5.5939994717
 21
22.1573803758
  0
LINE
  5
249
100
AcDbEntity
  8
0
100
AcDbLine
 62
7
  6
BYLAYER
 10
6.785814857
 20
18.5276764993
 11
6.2200378209
 21
20.2476423934
  0
LINE
  5
24A
100
AcDbEntity
  8
0
100
AcDbLine
 62
7
  6
BYLAYER
 10
6.5798550157
 20
19.1537957654
 11
6.3081974054
 21
19.9972515095
  0
LINE
  5
24B
100
AcDbEntity
  8
0
100
AcDbLine
 62
7
  6
BYLAYER
 10
6.0114279351
 20
20.9173733777
 11
5.712759733
 21
21.8576063039
  0
LINE
  5
24C
100
AcDbEntity
  8
0
100
AcDbLine
 62
7
  6
BYLAYER
 10
6.2288024528
 20
20.2857059297
 11
5.6750225493
 21
22.0491673663
  0
LINE
  5
24D
100
AcDbEntity
  8
0
100
AcDbLine
 62
7
  6
BYLAYER
 10
6.6491884039
 20
18.7673855118
 11
6.4981342156
 21
19.2842932135
  0
LINE
  5
24E
100
AcDbEntity
  8
0
100
AcDbLine
 62
7
  6
BYLAYER
 10
6.0978567037
 20
20.6828734864
 11
6.0338513963
 21
20.9065097327
  0
LINE
  5
24F
100
AcDbEntity
  8
0
100
AcDbLine
 62
7
  6
BYLAYER
 10
8.5903318492
 20
23.8683757133
 11
8.6056905618
 21
24.0241572495
  0
LINE
  5
250
100
AcDbEntity
  8
0
100
AcDbLine
 62
7
  6
BYLAYER
 10
8.8213464627
 20
24.1800535392
 11
8.8895046895
 21
24.5804118809
  0
LINE
  5
251
100
AcDbEntity
  8
0
100
AcDbLine
 62
7
  6
BYLAYER
 10
9.0172924973
 20
25.1965739514
 11
9.0265224721
 21
25.2461722696
  0
LINE
  5
252
100
AcDbEntity
  8
0
100
AcDbLine
 62
7
  6
BYLAYER
 10
8.6158611737
 20
23.1129626848
 11
8.6819690655
 21
23.4404675307
  0
LINE
  5
253
100
AcDbEntity
  8
0
100
AcDbLine
 62
7
  6
BYLAYER
 10
8.6530134069
 20
23.3888949332
 11
8.7864126503
 21
24.0028027027
  0
LINE
  5
254
100
AcDbEntity
  8
0
100
AcDbLine
 62
7
  6
BYLAYER
 10
9.1037227742
 20
25.1939173254
 11
9.1120238192
 21
25.2236127196
  0
LINE
  5
255
100
AcDbEntity
  8
0
100
AcDbLine
 62
7
  6
BYLAYER
 10
8.5547316188
 20
23.2504618709
 11
8.7983555387
 21
24.0998923185
  0
LINE
  5
256
100
AcDbEntity
  8
0
100
AcDbLine
 62
7
  6
BYLAYER
 10
8.6056905618
 20
24.0241572495
 11
8.960628264
 21
25.1282521172
  0
LINE
  5
257
100
AcDbEntity
  8
0
100
AcDbLine
 62
7
  6
BYLAYER
 10
8.5417552058
 20
23.4105163781
 11
8.7309725177
 21
23.9675105252
  0
LINE
  5
258
100
AcDbEntity
  8
0
100
AcDbLine
 62
7
  6
BYLAYER
 10
8.521237659
 20
23.420686313
 11
8.880481583
 21
24.4357110698
  0
LINE
  5
259
100
AcDbEntity
  8
0
100
AcDbLine
 62
7
  6
BYLAYER
 10
8.9859044733
 20
24.7061829856
 11
9.3291083577
 21
25.6393397585
  0
LINE
  5
25A
100
AcDbEntity
  8
0
100
AcDbLine
 62
7
  6
BYLAYER
 10
8.5894620786
 20
23.7213930084
 11
8.6822698605
 21
23.9563023249
  0
LINE
  5
25B
100
AcDbEntity
  8
0
100
AcDbLine
 62
7
  6
BYLAYER
 10
8.6245736424
 20
23.9364241663
 11
8.8374877982
 21
24.4180177096
  0
LINE
  5
25C
100
AcDbEntity
  8
0
100
AcDbLine
 62
7
  6
BYLAYER
 10
8.6228845085
 20
23.9623527582
 11
8.9888978275
 21
24.7831531333
  0
LINE
  5
25D
100
AcDbEntity
  8
0
100
AcDbLine
 62
7
  6
BYLAYER
 10
8.960628264
 20
25.1282521172
 11
9.2273106511
 21
25.6664215652
  0
LINE
  5
25E
100
AcDbEntity
  8
0
100
AcDbLine
 62
7
  6
BYLAYER
 10
9.2926566549
 20
25.4475705908
 11
9.3627619183
 21
25.5752066732
  0
LINE
  5
25F
100
AcDbEntity
  8
0
100
AcDbLine
 62
7
  6
BYLAYER
 10
9.6754834516
 20
26.1043470457
 11
9.7234853155
 21
26.1649848309
  0
LINE
  5
260
100
AcDbEntity
  8
0
100
AcDbLine
 62
7
  6
BYLAYER
 10
9.1036530232
 20
25.4627534838
 11
9.256490743
 21
25.6372414733
  0
LINE
  5
261
100
AcDbEntity
  8
0
100
AcDbLine
 62
7
  6
BYLAYER
 10
10.9194757158
 20
27.4911971269
 11
10.9387438397
 21
27.51209893
  0
LINE
  5
262
100
AcDbEntity
  8
0
100
AcDbLine
 62
7
  6
BYLAYER
 10
11.6229173938
 20
27.8886598329
 11
11.7420198512
 21
27.9834461645
  0
LINE
  5
263
100
AcDbEntity
  8
0
100
AcDbLine
 62
7
  6
BYLAYER
 10
11.4439705046
 20
27.6924023988
 11
11.5044102761
 21
27.7346515384
  0
LINE
  5
264
100
AcDbEntity
  8
0
100
AcDbLine
 62
7
  6
BYLAYER
 10
12.2280382728
 20
28.1122432597
 11
12.4896159718
 21
28.2645885221
  0
LWPOLYLINE
  5
265
100
AcDbEntity
  8
0
100
AcDbPolyline
 62
7
  6
BYLAYER
 90
3
 70
0
 10
11.4573688322
 20
27.6790040712
 10
12.7787892529
 20
28.3727977505
 10
15.6107573289
 20
28.272622855
  0
LINE
  5
266
100
AcDbEntity
  8
0
100
AcDbLine
 62
7
  6
BYLAYER
 10
11.9476984198
 20
27.9140973825
 11
12.7771547553
 21
28.3230769039
  0
LINE
  5
267
100
AcDbEntity
  8
0
100
AcDbLine
 62
7
  6
BYLAYER
 10
12.8269420899
 20
28.2765969195
 11
13.066959265
 21
28.3803079914
  0
LINE
  5
268
100
AcDbEntity
  8
0
100
AcDbLine
 62
7
  6
BYLAYER
 10
11.3788961595
 20
27.6627907973
 11
11.6871650579
 21
27.7904232234
  0
LINE
  5
269
100
AcDbEntity
  8
0
100
AcDbLine
 62
7
  6
BYLAYER
 10
11.6797950243
 20
27.7957858946
 11
13.092445801
 21
28.3617028119
  0
LINE
  5
26A
100
AcDbEntity
  8
0
100
AcDbLine
 62
7
  6
BYLAYER
 10
13.180799867
 20
28.3942007924
 11
13.3899429229
 21
28.4764848552
  0
LINE
  5
26B
100
AcDbEntity
  8
0
100
AcDbLine
 62
7
  6
BYLAYER
 10
11.4773289974
 20
27.7368858073
 11
12.0597038788
 21
27.9495474392
  0
LINE
  5
26C
100
AcDbEntity
  8
0
100
AcDbLine
 62
7
  6
BYLAYER
 10
11.8405332247
 20
27.8801792835
 11
12.8033770323
 21
28.1849221764
  0
LWPOLYLINE
  5
26D
100
AcDbEntity
  8
0
100
AcDbPolyline
 62
7
  6
BYLAYER
 90
3
 70
0
 10
14.0013845751
 20
14.516771256
 10
15.1950387026
 20
14.6216590775
 10
15.4752632685
 20
14.684076886
  0
LINE
  5
26E
100
AcDbEntity
  8
0
100
AcDbLine
 62
7
  6
BYLAYER
 10
14.0018163277
 20
14.5185395889
 11
10.3185239962
 21
15.353329785
  0
LINE
  5
26F
100
AcDbEntity
  8
0
100
AcDbLine
 62
7
  6
BYLAYER
 10
13.9346828118
 20
14.5163281252
 11
10.3378178666
 21
15.4293392087
  0
LINE
  5
270
100
AcDbEntity
  8
0
100
AcDbLine
 62
7
  6
BYLAYER
 10
11.5811334815
 20
15.1273322992
 11
10.5895117142
 21
15.3887308466
  0
LINE
  5
271
100
AcDbEntity
  8
0
100
AcDbLine
 62
7
  6
BYLAYER
 10
13.3401846751
 20
14.6473329386
 11
12.8503641084
 21
14.7782238956
  0
LINE
  5
272
100
AcDbEntity
  8
0
100
AcDbLine
 62
7
  6
BYLAYER
 10
11.6262027337
 20
15.1023017242
 11
10.1419048284
 21
15.5049624255
  0
LINE
  5
273
100
AcDbEntity
  8
0
100
AcDbLine
 62
7
  6
BYLAYER
 10
12.8824799022
 20
14.7722286774
 11
12.2949615662
 21
14.9325471642
  0
LINE
  5
274
100
AcDbEntity
  8
0
100
AcDbLine
 62
7
  6
BYLAYER
 10
10.3485039244
 20
15.460500861
 11
10.1188701147
 21
15.5247383904
  0
LINE
  5
275
100
AcDbEntity
  8
0
100
AcDbLine
 62
7
  6
BYLAYER
 10
13.5712614285
 20
14.5386811805
 11
11.6417588142
 21
15.1038531693
  0
LINE
  5
276
100
AcDbEntity
  8
0
100
AcDbLine
 62
7
  6
BYLAYER
 10
11.1607798177
 20
15.2442819451
 11
10.3575862247
 21
15.4841363524
  0
LINE
  5
277
100
AcDbEntity
  8
0
100
AcDbLine
 62
7
  6
BYLAYER
 10
10.9372700885
 20
15.3196375581
 11
10.3623130422
 21
15.4960474899
  0
LINE
  5
278
100
AcDbEntity
  8
0
100
AcDbLine
 62
7
  6
BYLAYER
 10
11.7200686123
 20
15.0907080111
 11
11.0044387987
 21
15.3241352905
  0
LINE
  5
279
100
AcDbEntity
  8
0
100
AcDbLine
 62
7
  6
BYLAYER
 10
11.2359817129
 20
15.2459414468
 11
10.3798921732
 21
15.5350495454
  0
LINE
  5
27A
100
AcDbEntity
  8
0
100
AcDbLine
 62
7
  6
BYLAYER
 10
11.8901955852
 20
14.9971223716
 11
11.5254356952
 21
15.1296378313
  0
LINE
  5
27B
100
AcDbEntity
  8
0
100
AcDbLine
 62
7
  6
BYLAYER
 10
9.7960193291
 20
15.7682612841
 11
9.5114018917
 21
15.873963379
  0
LINE
  5
27C
100
AcDbEntity
  8
0
100
AcDbLine
 62
7
  6
BYLAYER
 10
8.8397273986
 20
21.4145011994
 11
8.7492329567
 21
22.248659471
  0
LINE
  5
27D
100
AcDbEntity
  8
0
100
AcDbLine
 62
7
  6
BYLAYER
 10
8.7430019307
 20
22.3140643025
 11
8.7166033049
 21
22.6546094232
  0
LINE
  5
27E
100
AcDbEntity
  8
0
100
AcDbLine
 62
7
  6
BYLAYER
 10
8.689939511
 20
22.9330431117
 11
8.6777808498
 21
23.1196813461
  0
LINE
  5
27F
100
AcDbEntity
  8
0
100
AcDbLine
 62
7
  6
BYLAYER
 10
8.7575101895
 20
21.4005973799
 11
8.7395892069
 21
21.884525544
  0
LINE
  5
280
100
AcDbEntity
  8
0
100
AcDbLine
 62
7
  6
BYLAYER
 10
8.7125970133
 20
22.4652888393
 11
8.6967833633
 21
23.2427560023
  0
LINE
  5
281
100
AcDbEntity
  8
0
100
AcDbLine
 62
7
  6
BYLAYER
 10
8.6622799138
 20
21.9823162301
 11
8.7080551872
 21
23.3897504846
  0
LINE
  5
282
100
AcDbEntity
  8
0
100
AcDbLine
 62
7
  6
BYLAYER
 10
8.6291926474
 20
22.5763336037
 11
8.7057193061
 21
23.3308614825
  0
LINE
  5
283
100
AcDbEntity
  8
0
100
AcDbLine
 62
7
  6
BYLAYER
 10
8.8345939537
 20
24.5276125233
 11
8.8682836173
 21
24.8426264871
  0
LWPOLYLINE
  5
284
100
AcDbEntity
  8
0
100
AcDbPolyline
 62
7
  6
BYLAYER
 90
3
 70
0
 10
8.8948208644
 20
24.8841064142
 10
8.9227761407
 20
25.1113686105
 10
9.2966141182
 20
25.597118098
  0
LINE
  5
285
100
AcDbEntity
  8
0
100
AcDbLine
 62
7
  6
BYLAYER
 10
8.9098324543
 20
24.7859908676
 11
8.951489234
 21
25.0593973531
  0
LINE
  5
286
100
AcDbEntity
  8
0
100
AcDbLine
 62
7
  6
BYLAYER
 10
15.374715661
 20
14.8582304507
 11
13.9987309037
 21
14.5315348558
  0
LINE
  5
287
100
AcDbEntity
  8
0
100
AcDbLine
 62
7
  6
BYLAYER
 10
15.3713378994
 20
14.8640809054
 11
13.9939320739
 21
14.5535064621
  0
LINE
  5
288
100
AcDbEntity
  8
0
100
AcDbLine
 62
7
  6
BYLAYER
 10
15.3685706461
 20
14.8688739288
 11
13.8832870443
 21
14.5454033496
  0
LINE
  5
289
100
AcDbEntity
  8
0
100
AcDbLine
 62
7
  6
BYLAYER
 10
14.8966573672
 20
14.7738053958
 11
13.832058386
 21
14.5570139354
  0
LINE
  5
28A
100
AcDbEntity
  8
0
100
AcDbLine
 62
7
  6
BYLAYER
 10
15.3611072593
 20
14.8818008939
 11
14.6338576216
 21
14.7454116076
  0
LINE
  5
28B
100
AcDbEntity
  8
0
100
AcDbLine
 62
7
  6
BYLAYER
 10
15.2957913064
 20
14.8612023722
 11
14.7511996957
 21
14.7659380271
  0
LINE
  5
28C
100
AcDbEntity
  8
0
100
AcDbLine
 62
7
  6
BYLAYER
 10
15.3578566395
 20
14.8681042434
 11
15.1969779333
 21
14.8430262713
  0
LINE
  5
28D
100
AcDbEntity
  8
0
100
AcDbLine
 62
7
  6
BYLAYER
 10
9.7175124877
 20
19.8050460476
 11
9.5523954664
 21
20.1039845201
  0
LINE
  5
28E
100
AcDbEntity
  8
0
100
AcDbLine
 62
7
  6
BYLAYER
 10
9.206668298
 20
20.7531711214
 11
8.835583635
 21
21.4526975201
  0
LINE
  5
28F
100
AcDbEntity
  8
0
100
AcDbLine
 62
7
  6
BYLAYER
 10
8.749317075
 20
21.6218396477
 11
8.6563471681
 21
21.7999044416
  0
LINE
  5
290
100
AcDbEntity
  8
0
100
AcDbLine
 62
7
  6
BYLAYER
 10
9.2670368963
 20
20.628726939
 11
9.0902059405
 21
21.0099704815
  0
LWPOLYLINE
  5
291
100
AcDbEntity
  8
0
100
AcDbPolyline
 62
7
  6
BYLAYER
 90
3
 70
0
 10
9.2387314073
 20
20.6807775599
 10
8.5649161443
 20
22.2021486229
 10
8.7066528115
 20
23.3543957289
  0
LINE
  5
292
100
AcDbEntity
  8
0
100
AcDbLine
 62
7
  6
BYLAYER
 10
9.1908938319
 20
20.7806497166
 11
8.9606107222
 21
21.3439144034
  0
LWPOLYLINE
  5
293
100
AcDbEntity
  8
0
100
AcDbPolyline
 62
7
  6
BYLAYER
 90
3
 70
0
 10
8.6569779276
 20
22.102061261
 10
8.5379834874
 20
22.4051101803
 10
8.7155389952
 20
23.5784219012
  0
LINE
  5
294
100
AcDbEntity
  8
0
100
AcDbLine
 62
7
  6
BYLAYER
 10
9.3576056821
 20
20.3097380261
 11
9.2394044568
 21
20.6172507971
  0
LINE
  5
295
100
AcDbEntity
  8
0
100
AcDbLine
 62
7
  6
BYLAYER
 10
8.9716476784
 20
21.3285662512
 11
8.7976395492
 21
21.802457929
  0
LINE
  5
296
100
AcDbEntity
  8
0
100
AcDbLine
 62
7
  6
BYLAYER
 10
9.0584493968
 20
21.0122959657
 11
9.0039441347
 21
21.2108910524
  0
LINE
  5
297
100
AcDbEntity
  8
0
100
AcDbLine
 62
7
  6
BYLAYER
 10
8.8615456982
 20
21.729733248
 11
8.6276436819
 21
22.7120916397
  0
LINE
  5
298
100
AcDbEntity
  8
0
100
AcDbLine
 62
7
  6
BYLAYER
 10
9.0291190484
 20
20.8910073659
 11
8.8547372019
 21
21.7583280571
  0
LINE
  5
299
100
AcDbEntity
  8
0
100
AcDbLine
 62
7
  6
BYLAYER
 10
8.6773826496
 20
22.6164768918
 11
8.5208884161
 21
23.4176050663
  0
LINE
  5
29A
100
AcDbEntity
  8
0
100
AcDbLine
 62
7
  6
BYLAYER
 10
8.6505983206
 20
22.8987011922
 11
8.5795435898
 21
23.3369724389
  0
LINE
  5
29B
100
AcDbEntity
  8
0
100
AcDbLine
 62
7
  6
BYLAYER
 10
11.0875830631
 20
18.5454253348
 11
10.8447592601
 21
18.66836808
  0
LINE
  5
29C
100
AcDbEntity
  8
0
100
AcDbLine
 62
7
  6
BYLAYER
 10
22.9446739324
 20
12.240741078
 11
22.0628905891
 21
12.6898122948
  0
LINE
  5
29D
100
AcDbEntity
  8
0
100
AcDbLine
 62
7
  6
BYLAYER
 10
10.4894484806
 20
18.8620104391
 11
10.3549526226
 21
18.9318582935
  0
LINE
  5
29E
100
AcDbEntity
  8
0
100
AcDbLine
 62
7
  6
BYLAYER
 10
12.1796520248
 20
17.9422922167
 11
11.6789478304
 21
18.2384783398
  0
LWPOLYLINE
  5
29F
100
AcDbEntity
  8
0
100
AcDbPolyline
 62
7
  6
BYLAYER
 90
5
 70
0
 10
12.5443972774
 20
17.7134155746
 10
10.0426793003
 20
19.2024075152
 10
8.643983077
 20
21.774453062
 10
8.758903011
 20
24.6716554911
 10
9.3297676918
 20
25.5639645245
  0
LINE
  5
2A0
100
AcDbEntity
  8
0
100
AcDbLine
 62
7
  6
BYLAYER
 10
11.3571253984
 20
18.4229046593
 11
10.7844561177
 21
18.7722956604
  0
LINE
  5
2A1
100
AcDbEntity
  8
0
100
AcDbLine
 62
7
  6
BYLAYER
 10
10.8911479693
 20
18.717533858
 11
10.4136180973
 21
19.0198833116
  0
LINE
  5
2A2
100
AcDbEntity
  8
0
100
AcDbLine
 62
7
  6
BYLAYER
 10
10.1984802802
 20
19.1630733196
 11
9.990804258
 21
19.2977999024
  0
LINE
  5
2A3
100
AcDbEntity
  8
0
100
AcDbLine
 62
7
  6
BYLAYER
 10
10.3339942834
 20
19.1109641642
 11
9.9481657062
 21
19.3762074188
  0
LINE
  5
2A4
100
AcDbEntity
  8
0
100
AcDbLine
 62
7
  6
BYLAYER
 10
12.1234790892
 20
17.8473315744
 11
11.0725226892
 21
18.5894573265
  0
LINE
  5
2A5
100
AcDbEntity
  8
0
100
AcDbLine
 62
7
  6
BYLAYER
 10
11.6086173542
 20
18.1994732781
 11
11.4228072136
 21
18.3368530976
  0
LINE
  5
2A6
100
AcDbEntity
  8
0
100
AcDbLine
 62
7
  6
BYLAYER
 10
10.8680474793
 20
18.7338461128
 11
9.8770957693
 21
19.5068970651
  0
LINE
  5
2A7
100
AcDbEntity
  8
0
100
AcDbLine
 62
7
  6
BYLAYER
 10
11.6318659157
 20
18.1024385944
 11
10.894787446
 21
18.7023398905
  0
LINE
  5
2A8
100
AcDbEntity
  8
0
100
AcDbLine
 62
7
  6
BYLAYER
 10
11.0568687391
 20
18.5673315681
 11
10.8430936346
 21
18.7448904524
  0
LINE
  5
2A9
100
AcDbEntity
  8
0
100
AcDbLine
 62
7
  6
BYLAYER
 10
9.9671666326
 20
19.4788782018
 11
9.6181002202
 21
19.7701148638
  0
LINE
  5
2AA
100
AcDbEntity
  8
0
100
AcDbLine
 62
7
  6
BYLAYER
 10
9.7958058591
 20
19.6563800965
 11
9.5180240691
 21
19.9091932401
  0
LINE
  5
2AB
100
AcDbEntity
  8
0
100
AcDbLine
 62
7
  6
BYLAYER
 10
10.0449404083
 20
19.4611475664
 11
9.5244266261
 21
19.9648397984
  0
LINE
  5
2AC
100
AcDbEntity
  8
0
100
AcDbLine
 62
7
  6
BYLAYER
 10
15.7694442246
 20
14.1745405233
 11
20.7191916929
 21
9.224793055
  0
LINE
  5
2AD
100
AcDbEntity
  8
0
100
AcDbLine
 62
7
  6
BYLAYER
 10
10.9809284405
 20
18.5300494776
 11
10.7100668326
 21
18.8051866191
  0
LINE
  5
2AE
100
AcDbEntity
  8
0
100
AcDbLine
 62
7
  6
BYLAYER
 10
10.5844842723
 20
18.8799318229
 11
10.2016607749
 21
19.3076963085
  0
LINE
  5
2AF
100
AcDbEntity
  8
0
100
AcDbLine
 62
7
  6
BYLAYER
 10
9.7691875849
 20
19.7974277379
 11
9.4437271565
 21
20.1622279679
  0
LINE
  5
2B0
100
AcDbEntity
  8
0
100
AcDbLine
 62
7
  6
BYLAYER
 10
9.7044378319
 20
19.8895802882
 11
9.5330993876
 21
20.0884390841
  0
LINE
  5
2B1
100
AcDbEntity
  8
0
100
AcDbLine
 62
7
  6
BYLAYER
 10
10.1981457593
 20
19.2971580324
 11
9.9912331881
 21
19.5432368529
  0
LINE
  5
2B2
100
AcDbEntity
  8
0
100
AcDbLine
 62
7
  6
BYLAYER
 10
9.6791794715
 20
19.9298851779
 11
9.1887435279
 21
20.5375569538
  0
LINE
  5
2B3
100
AcDbEntity
  8
0
100
AcDbLine
 62
7
  6
BYLAYER
 10
10.6918135273
 20
18.6750556164
 11
10.5957563918
 21
18.7944393128
  0
LINE
  5
2B4
100
AcDbEntity
  8
0
100
AcDbLine
 62
7
  6
BYLAYER
 10
9.5585054999
 20
20.0927488534
 11
9.0352408455
 21
20.7845225972
  0
LINE
  5
2B5
100
AcDbEntity
  8
0
100
AcDbLine
 62
7
  6
BYLAYER
 10
10.4475171192
 20
18.8837866906
 11
10.3504437749
 21
19.0192298643
  0
LINE
  5
2B6
100
AcDbEntity
  8
0
100
AcDbLine
 62
7
  6
BYLAYER
 10
10.1419910588
 20
19.2465459423
 11
9.9750197807
 21
19.4932749669
  0
LINE
  5
2B7
100
AcDbEntity
  8
0
100
AcDbLine
 62
7
  6
BYLAYER
 10
10.1900422922
 20
19.1146988649
 11
10.0084993019
 21
19.4043879065
  0
LINE
  5
2B8
100
AcDbEntity
  8
0
100
AcDbLine
 62
7
  6
BYLAYER
 10
14.2538146972
 20
17.6355116677
 11
13.8483234629
 21
17.5420298825
  0
LINE
  5
2B9
100
AcDbEntity
  8
0
100
AcDbLine
 62
7
  6
BYLAYER
 10
14.9579982413
 20
17.788140359
 11
14.4753489991
 21
17.7225338187
  0
LINE
  5
2BA
100
AcDbEntity
  8
0
100
AcDbLine
 62
7
  6
BYLAYER
 10
14.2910771064
 20
17.705790816
 11
13.9820293289
 21
17.6645199475
  0
LINE
  5
2BB
100
AcDbEntity
  8
0
100
AcDbLine
 62
7
  6
BYLAYER
 10
14.4753489991
 20
17.5740044557
 11
14.0017672491
 21
17.5167168945
  0
LINE
  5
2BC
100
AcDbEntity
  8
0
100
AcDbLine
 62
7
  6
BYLAYER
 10
14.4753489991
 20
17.5551623188
 11
14.0017673978
 21
17.5167168919
  0
LINE
  5
2BD
100
AcDbEntity
  8
0
100
AcDbLine
 62
7
  6
BYLAYER
 10
13.8773276524
 20
17.6841407381
 11
13.5966752812
 21
17.6626366778
  0
LINE
  5
2BE
100
AcDbEntity
  8
0
100
AcDbLine
 62
7
  6
BYLAYER
 10
14.2305713074
 20
17.7156367487
 11
13.5636716733
 21
17.6792507277
  0
LINE
  5
2BF
100
AcDbEntity
  8
0
100
AcDbLine
 62
7
  6
BYLAYER
 10
15.2186750296
 20
17.7174452719
 11
14.4753489991
 21
17.7164490145
  0
LINE
  5
2C0
100
AcDbEntity
  8
0
100
AcDbLine
 62
7
  6
BYLAYER
 10
14.0015004054
 20
17.7158139296
 11
12.8045932227
 21
17.7142097512
  0
LINE
  5
2C1
100
AcDbEntity
  8
0
100
AcDbLine
 62
7
  6
BYLAYER
 10
14.3287376703
 20
17.7187285388
 11
14.0043562002
 21
17.7228035611
  0
LINE
  5
2C2
100
AcDbEntity
  8
0
100
AcDbLine
 62
7
  6
BYLAYER
 10
14.1407160514
 20
17.7107342491
 11
13.2977569657
 21
17.738448286
  0
LINE
  5
2C3
100
AcDbEntity
  8
0
100
AcDbLine
 62
7
  6
BYLAYER
 10
14.0121783724
 20
17.7134343553
 11
13.3994948128
 21
17.7458601708
  0
LINE
  5
2C4
100
AcDbEntity
  8
0
100
AcDbLine
 62
7
  6
BYLAYER
 10
12.3514482606
 20
17.8282564695
 11
12.2322857489
 21
17.83822728
  0
LINE
  5
2C5
100
AcDbEntity
  8
0
100
AcDbLine
 62
7
  6
BYLAYER
 10
12.4152381338
 20
17.873227811
 11
12.1796960374
 21
17.9016858301
  0
LINE
  5
2C6
100
AcDbEntity
  8
0
100
AcDbLine
 62
7
  6
BYLAYER
 10
13.635906836
 20
17.7153239356
 11
13.5159568557
 21
17.7308173135
  0
LINE
  5
2C7
100
AcDbEntity
  8
0
100
AcDbLine
 62
7
  6
BYLAYER
 10
13.4740413775
 20
17.7326525685
 11
12.9971507272
 21
17.8066889432
  0
LINE
  5
2C8
100
AcDbEntity
  8
0
100
AcDbLine
 62
7
  6
BYLAYER
 10
14.0017672491
 20
17.5167168945
 11
12.2298421967
 21
17.8090240551
  0
LINE
  5
2C9
100
AcDbEntity
  8
0
100
AcDbLine
 62
7
  6
BYLAYER
 10
11.6833060281
 20
18.0978550839
 11
11.4515726995
 21
18.1494432317
  0
LINE
  5
2CA
100
AcDbEntity
  8
0
100
AcDbLine
 62
7
  6
BYLAYER
 10
13.3629301247
 20
17.7149580732
 11
12.2638547164
 21
17.9609745467
  0
LINE
  5
2CB
100
AcDbEntity
  8
0
100
AcDbLine
 62
7
  6
BYLAYER
 10
12.2701594823
 20
17.9766337814
 11
11.4155861431
 21
18.1821951066
  0
LINE
  5
2CC
100
AcDbEntity
  8
0
100
AcDbLine
 62
7
  6
BYLAYER
 10
11.6992467347
 20
18.1724022613
 11
11.2679151397
 21
18.3012411082
  0
LINE
  5
2CD
100
AcDbEntity
  8
0
100
AcDbLine
 62
7
  6
BYLAYER
 10
12.2298421967
 20
17.8090240551
 11
12.5443972774
 21
17.7134155746
  0
LINE
  5
2CE
100
AcDbEntity
  8
0
100
AcDbLine
 62
7
  6
BYLAYER
 10
13.218763562
 20
17.7082628317
 11
12.6703611236
 21
17.8781182663
  0
LINE
  5
2CF
100
AcDbEntity
  8
0
100
AcDbLine
 62
7
  6
BYLAYER
 10
13.7667970496
 20
17.5232348161
 11
13.162790046
 21
17.7146898315
  0
LINE
  5
2D0
100
AcDbEntity
  8
0
100
AcDbLine
 62
7
  6
BYLAYER
 10
13.005455276
 20
17.7667144162
 11
12.8516908066
 21
17.8166174517
  0
LINE
  5
2D1
100
AcDbEntity
  8
0
100
AcDbLine
 62
7
  6
BYLAYER
 10
12.7679316595
 20
17.8274362289
 11
12.5031518589
 21
17.9153421577
  0
LINE
  5
2D2
100
AcDbEntity
  8
0
100
AcDbLine
 62
7
  6
BYLAYER
 10
13.4482947014
 20
17.5932439402
 11
13.2874463765
 21
17.6493933886
  0
LINE
  5
2D3
100
AcDbEntity
  8
0
100
AcDbLine
 62
7
  6
BYLAYER
 10
13.0091193185
 20
17.7279120716
 11
12.2459793525
 21
18.0090931022
  0
LINE
  5
2D4
100
AcDbEntity
  8
0
100
AcDbLine
 62
7
  6
BYLAYER
 10
12.7321603108
 20
17.7964007485
 11
11.8049786617
 21
18.1791069118
  0
LWPOLYLINE
  5
2D5
100
AcDbEntity
  8
0
100
AcDbPolyline
 62
7
  6
BYLAYER
 90
3
 70
0
 10
11.3002935183
 20
18.3966468236
 10
10.6220233888
 20
18.6799684567
 10
10.3818734547
 20
19.0005233033
  0
LINE
  5
2D6
100
AcDbEntity
  8
0
100
AcDbLine
 62
7
  6
BYLAYER
 10
10.8157639198
 20
18.6215014493
 11
10.691976209
 21
18.674985328
  0
LINE
  5
2D7
100
AcDbEntity
  8
0
100
AcDbLine
 62
7
  6
BYLAYER
 10
22.8405120365
 20
11.3461133986
 11
17.8907645682
 21
16.2958608669
  0
LINE
  5
2D8
100
AcDbEntity
  8
0
100
AcDbLine
 62
7
  6
BYLAYER
 10
3.6779182663
 20
31.0743925937
 11
6.9910329893
 21
27.7612778708
  0
LINE
  5
2D9
100
AcDbEntity
  8
0
100
AcDbLine
 62
7
  6
BYLAYER
 10
9.2969406602
 20
25.4553701999
 11
14.9412232803
 21
19.8110875797
  0
LINE
  5
2DA
100
AcDbEntity
  8
0
100
AcDbLine
 62
7
  6
BYLAYER
 10
18.6966183017
 20
16.0556925583
 11
22.0626945772
 21
12.6896162828
  0
LINE
  5
2DB
100
AcDbEntity
  8
0
100
AcDbLine
 62
7
  6
BYLAYER
 10
17.8907645682
 20
17.0029676481
 11
3.7486289445
 21
31.1451032718
  0
LINE
  5
2DC
100
AcDbEntity
  8
0
100
AcDbLine
 62
7
  6
BYLAYER
 10
20.0120849117
 20
19.1242879916
 11
5.869949288
 21
33.2664236154
  0
LINE
  5
2DD
100
AcDbEntity
  8
0
100
AcDbLine
 62
7
  6
BYLAYER
 10
5.9406599661
 20
33.3371342935
 11
9.1565757449
 21
30.1212185147
  0
LINE
  5
2DE
100
AcDbEntity
  8
0
100
AcDbLine
 62
7
  6
BYLAYER
 10
11.6098955432
 20
27.6678987164
 11
17.2039649801
 21
22.0738292795
  0
LINE
  5
2DF
100
AcDbEntity
  8
0
100
AcDbLine
 62
7
  6
BYLAYER
 10
21.0886480785
 20
18.1891461811
 11
23.4689724934
 21
15.8088217662
  0
LINE
  5
2E0
100
AcDbEntity
  8
0
100
AcDbLine
 62
7
  6
BYLAYER
 10
24.6082293472
 20
15.2352503374
 11
20.7191916929
 21
19.1242879916
  0
LWPOLYLINE
  5
2E1
100
AcDbEntity
  8
0
100
AcDbPolyline
 62
7
  6
BYLAYER
 90
3
 70
0
 10
22.0628905891
 20
12.6898122948
 10
21.613804834
 20
13.571687738
 10
21.6137855561
 20
13.9068843632
  0
LINE
  5
2E2
100
AcDbEntity
  8
0
100
AcDbLine
 62
7
  6
BYLAYER
 10
19.2925241713
 20
23.421093112
 11
19.371402419
 21
22.7005196435
  0
LINE
  5
2E3
100
AcDbEntity
  8
0
100
AcDbLine
 62
7
  6
BYLAYER
 10
19.2960427605
 20
23.2724727736
 11
19.3251419781
 21
22.7636911391
  0
LINE
  5
2E4
100
AcDbEntity
  8
0
100
AcDbLine
 62
7
  6
BYLAYER
 10
19.2694448076
 20
23.7883685548
 11
19.2928055618
 21
23.3089195838
  0
LINE
  5
2E5
100
AcDbEntity
  8
0
100
AcDbLine
 62
7
  6
BYLAYER
 10
19.2471741314
 20
24.5250910582
 11
19.2582826918
 21
24.2614574056
  0
LINE
  5
2E6
100
AcDbEntity
  8
0
100
AcDbLine
 62
7
  6
BYLAYER
 10
19.2968662389
 20
23.6275216962
 11
19.3047971747
 21
23.348754167
  0
LINE
  5
2E7
100
AcDbEntity
  8
0
100
AcDbLine
 62
7
  6
BYLAYER
 10
19.2965923218
 20
23.2492600637
 11
19.308791808
 21
22.733970646
  0
LINE
  5
2E8
100
AcDbEntity
  8
0
100
AcDbLine
 62
7
  6
BYLAYER
 10
19.3216674793
 20
24.1836802649
 11
19.318364927
 21
23.9964666339
  0
LINE
  5
2E9
100
AcDbEntity
  8
0
100
AcDbLine
 62
7
  6
BYLAYER
 10
19.3825174158
 20
23.9047986508
 11
19.3441158941
 21
23.4168061722
  0
LINE
  5
2EA
100
AcDbEntity
  8
0
100
AcDbLine
 62
7
  6
BYLAYER
 10
19.4001259506
 20
23.6164003146
 11
19.2842599026
 21
22.49695434
  0
LINE
  5
2EB
100
AcDbEntity
  8
0
100
AcDbLine
 62
7
  6
BYLAYER
 10
19.4379116301
 20
23.5090924853
 11
19.3752306958
 21
23.0947748741
  0
LINE
  5
2EC
100
AcDbEntity
  8
0
100
AcDbLine
 62
7
  6
BYLAYER
 10
18.8341101415
 20
25.2238327767
 11
19.0833838633
 21
24.5416676945
  0
LINE
  5
2ED
100
AcDbEntity
  8
0
100
AcDbLine
 62
7
  6
BYLAYER
 10
19.0768655082
 20
24.5387345481
 11
19.1904387618
 21
24.2233950087
  0
LINE
  5
2EE
100
AcDbEntity
  8
0
100
AcDbLine
 62
7
  6
BYLAYER
 10
18.501158383
 20
26.1693849264
 11
19.3533064549
 21
23.7493633451
  0
LINE
  5
2EF
100
AcDbEntity
  8
0
100
AcDbLine
 62
7
  6
BYLAYER
 10
19.1686307409
 20
24.2330428336
 11
19.3487769468
 21
23.6672043288
  0
LINE
  5
2F0
100
AcDbEntity
  8
0
100
AcDbLine
 62
7
  6
BYLAYER
 10
18.8990941043
 20
25.3077101076
 11
19.0203500319
 21
24.7935836623
  0
LINE
  5
2F1
100
AcDbEntity
  8
0
100
AcDbLine
 62
7
  6
BYLAYER
 10
19.3321066066
 20
23.4546350506
 11
19.391028311
 21
23.1991962627
  0
LINE
  5
2F2
100
AcDbEntity
  8
0
100
AcDbLine
 62
7
  6
BYLAYER
 10
18.8977421672
 20
25.4074635307
 11
18.9823223113
 21
25.0302681985
  0
LINE
  5
2F3
100
AcDbEntity
  8
0
100
AcDbLine
 62
7
  6
BYLAYER
 10
18.9860138194
 20
25.2391756308
 11
19.1414617402
 21
24.3827311672
  0
LINE
  5
2F4
100
AcDbEntity
  8
0
100
AcDbLine
 62
7
  6
BYLAYER
 10
19.3298411806
 20
23.3237357088
 11
19.4305524087
 21
22.7651365845
  0
LINE
  5
2F5
100
AcDbEntity
  8
0
100
AcDbLine
 62
7
  6
BYLAYER
 10
19.2067645627
 20
24.1655287433
 11
19.2485746562
 21
23.8428838216
  0
LINE
  5
2F6
100
AcDbEntity
  8
0
100
AcDbLine
 62
7
  6
BYLAYER
 10
15.7694442246
 20
14.1745405233
 11
17.8907645682
 21
16.2958608669
  0
LINE
  5
2F7
100
AcDbEntity
  8
0
100
AcDbLine
 62
7
  6
BYLAYER
 10
20.7191916929
 20
19.1242879916
 11
22.8405120365
 21
21.2456083352
  0
LINE
  5
2F8
100
AcDbEntity
  8
0
100
AcDbLine
 62
7
  6
BYLAYER
 10
17.182116726
 20
27.2597369774
 11
18.122481248
 21
26.5861245864
  0
LINE
  5
2F9
100
AcDbEntity
  8
0
100
AcDbLine
 62
7
  6
BYLAYER
 10
17.2957781552
 20
27.1657816638
 11
17.9249589935
 21
26.6983896358
  0
LINE
  5
2FA
100
AcDbEntity
  8
0
100
AcDbLine
 62
7
  6
BYLAYER
 10
16.2412189245
 20
28.0090319385
 11
17.0222076737
 21
27.3819315739
  0
LINE
  5
2FB
100
AcDbEntity
  8
0
100
AcDbLine
 62
7
  6
BYLAYER
 10
16.2589116719
 20
28.0239725319
 11
17.2143634381
 21
27.2366376533
  0
LINE
  5
2FC
100
AcDbEntity
  8
0
100
AcDbLine
 62
7
  6
BYLAYER
 10
16.9485617526
 20
27.4567709623
 11
17.5813982352
 21
26.912066327
  0
LINE
  5
2FD
100
AcDbEntity
  8
0
100
AcDbLine
 62
7
  6
BYLAYER
 10
18.2443933339
 20
26.2730916003
 11
18.6402523302
 21
25.8926772863
  0
LINE
  5
2FE
100
AcDbEntity
  8
0
100
AcDbLine
 62
7
  6
BYLAYER
 10
17.5807231818
 20
26.9302391451
 11
18.5721651701
 21
25.9581685645
  0
LINE
  5
2FF
100
AcDbEntity
  8
0
100
AcDbLine
 62
7
  6
BYLAYER
 10
26.729599333
 20
17.3565210387
 11
22.8405120365
 21
21.2456083352
  0
LINE
  5
300
100
AcDbEntity
  8
0
100
AcDbLine
 62
7
  6
BYLAYER
 10
17.5775210058
 20
26.9330501146
 11
17.7929077111
 21
26.7124838314
  0
LINE
  5
301
100
AcDbEntity
  8
0
100
AcDbLine
 62
7
  6
BYLAYER
 10
17.6913484052
 20
26.8435807618
 11
18.1278566775
 21
26.3454044445
  0
LINE
  5
302
100
AcDbEntity
  8
0
100
AcDbLine
 62
7
  6
BYLAYER
 10
17.9628978037
 20
26.5555316877
 11
18.2788857548
 21
26.153021198
  0
LINE
  5
303
100
AcDbEntity
  8
0
100
AcDbLine
 62
7
  6
BYLAYER
 10
18.5141194091
 20
25.8284510079
 11
19.0926887804
 21
25.0458418157
  0
LINE
  5
304
100
AcDbEntity
  8
0
100
AcDbLine
 62
7
  6
BYLAYER
 10
17.8501224996
 20
26.7812236394
 11
18.0610177022
 21
26.4710018792
  0
LINE
  5
305
100
AcDbEntity
  8
0
100
AcDbLine
 62
7
  6
BYLAYER
 10
19.023754585
 20
25.0052471536
 11
19.2025066675
 21
24.7298067104
  0
LINE
  5
306
100
AcDbEntity
  8
0
100
AcDbLine
 62
7
  6
BYLAYER
 10
17.8701900595
 20
26.8061254643
 11
18.4006159435
 21
25.971144005
  0
LINE
  5
307
100
AcDbEntity
  8
0
100
AcDbLine
 62
7
  6
BYLAYER
 10
18.1314702336
 20
26.4015399266
 11
18.498497387
 21
25.814619964
  0
LINE
  5
308
100
AcDbEntity
  8
0
100
AcDbLine
 62
7
  6
BYLAYER
 10
19.0872028114
 20
24.8454598683
 11
19.2282641465
 21
24.6117574939
  0
LINE
  5
309
100
AcDbEntity
  8
0
100
AcDbLine
 62
7
  6
BYLAYER
 10
18.8959188433
 20
25.089629802
 11
19.072274435
 21
24.7523406545
  0
LINE
  5
30A
100
AcDbEntity
  8
0
100
AcDbLine
 62
7
  6
BYLAYER
 10
19.2799267182
 20
24.2947467707
 11
19.3110414509
 21
24.2323804627
  0
LINE
  5
30B
100
AcDbEntity
  8
0
100
AcDbLine
 62
7
  6
BYLAYER
 10
18.2642486548
 20
26.4845721781
 11
18.3489054096
 21
26.2952409529
  0
LINE
  5
30C
100
AcDbEntity
  8
0
100
AcDbLine
 62
7
  6
BYLAYER
 10
18.4019202257
 20
26.1643115394
 11
18.6526323373
 21
25.6007510095
  0
LINE
  5
30D
100
AcDbEntity
  8
0
100
AcDbLine
 62
7
  6
BYLAYER
 10
21.1614109953
 20
18.6820686893
 11
20.9169066385
 21
18.0707779208
  0
LINE
  5
30E
100
AcDbEntity
  8
0
100
AcDbLine
 62
7
  6
BYLAYER
 10
21.159356976
 20
18.6841227086
 11
20.9866692632
 21
18.2489193655
  0
LINE
  5
30F
100
AcDbEntity
  8
0
100
AcDbLine
 62
7
  6
BYLAYER
 10
22.4131983475
 20
21.8443996992
 11
22.299358341
 21
21.558043567
  0
LINE
  5
310
100
AcDbEntity
  8
0
100
AcDbLine
 62
7
  6
BYLAYER
 10
20.7260329185
 20
18.0051297338
 11
20.5600354457
 21
17.6725313786
  0
LINE
  5
311
100
AcDbEntity
  8
0
100
AcDbLine
 62
7
  6
BYLAYER
 10
20.9984174458
 20
18.5652341567
 11
20.8881661462
 21
18.3493089509
  0
LINE
  5
312
100
AcDbEntity
  8
0
100
AcDbLine
 62
7
  6
BYLAYER
 10
19.0279836544
 20
16.4655979638
 11
18.3304391589
 21
15.8561862762
  0
LINE
  5
313
100
AcDbEntity
  8
0
100
AcDbLine
 62
7
  6
BYLAYER
 10
20.9441806854
 20
18.1222686507
 11
19.8601179585
 21
17.1773040258
  0
LINE
  5
314
100
AcDbEntity
  8
0
100
AcDbLine
 62
7
  6
BYLAYER
 10
19.6727327774
 20
17.0139625854
 11
18.3370028175
 21
15.8496226176
  0
LINE
  5
315
100
AcDbEntity
  8
0
100
AcDbLine
 62
7
  6
BYLAYER
 10
20.2057640284
 20
17.4785996065
 11
19.2049895104
 21
16.6266128816
  0
LINE
  5
316
100
AcDbEntity
  8
0
100
AcDbLine
 62
7
  6
BYLAYER
 10
20.9169066385
 20
18.0707779208
 11
19.8645903162
 21
17.1765344375
  0
LINE
  5
317
100
AcDbEntity
  8
0
100
AcDbLine
 62
7
  6
BYLAYER
 10
20.2309133797
 20
17.4722468121
 11
19.3247118075
 21
16.7082710802
  0
LINE
  5
318
100
AcDbEntity
  8
0
100
AcDbLine
 62
7
  6
BYLAYER
 10
19.0534787018
 20
16.485648929
 11
18.9726999145
 21
16.4186186258
  0
LINE
  5
319
100
AcDbEntity
  8
0
100
AcDbLine
 62
7
  6
BYLAYER
 10
20.2210152256
 20
17.4510201521
 11
19.9904854721
 21
17.263177907
  0
LINE
  5
31A
100
AcDbEntity
  8
0
100
AcDbLine
 62
7
  6
BYLAYER
 10
19.7645972606
 20
17.0791177233
 11
19.6832130081
 21
17.0128035036
  0
LINE
  5
31B
100
AcDbEntity
  8
0
100
AcDbLine
 62
7
  6
BYLAYER
 10
19.5437838594
 20
16.8961014426
 11
19.2779397365
 21
16.6798963384
  0
LINE
  5
31C
100
AcDbEntity
  8
0
100
AcDbLine
 62
7
  6
BYLAYER
 10
18.9881881379
 20
16.4314707662
 11
18.7467059432
 21
16.2364635438
  0
LINE
  5
31D
100
AcDbEntity
  8
0
100
AcDbLine
 62
7
  6
BYLAYER
 10
19.5259073086
 20
16.6103544954
 11
19.6912471429
 21
16.7425604115
  0
LINE
  5
31E
100
AcDbEntity
  8
0
100
AcDbLine
 62
7
  6
BYLAYER
 10
20.6400471695
 20
17.7468874514
 11
20.1948808787
 21
17.3949748644
  0
LINE
  5
31F
100
AcDbEntity
  8
0
100
AcDbLine
 62
7
  6
BYLAYER
 10
19.5020861059
 20
16.5916621311
 11
19.5259073086
 21
16.6103544954
  0
LINE
  5
320
100
AcDbEntity
  8
0
100
AcDbLine
 62
7
  6
BYLAYER
 10
19.5020859677
 20
16.591661986
 11
19.4085940305
 21
16.5192448298
  0
LINE
  5
321
100
AcDbEntity
  8
0
100
AcDbLine
 62
7
  6
BYLAYER
 10
18.4828897615
 20
16.0347457473
 11
18.2961157647
 21
15.8905096704
  0
LINE
  5
322
100
AcDbEntity
  8
0
100
AcDbLine
 62
7
  6
BYLAYER
 10
20.6063468664
 20
17.6634059447
 11
19.9110203551
 21
17.1362811837
  0
LINE
  5
323
100
AcDbEntity
  8
0
100
AcDbLine
 62
7
  6
BYLAYER
 10
19.1203338542
 20
16.5545432056
 11
19.0826092598
 21
16.5261180467
  0
LINE
  5
324
100
AcDbEntity
  8
0
100
AcDbLine
 62
7
  6
BYLAYER
 10
20.4663101598
 20
17.5270376414
 11
19.9211758412
 21
17.1267829455
  0
LINE
  5
325
100
AcDbEntity
  8
0
100
AcDbLine
 62
7
  6
BYLAYER
 10
18.8479589794
 20
16.3493110696
 11
18.2623307392
 21
15.9242946959
  0
LINE
  5
326
100
AcDbEntity
  8
0
100
AcDbLine
 62
7
  6
BYLAYER
 10
18.6745479077
 20
16.2068306233
 11
18.2717790954
 21
15.9148463397
  0
LINE
  5
327
100
AcDbEntity
  8
0
100
AcDbLine
 62
7
  6
BYLAYER
 10
19.7343749799
 20
16.965295061
 11
19.4431908653
 21
16.7584856307
  0
LINE
  5
328
100
AcDbEntity
  8
0
100
AcDbLine
 62
7
  6
BYLAYER
 10
19.4085940305
 20
16.5192448298
 11
18.3540026493
 21
15.8326227858
  0
LINE
  5
329
100
AcDbEntity
  8
0
100
AcDbLine
 62
7
  6
BYLAYER
 10
12.2094423946
 20
28.0738699865
 11
13.2254076009
 21
28.2704104794
  0
LINE
  5
32A
100
AcDbEntity
  8
0
100
AcDbLine
 62
7
  6
BYLAYER
 10
13.0108059874
 20
28.2214911778
 11
13.9944725057
 21
28.3813601239
  0
LINE
  5
32B
100
AcDbEntity
  8
0
100
AcDbLine
 62
7
  6
BYLAYER
 10
12.8111963882
 20
28.1936324238
 11
14.3020266683
 21
28.4017019459
  0
LINE
  5
32C
100
AcDbEntity
  8
0
100
AcDbLine
 62
7
  6
BYLAYER
 10
12.0161072432
 20
28.0923424448
 11
12.3256814194
 21
28.1348996932
  0
LINE
  5
32D
100
AcDbEntity
  8
0
100
AcDbLine
 62
7
  6
BYLAYER
 10
14.4902811736
 20
28.4248970436
 11
14.5793077201
 21
28.4367286335
  0
LINE
  5
32E
100
AcDbEntity
  8
0
100
AcDbLine
 62
7
  6
BYLAYER
 10
14.1517545436
 20
28.3458056045
 11
14.5669500329
 21
28.3857322946
  0
LINE
  5
32F
100
AcDbEntity
  8
0
100
AcDbLine
 62
7
  6
BYLAYER
 10
13.595952235
 20
28.2968655243
 11
14.1009231475
 21
28.3424273113
  0
LINE
  5
330
100
AcDbEntity
  8
0
100
AcDbLine
 62
7
  6
BYLAYER
 10
12.1202343038
 20
28.178237477
 11
13.1034914655
 21
28.2602425028
  0
LINE
  5
331
100
AcDbEntity
  8
0
100
AcDbLine
 62
7
  6
BYLAYER
 10
14.2520576697
 20
28.3408282455
 11
14.9082283911
 21
28.3847953412
  0
LINE
  5
332
100
AcDbEntity
  8
0
100
AcDbLine
 62
7
  6
BYLAYER
 10
12.749289119
 20
28.2430431838
 11
12.9491653049
 21
28.2546213928
  0
LINE
  5
333
100
AcDbEntity
  8
0
100
AcDbLine
 62
7
  6
BYLAYER
 10
13.6515625526
 20
28.3059523998
 11
14.0787980998
 21
28.3211614629
  0
LINE
  5
334
100
AcDbEntity
  8
0
100
AcDbLine
 62
7
  6
BYLAYER
 10
12.7883175266
 20
28.2973426691
 11
13.286985974
 21
28.3062944908
  0
LINE
  5
335
100
AcDbEntity
  8
0
100
AcDbLine
 62
7
  6
BYLAYER
 10
13.0248267633
 20
28.3383893165
 11
13.9176105182
 21
28.3161318394
  0
LINE
  5
336
100
AcDbEntity
  8
0
100
AcDbLine
 62
7
  6
BYLAYER
 10
13.9558461849
 20
28.331161845
 11
14.6961518814
 21
28.270948551
  0
LINE
  5
337
100
AcDbEntity
  8
0
100
AcDbLine
 62
7
  6
BYLAYER
 10
15.1935673635
 20
28.1926024931
 11
15.6367331569
 21
28.1257725864
  0
LINE
  5
338
100
AcDbEntity
  8
0
100
AcDbLine
 62
7
  6
BYLAYER
 10
14.4172010318
 20
28.3148423907
 11
16.2556808442
 21
28.0255515053
  0
LINE
  5
339
100
AcDbEntity
  8
0
100
AcDbLine
 62
7
  6
BYLAYER
 10
13.3537354389
 20
28.4663771085
 11
13.7045094477
 21
28.4110812016
  0
LINE
  5
33A
100
AcDbEntity
  8
0
100
AcDbLine
 62
7
  6
BYLAYER
 10
15.3680136323
 20
28.1488469133
 11
15.9885178071
 21
28.0306012843
  0
LINE
  5
33B
100
AcDbEntity
  8
0
100
AcDbLine
 62
7
  6
BYLAYER
 10
14.8618581826
 20
28.2421006111
 11
15.2314360244
 21
28.1620294811
  0
LINE
  5
33C
100
AcDbEntity
  8
0
100
AcDbLine
 62
7
  6
BYLAYER
 10
14.0000950007
 20
28.4759114215
 11
15.0793333813
 21
28.2106536733
  0
LINE
  5
33D
100
AcDbEntity
  8
0
100
AcDbLine
 62
7
  6
BYLAYER
 10
15.7858888025
 20
28.0197127915
 11
16.5038947825
 21
27.8395114749
  0
LINE
  5
33E
100
AcDbEntity
  8
0
100
AcDbLine
 62
7
  6
BYLAYER
 10
14.0726584014
 20
28.463019355
 11
14.2365520268
 21
28.42070374
  0
LINE
  5
33F
100
AcDbEntity
  8
0
100
AcDbLine
 62
7
  6
BYLAYER
 10
16.2555056662
 20
28.0249252117
 11
16.2589116719
 21
28.0239725319
  0
LINE
  5
340
100
AcDbEntity
  8
0
100
AcDbLine
 62
7
  6
BYLAYER
 10
15.5564814665
 20
28.0866733357
 11
16.2057292848
 21
27.8971676819
  0
LINE
  5
341
100
AcDbEntity
  8
0
100
AcDbLine
 62
7
  6
BYLAYER
 10
15.3019200201
 20
28.2835473232
 11
16.3776188403
 21
27.9691682964
  0
LINE
  5
342
100
AcDbEntity
  8
0
100
AcDbLine
 62
7
  6
BYLAYER
 10
14.4139094952
 20
28.4495285003
 11
14.6651255379
 21
28.368506095
  0
LINE
  5
343
100
AcDbEntity
  8
0
100
AcDbLine
 62
7
  6
BYLAYER
 10
16.2018603038
 20
27.8711493549
 11
16.9670282111
 21
27.6044318892
  0
LINE
  5
344
100
AcDbEntity
  8
0
100
AcDbLine
 62
7
  6
BYLAYER
 10
15.7599159884
 20
28.0272938645
 11
16.2029377319
 21
27.8413325707
  0
LINE
  5
345
100
AcDbEntity
  8
0
100
AcDbLine
 62
7
  6
BYLAYER
 10
17.310633998
 20
27.2989137143
 11
17.4420558802
 21
27.2353287303
  0
LINE
  5
346
100
AcDbEntity
  8
0
100
AcDbLine
 62
7
  6
BYLAYER
 10
16.151413926
 20
27.8615983883
 11
16.9032456387
 21
27.4930125992
  0
LINE
  5
347
100
AcDbEntity
  8
0
100
AcDbLine
 62
7
  6
BYLAYER
 10
15.2521635297
 20
28.3185196245
 11
15.3468677124
 21
28.2704111075
  0
LINE
  5
348
100
AcDbEntity
  8
0
100
AcDbLine
 62
7
  6
BYLAYER
 10
16.3760632872
 20
27.7510809081
 11
16.7979755445
 21
27.5269960768
  0
LINE
  5
349
100
AcDbEntity
  8
0
100
AcDbLine
 62
7
  6
BYLAYER
 10
17.5106550787
 20
27.1466381648
 11
17.7014853477
 21
27.042741876
  0
LINE
  5
34A
100
AcDbEntity
  8
0
100
AcDbLine
 62
7
  6
BYLAYER
 10
16.6766618474
 20
27.5922451552
 11
17.1687486031
 21
27.3120304536
  0
LINE
  5
34B
100
AcDbEntity
  8
0
100
AcDbLine
 62
7
  6
BYLAYER
 10
16.1376137024
 20
27.9170495938
 11
16.4923195619
 21
27.701064261
  0
LWPOLYLINE
  5
34C
100
AcDbEntity
  8
0
100
AcDbPolyline
 62
7
  6
BYLAYER
 90
4
 70
0
 10
15.6107573289
 20
28.272622855
 10
18.0446319038
 20
26.7367339935
 10
19.3760020459
 20
24.1610299889
 10
19.2866167096
 20
22.5397035607
  0
LINE
  5
34D
100
AcDbEntity
  8
0
100
AcDbLine
 62
7
  6
BYLAYER
 10
16.9774640098
 20
27.4006305167
 11
17.6412557585
 21
26.9777870938
  0
LINE
  5
34E
100
AcDbEntity
  8
0
100
AcDbLine
 62
7
  6
BYLAYER
 10
22.2712326521
 20
23.284049643
 11
22.4194282609
 21
21.923964878
  0
LINE
  5
34F
100
AcDbEntity
  8
0
100
AcDbLine
 62
7
  6
BYLAYER
 10
22.0097627892
 20
25.8550194597
 11
22.1123712084
 21
24.8352854253
  0
LINE
  5
350
100
AcDbEntity
  8
0
100
AcDbLine
 62
7
  6
BYLAYER
 10
22.2759317806
 20
23.1017137113
 11
22.3954291247
 21
21.9071125397
  0
LINE
  5
351
100
AcDbEntity
  8
0
100
AcDbLine
 62
7
  6
BYLAYER
 10
22.048570508
 20
25.6786041107
 11
22.1396012176
 21
24.6485164153
  0
LINE
  5
352
100
AcDbEntity
  8
0
100
AcDbLine
 62
7
  6
BYLAYER
 10
22.2640491829
 20
23.2979951678
 11
22.3814431289
 21
21.9064380034
  0
LINE
  5
353
100
AcDbEntity
  8
0
100
AcDbLine
 62
7
  6
BYLAYER
 10
22.2143774373
 20
23.7227251914
 11
22.2420374225
 21
23.312477944
  0
LINE
  5
354
100
AcDbEntity
  8
0
100
AcDbLine
 62
7
  6
BYLAYER
 10
22.3249409264
 20
21.9048849318
 11
22.3283936886
 21
21.8398398686
  0
LINE
  5
355
100
AcDbEntity
  8
0
100
AcDbLine
 62
7
  6
BYLAYER
 10
22.2265613737
 20
23.6659310655
 11
22.2629219336
 21
22.8555927482
  0
LINE
  5
356
100
AcDbEntity
  8
0
100
AcDbLine
 62
7
  6
BYLAYER
 10
22.2493206909
 20
23.0293224392
 11
22.2941249395
 21
21.9050163325
  0
LINE
  5
357
100
AcDbEntity
  8
0
100
AcDbLine
 62
7
  6
BYLAYER
 10
22.2516445904
 20
23.1699863921
 11
22.2594573168
 21
22.8998465581
  0
LINE
  5
358
100
AcDbEntity
  8
0
100
AcDbLine
 62
7
  6
BYLAYER
 10
22.2327100198
 20
23.7189650739
 11
22.2344618403
 21
23.621518622
  0
LINE
  5
359
100
AcDbEntity
  8
0
100
AcDbLine
 62
7
  6
BYLAYER
 10
22.2400992388
 20
25.1016493007
 11
22.2477526712
 21
23.5794222479
  0
LINE
  5
35A
100
AcDbEntity
  8
0
100
AcDbLine
 62
7
  6
BYLAYER
 10
22.2548418656
 20
22.4878629929
 11
22.2548057989
 21
22.273869568
  0
LINE
  5
35B
100
AcDbEntity
  8
0
100
AcDbLine
 62
7
  6
BYLAYER
 10
22.2552485191
 20
24.9006416374
 11
22.2459759501
 21
23.9328026438
  0
LINE
  5
35C
100
AcDbEntity
  8
0
100
AcDbLine
 62
7
  6
BYLAYER
 10
11.5889253031
 20
27.8801287692
 11
12.0707567219
 21
28.001054975
  0
LINE
  5
35D
100
AcDbEntity
  8
0
100
AcDbLine
 62
7
  6
BYLAYER
 10
14.0445613647
 20
28.4567418771
 11
14.14262535
 21
28.478651465
  0
LINE
  5
35E
100
AcDbEntity
  8
0
100
AcDbLine
 62
7
  6
BYLAYER
 10
19.5989163745
 20
29.4102423498
 11
20.8106807783
 21
27.6604222139
  0
LINE
  5
35F
100
AcDbEntity
  8
0
100
AcDbLine
 62
7
  6
BYLAYER
 10
19.7780559884
 20
29.229420717
 11
21.0387498647
 21
27.3376383814
  0
LINE
  5
360
100
AcDbEntity
  8
0
100
AcDbLine
 62
7
  6
BYLAYER
 10
21.1706480069
 20
27.1406199299
 11
21.9192807885
 21
26.0044043251
  0
LINE
  5
361
100
AcDbEntity
  8
0
100
AcDbLine
 62
7
  6
BYLAYER
 10
21.8831084342
 20
25.9821675657
 11
21.9653195539
 21
25.852353603
  0
LINE
  5
362
100
AcDbEntity
  8
0
100
AcDbLine
 62
7
  6
BYLAYER
 10
20.9850249055
 20
27.408569253
 11
21.3785338257
 21
26.7667403384
  0
LINE
  5
363
100
AcDbEntity
  8
0
100
AcDbLine
 62
7
  6
BYLAYER
 10
21.5042948663
 20
26.5681985539
 11
22.0031569471
 21
25.7443498158
  0
LINE
  5
364
100
AcDbEntity
  8
0
100
AcDbLine
 62
7
  6
BYLAYER
 10
20.9566225594
 20
27.432132299
 11
21.8835620771
 21
25.8603804641
  0
LINE
  5
365
100
AcDbEntity
  8
0
100
AcDbLine
 62
7
  6
BYLAYER
 10
21.8385102576
 20
25.9596420714
 11
21.8927790365
 21
25.8660523433
  0
LINE
  5
366
100
AcDbEntity
  8
0
100
AcDbLine
 62
7
  6
BYLAYER
 10
21.1384829848
 20
27.1705261484
 11
21.2124677098
 21
27.0362767591
  0
LINE
  5
367
100
AcDbEntity
  8
0
100
AcDbLine
 62
7
  6
BYLAYER
 10
21.3986066798
 20
26.6633654068
 11
21.7915110822
 21
25.9382433046
  0
LWPOLYLINE
  5
368
100
AcDbEntity
  8
0
100
AcDbPolyline
 62
7
  6
BYLAYER
 90
3
 70
0
 10
21.9329100457
 20
26.0201314001
 10
22.4345815596
 20
21.9630147563
 10
22.2814457151
 20
21.5683854264
  0
LINE
  5
369
100
AcDbEntity
  8
0
100
AcDbLine
 62
7
  6
BYLAYER
 10
21.9455158186
 20
26.021690132
 11
22.4235103788
 21
21.9344844494
  0
LINE
  5
36A
100
AcDbEntity
  8
0
100
AcDbLine
 62
7
  6
BYLAYER
 10
17.8337703638
 20
30.3202926231
 11
18.1392781636
 21
30.1514108276
  0
LINE
  5
36B
100
AcDbEntity
  8
0
100
AcDbLine
 62
7
  6
BYLAYER
 10
16.2658776489
 20
31.205401626
 11
17.8929856785
 21
30.2899770397
  0
LINE
  5
36C
100
AcDbEntity
  8
0
100
AcDbLine
 62
7
  6
BYLAYER
 10
18.4560882716
 20
29.9649546798
 11
18.6373991853
 21
29.8628826699
  0
LINE
  5
36D
100
AcDbEntity
  8
0
100
AcDbLine
 62
7
  6
BYLAYER
 10
17.5888243294
 20
30.4477577618
 11
17.896201764
 21
30.2732197768
  0
LINE
  5
36E
100
AcDbEntity
  8
0
100
AcDbLine
 62
7
  6
BYLAYER
 10
18.4074256039
 20
29.9934085005
 11
18.5022190349
 21
29.9379813031
  0
LINE
  5
36F
100
AcDbEntity
  8
0
100
AcDbLine
 62
7
  6
BYLAYER
 10
16.801562878
 20
30.9914636774
 11
18.3097002316
 21
30.0572031353
  0
LINE
  5
370
100
AcDbEntity
  8
0
100
AcDbLine
 62
7
  6
BYLAYER
 10
16.9552471005
 20
30.8962067901
 11
17.6031130848
 21
30.4901573302
  0
LINE
  5
371
100
AcDbEntity
  8
0
100
AcDbLine
 62
7
  6
BYLAYER
 10
17.0526944505
 20
30.898515651
 11
17.6162206388
 21
30.520578327
  0
LINE
  5
372
100
AcDbEntity
  8
0
100
AcDbLine
 62
7
  6
BYLAYER
 10
23.0302648935
 20
15.9199282989
 11
22.7011593437
 21
15.5908227492
  0
LINE
  5
373
100
AcDbEntity
  8
0
100
AcDbLine
 62
7
  6
BYLAYER
 10
23.5476188177
 20
16.2958608669
 11
23.1009755716
 21
15.8492176208
  0
LINE
  5
374
100
AcDbEntity
  8
0
100
AcDbLine
 62
7
  6
BYLAYER
 10
11.9614853448
 20
31.2599365737
 11
15.9788848605
 21
31.2699107469
  0
LINE
  5
375
100
AcDbEntity
  8
0
100
AcDbLine
 62
7
  6
BYLAYER
 10
13.6851209211
 20
31.2618736453
 11
16.0653426871
 21
31.2256482202
  0
LINE
  5
376
100
AcDbEntity
  8
0
100
AcDbLine
 62
7
  6
BYLAYER
 10
14.9246263705
 20
31.2347508348
 11
16.2658776489
 21
31.205401626
  0
LINE
  5
377
100
AcDbEntity
  8
0
100
AcDbLine
 62
7
  6
BYLAYER
 10
14.7074763218
 20
31.246314062
 11
15.7097367293
 21
31.2175710802
  0
LINE
  5
378
100
AcDbEntity
  8
0
100
AcDbLine
 62
7
  6
BYLAYER
 10
14.6555631052
 20
31.255972211
 11
15.3428420491
 21
31.2280929436
  0
LINE
  5
379
100
AcDbEntity
  8
0
100
AcDbLine
 62
7
  6
BYLAYER
 10
14.0151142826
 20
31.2647555378
 11
14.3639481773
 21
31.2446737647
  0
LINE
  5
37A
100
AcDbEntity
  8
0
100
AcDbLine
 62
7
  6
BYLAYER
 10
15.2043173658
 20
31.2114901981
 11
15.9393082156
 21
31.1649801261
  0
LINE
  5
37B
100
AcDbEntity
  8
0
100
AcDbLine
 62
7
  6
BYLAYER
 10
14.2832103524
 20
31.2689815882
 11
14.7035964795
 21
31.2417572628
  0
LINE
  5
37C
100
AcDbEntity
  8
0
100
AcDbLine
 62
7
  6
BYLAYER
 10
15.1805385173
 20
31.1953001309
 11
16.3272116746
 21
31.0915830522
  0
LINE
  5
37D
100
AcDbEntity
  8
0
100
AcDbLine
 62
7
  6
BYLAYER
 10
14.3593113633
 20
31.2679895755
 11
14.7583856952
 21
31.2306151197
  0
LINE
  5
37E
100
AcDbEntity
  8
0
100
AcDbLine
 62
7
  6
BYLAYER
 10
16.4208887283
 20
31.0436246052
 11
16.6427424677
 21
31.018251075
  0
LINE
  5
37F
100
AcDbEntity
  8
0
100
AcDbLine
 62
7
  6
BYLAYER
 10
14.9616603685
 20
31.2038028618
 11
15.5954563013
 21
31.1218392557
  0
LINE
  5
380
100
AcDbEntity
  8
0
100
AcDbLine
 62
7
  6
BYLAYER
 10
26.729599333
 20
15.2352006951
 11
25.2222959151
 21
13.7278972772
  0
LINE
  5
381
100
AcDbEntity
  8
0
100
AcDbLine
 62
7
  6
BYLAYER
 10
22.8405120365
 20
11.3461133986
 11
20.7191916929
 21
9.224793055
  0
LINE
  5
382
100
AcDbEntity
  8
0
100
AcDbLine
 62
7
  6
BYLAYER
 10
25.2930065933
 20
13.6571865991
 11
24.9639010435
 21
13.3280810494
  0
ARC
  5
383
100
AcDbEntity
  8
0
100
AcDbCircle
 62
7
  6
BYLAYER
 10
14.0353621915
 20
23.0013506145
 40
8.490008875
100
AcDbArc
 50
50.5945865393
 51
64.3742057362
  0
ARC
  5
384
100
AcDbEntity
  8
0
100
AcDbCircle
 62
7
  6
BYLAYER
 10
14.046608039
 20
22.9965201838
 40
8.4606650497
100
AcDbArc
 50
20.0145819408
 51
20.1919465258
  0
ARC
  5
385
100
AcDbEntity
  8
0
100
AcDbCircle
 62
7
  6
BYLAYER
 10
13.9704733126
 20
22.9767529021
 40
8.4605005532
100
AcDbArc
 50
270.0119716033
 51
270.191759053
  0
ARC
  5
386
100
AcDbEntity
  8
0
100
AcDbCircle
 62
7
  6
BYLAYER
 10
13.9704732395
 20
22.9684892567
 40
8.452236908
100
AcDbArc
 50
269.757384157
 51
270.0119838034
  0
ARC
  5
387
100
AcDbEntity
  8
0
100
AcDbCircle
 62
7
  6
BYLAYER
 10
14.0545765373
 20
22.9994203846
 40
8.4521851838
100
AcDbArc
 50
19.7461423768
 51
20.0145971782
  0
ARC
  5
388
100
AcDbEntity
  8
0
100
AcDbCircle
 62
7
  6
BYLAYER
 10
13.8988180401
 20
22.9142909074
 40
8.3582168683
100
AcDbArc
 50
212.6925032125
 51
213.0529234525
  0
ARC
  5
389
100
AcDbEntity
  8
0
100
AcDbCircle
 62
7
  6
BYLAYER
 10
13.8821909435
 20
22.9034568934
 40
8.3383715652
100
AcDbArc
 50
213.0528405018
 51
213.6235559005
  0
ARC
  5
38A
100
AcDbEntity
  8
0
100
AcDbCircle
 62
7
  6
BYLAYER
 10
13.9804363134
 20
22.753922193
 40
8.2397729887
100
AcDbArc
 50
269.0861700791
 51
269.3220238698
  0
ARC
  5
38B
100
AcDbEntity
  8
0
100
AcDbCircle
 62
7
  6
BYLAYER
 10
14.200787252
 20
22.8318141964
 40
8.2306530302
100
AcDbArc
 50
321.6388401271
 51
321.9119187053
  0
ARC
  5
38C
100
AcDbEntity
  8
0
100
AcDbCircle
 62
7
  6
BYLAYER
 10
13.7649726858
 20
22.8747418533
 40
8.2257442668
100
AcDbArc
 50
213.3224678092
 51
213.5184246451
  0
ARC
  5
38D
100
AcDbEntity
  8
0
100
AcDbCircle
 62
7
  6
BYLAYER
 10
13.9802028139
 20
22.7396762918
 40
8.2255251755
100
AcDbArc
 50
268.6981126166
 51
269.0862137308
  0
ARC
  5
38E
100
AcDbEntity
  8
0
100
AcDbCircle
 62
7
  6
BYLAYER
 10
13.7566027077
 20
22.8692411339
 40
8.2157285569
100
AcDbArc
 50
213.0678250057
 51
213.3224796281
  0
ARC
  5
38F
100
AcDbEntity
  8
0
100
AcDbCircle
 62
7
  6
BYLAYER
 10
14.2155863999
 20
22.8200823918
 40
8.2117678559
100
AcDbArc
 50
321.1000932802
 51
321.6389411765
  0
ARC
  5
390
100
AcDbEntity
  8
0
100
AcDbCircle
 62
7
  6
BYLAYER
 10
13.979863919
 20
22.7245337122
 40
8.2103788049
100
AcDbArc
 50
268.4279431736
 51
268.6980760772
  0
ARC
  5
391
100
AcDbEntity
  8
0
100
AcDbCircle
 62
7
  6
BYLAYER
 10
13.9839606397
 20
22.7157887637
 40
8.2047799067
100
AcDbArc
 50
267.1106714452
 51
267.6063957531
  0
ARC
  5
392
100
AcDbEntity
  8
0
100
AcDbCircle
 62
7
  6
BYLAYER
 10
13.7467930035
 20
22.8628546936
 40
8.2040231344
100
AcDbArc
 50
212.798260916
 51
213.0678283917
  0
ARC
  5
393
100
AcDbEntity
  8
0
100
AcDbCircle
 62
7
  6
BYLAYER
 10
14.2321719521
 20
22.8142430885
 40
8.1954366402
100
AcDbArc
 50
321.6629225017
 51
322.1317028191
  0
ARC
  5
394
100
AcDbEntity
  8
0
100
AcDbCircle
 62
7
  6
BYLAYER
 10
13.7339251129
 20
22.8545699701
 40
8.1887189124
100
AcDbArc
 50
212.3853984039
 51
212.7983051057
  0
ARC
  5
395
100
AcDbEntity
  8
0
100
AcDbCircle
 62
7
  6
BYLAYER
 10
13.983238667
 20
22.698586581
 40
8.1875625804
100
AcDbArc
 50
267.6064161078
 51
268.0455413976
  0
ARC
  5
396
100
AcDbEntity
  8
0
100
AcDbCircle
 62
7
  6
BYLAYER
 10
13.8196146053
 20
22.7469267185
 40
8.1773166731
100
AcDbArc
 50
237.7515694799
 51
238.3724917546
  0
ARC
  5
397
100
AcDbEntity
  8
0
100
AcDbCircle
 62
7
  6
BYLAYER
 10
13.9827932108
 20
22.6857421234
 40
8.1747104027
100
AcDbArc
 50
268.0455914077
 51
268.2949243482
  0
ARC
  5
398
100
AcDbEntity
  8
0
100
AcDbCircle
 62
7
  6
BYLAYER
 10
14.3239565249
 20
22.9634025493
 40
8.1738830573
100
AcDbArc
 50
352.339612509
 51
352.6834413363
  0
ARC
  5
399
100
AcDbEntity
  8
0
100
AcDbCircle
 62
7
  6
BYLAYER
 10
13.9824885274
 20
22.6754590484
 40
8.164422815
100
AcDbArc
 50
268.2949143668
 51
268.5924447512
  0
ARC
  5
39A
100
AcDbEntity
  8
0
100
AcDbCircle
 62
7
  6
BYLAYER
 10
14.0012794457
 20
22.6758616698
 40
8.1624943243
100
AcDbArc
 50
268.1782184462
 51
268.5110846187
  0
ARC
  5
39B
100
AcDbEntity
  8
0
100
AcDbCircle
 62
7
  6
BYLAYER
 10
14.3364640275
 20
22.9617250473
 40
8.1612635641
100
AcDbArc
 50
352.1237376711
 51
352.3395792918
  0
ARC
  5
39C
100
AcDbEntity
  8
0
100
AcDbCircle
 62
7
  6
BYLAYER
 10
13.8065724019
 20
22.7262261681
 40
8.1528501323
100
AcDbArc
 50
237.3427014197
 51
237.751462028
  0
ARC
  5
39D
100
AcDbEntity
  8
0
100
AcDbCircle
 62
7
  6
BYLAYER
 10
13.9821900945
 20
22.6632438045
 40
8.1522039262
100
AcDbArc
 50
268.5924327162
 51
268.9391120144
  0
ARC
  5
39E
100
AcDbEntity
  8
0
100
AcDbCircle
 62
7
  6
BYLAYER
 10
14.0009211667
 20
22.6622091232
 40
8.1488370778
100
AcDbArc
 50
268.51110864
 51
268.7588521831
  0
ARC
  5
39F
100
AcDbEntity
  8
0
100
AcDbCircle
 62
7
  6
BYLAYER
 10
13.6495006212
 20
22.9819471032
 40
8.1464291082
100
AcDbArc
 50
186.1860646779
 51
186.7642551104
  0
ARC
  5
3A0
100
AcDbEntity
  8
0
100
AcDbCircle
 62
7
  6
BYLAYER
 10
14.0006446999
 20
22.6493649808
 40
8.1359899604
100
AcDbArc
 50
268.7588394529
 51
269.0558381283
  0
ARC
  5
3A1
100
AcDbEntity
  8
0
100
AcDbCircle
 62
7
  6
BYLAYER
 10
13.796534822
 20
22.7105613845
 40
8.1342453358
100
AcDbArc
 50
236.9720233522
 51
237.3426862742
  0
ARC
  5
3A2
100
AcDbEntity
  8
0
100
AcDbCircle
 62
7
  6
BYLAYER
 10
13.6325495137
 20
22.981308354
 40
8.1294830319
100
AcDbArc
 50
185.6329307239
 51
185.8523685668
  0
ARC
  5
3A3
100
AcDbEntity
  8
0
100
AcDbCircle
 62
7
  6
BYLAYER
 10
13.6306464794
 20
22.9798834405
 40
8.127462375
100
AcDbArc
 50
185.9674432104
 51
186.1859238956
  0
ARC
  5
3A4
100
AcDbEntity
  8
0
100
AcDbCircle
 62
7
  6
BYLAYER
 10
14.0003848447
 20
22.6333690515
 40
8.119991921
100
AcDbArc
 50
269.0558115919
 51
269.4350904207
  0
ARC
  5
3A5
100
AcDbEntity
  8
0
100
AcDbCircle
 62
7
  6
BYLAYER
 10
13.6208481336
 20
22.9788585263
 40
8.1176105717
100
AcDbArc
 50
185.7725986385
 51
185.9674383285
  0
ARC
  5
3A6
100
AcDbEntity
  8
0
100
AcDbCircle
 62
7
  6
BYLAYER
 10
13.6181448983
 20
22.9797443382
 40
8.1149961289
100
AcDbArc
 50
184.4087853635
 51
184.7175199496
  0
ARC
  5
3A7
100
AcDbEntity
  8
0
100
AcDbCircle
 62
7
  6
BYLAYER
 10
13.6176372971
 20
22.9798459759
 40
8.1144992846
100
AcDbArc
 50
185.2194038794
 51
185.6329899685
  0
ARC
  5
3A8
100
AcDbEntity
  8
0
100
AcDbCircle
 62
7
  6
BYLAYER
 10
13.6094939581
 20
22.9777136207
 40
8.1061988189
100
AcDbArc
 50
185.4893338745
 51
185.7726191987
  0
ARC
  5
3A9
100
AcDbEntity
  8
0
100
AcDbCircle
 62
7
  6
BYLAYER
 10
14.0001991855
 20
22.6146029621
 40
8.1012249133
100
AcDbArc
 50
269.4350948647
 51
269.9555832583
  0
ARC
  5
3AA
100
AcDbEntity
  8
0
100
AcDbCircle
 62
7
  6
BYLAYER
 10
13.5966717635
 20
22.976480293
 40
8.0933174459
100
AcDbArc
 50
184.7175447642
 51
185.4893261237
  0
ARC
  5
3AB
100
AcDbEntity
  8
0
100
AcDbCircle
 62
7
  6
BYLAYER
 10
14.1444002816
 20
22.9526390358
 40
5.6497771497
100
AcDbArc
 50
155.1588102146
 51
157.9176706984
  0
ARC
  5
3AC
100
AcDbEntity
  8
0
100
AcDbCircle
 62
7
  6
BYLAYER
 10
14.1462013914
 20
22.963173034
 40
5.6476624841
100
AcDbArc
 50
158.6093705442
 51
160.3992843481
  0
ARC
  5
3AD
100
AcDbEntity
  8
0
100
AcDbCircle
 62
7
  6
BYLAYER
 10
13.9875759837
 20
22.861127307
 40
5.6475552557
100
AcDbArc
 50
82.3341138964
 51
83.9420503135
  0
ARC
  5
3AE
100
AcDbEntity
  8
0
100
AcDbCircle
 62
7
  6
BYLAYER
 10
14.0618296328
 20
22.8731732628
 40
5.6474334789
100
AcDbArc
 50
111.4028213679
 51
114.4159477313
  0
ARC
  5
3AF
100
AcDbEntity
  8
0
100
AcDbCircle
 62
7
  6
BYLAYER
 10
13.8509642618
 20
22.9969501065
 40
5.6465719935
100
AcDbArc
 50
5.2370632626
 51
5.6787066854
  0
ARC
  5
3B0
100
AcDbEntity
  8
0
100
AcDbCircle
 62
7
  6
BYLAYER
 10
13.9993703138
 20
22.8625266245
 40
5.6455321977
100
AcDbArc
 50
89.251332169
 51
91.7913482391
  0
ARC
  5
3B1
100
AcDbEntity
  8
0
100
AcDbCircle
 62
7
  6
BYLAYER
 10
14.1356198049
 20
22.9451000836
 40
5.6450053902
100
AcDbArc
 50
153.4209810791
 51
155.7543436453
  0
ARC
  5
3B2
100
AcDbEntity
  8
0
100
AcDbCircle
 62
7
  6
BYLAYER
 10
14.0319159876
 20
22.8673453635
 40
5.6440100802
100
AcDbArc
 50
99.4405086954
 51
99.9287368225
  0
ARC
  5
3B3
100
AcDbEntity
  8
0
100
AcDbCircle
 62
7
  6
BYLAYER
 10
14.0163855477
 20
22.8652510067
 40
5.643735652
100
AcDbArc
 50
96.7470548331
 51
98.7643404246
  0
ARC
  5
3B4
100
AcDbEntity
  8
0
100
AcDbCircle
 62
7
  6
BYLAYER
 10
13.9775071732
 20
22.863191348
 40
5.646783301
100
AcDbArc
 50
76.7756741689
 51
80.4318737333
  0
ARC
  5
3B5
100
AcDbEntity
  8
0
100
AcDbCircle
 62
7
  6
BYLAYER
 10
13.9893035865
 20
22.8654167045
 40
5.6431266425
100
AcDbArc
 50
85.6534984594
 51
88.435761515
  0
ARC
  5
3B6
100
AcDbEntity
  8
0
100
AcDbCircle
 62
7
  6
BYLAYER
 10
13.856270447
 20
22.9901883422
 40
5.6419060887
100
AcDbArc
 50
9.3998789328
 51
12.8295615913
  0
ARC
  5
3B7
100
AcDbEntity
  8
0
100
AcDbCircle
 62
7
  6
BYLAYER
 10
14.0495009627
 20
22.8744769238
 40
5.6415636057
100
AcDbArc
 50
105.5856973063
 51
106.1407084485
  0
ARC
  5
3B8
100
AcDbEntity
  8
0
100
AcDbCircle
 62
7
  6
BYLAYER
 10
13.8619153312
 20
22.974020032
 40
5.6402881012
100
AcDbArc
 50
12.4242316941
 51
18.1991852206
  0
ARC
  5
3B9
100
AcDbEntity
  8
0
100
AcDbCircle
 62
7
  6
BYLAYER
 10
14.1407906641
 20
22.9813318779
 40
5.63741028
100
AcDbArc
 50
170.1765352997
 51
171.4887284021
  0
ARC
  5
3BA
100
AcDbEntity
  8
0
100
AcDbCircle
 62
7
  6
BYLAYER
 10
14.1384222619
 20
22.9880532732
 40
5.6339386874
100
AcDbArc
 50
172.4714759363
 51
173.8957285428
  0
ARC
  5
3BB
100
AcDbEntity
  8
0
100
AcDbCircle
 62
7
  6
BYLAYER
 10
14.12508585
 20
22.9836467906
 40
5.6215358105
100
AcDbArc
 50
171.4883721153
 51
173.4477365997
  0
ARC
  5
3BC
100
AcDbEntity
  8
0
100
AcDbCircle
 62
7
  6
BYLAYER
 10
14.0406821034
 20
22.8971307611
 40
5.6167876007
100
AcDbArc
 50
102.6468431399
 51
103.1092722816
  0
ARC
  5
3BD
100
AcDbEntity
  8
0
100
AcDbCircle
 62
7
  6
BYLAYER
 10
13.8853370698
 20
22.9889595857
 40
5.6143580834
100
AcDbArc
 50
13.8977216843
 51
19.8297529423
  0
ARC
  5
3BE
100
AcDbEntity
  8
0
100
AcDbCircle
 62
7
  6
BYLAYER
 10
13.9068641324
 20
22.950659933
 40
5.6086532062
100
AcDbArc
 50
26.2085378521
 51
26.7963448415
  0
ARC
  5
3BF
100
AcDbEntity
  8
0
100
AcDbCircle
 62
7
  6
BYLAYER
 10
13.9046030933
 20
22.9610690326
 40
5.6046186919
100
AcDbArc
 50
21.3772500358
 51
21.8923419735
  0
ARC
  5
3C0
100
AcDbEntity
  8
0
100
AcDbCircle
 62
7
  6
BYLAYER
 10
14.1018748618
 20
22.9804343251
 40
5.6001350798
100
AcDbArc
 50
169.8391552231
 51
171.0089578774
  0
ARC
  5
3C1
100
AcDbEntity
  8
0
100
AcDbCircle
 62
7
  6
BYLAYER
 10
13.9700606059
 20
22.9617187454
 40
5.5543268997
100
AcDbArc
 50
39.3646686955
 51
41.1163225053
  0
ARC
  5
3C2
100
AcDbEntity
  8
0
100
AcDbCircle
 62
7
  6
BYLAYER
 10
13.9933138043
 20
22.9750361338
 40
5.5310005036
100
AcDbArc
 50
46.5599782467
 51
47.6476402106
  0
ARC
  5
3C3
100
AcDbEntity
  8
0
100
AcDbCircle
 62
7
  6
BYLAYER
 10
14.0290431494
 20
23.0072393916
 40
5.5168666029
100
AcDbArc
 50
212.63917929
 51
214.4807839956
  0
ARC
  5
3C4
100
AcDbEntity
  8
0
100
AcDbCircle
 62
7
  6
BYLAYER
 10
13.9968664479
 20
22.9932456272
 40
5.4944741995
100
AcDbArc
 50
175.6255602821
 51
176.015085252
  0
ARC
  5
3C5
100
AcDbEntity
  8
0
100
AcDbCircle
 62
7
  6
BYLAYER
 10
13.985953904
 20
22.9940011544
 40
5.4835355334
100
AcDbArc
 50
176.0150366257
 51
176.5501421072
  0
ARC
  5
3C6
100
AcDbEntity
  8
0
100
AcDbCircle
 62
7
  6
BYLAYER
 10
4.8092891162
 20
32.2057634436
 40
1.6
100
AcDbArc
 50
26.8062625041
 51
242.7215369717
  0
ARC
  5
3C7
100
AcDbEntity
  8
0
100
AcDbCircle
 62
7
  6
BYLAYER
 10
4.8092891162
 20
32.2057634436
 40
1.5
100
AcDbArc
 50
45.0
 51
225.0
  0
ARC
  5
3C8
100
AcDbEntity
  8
0
100
AcDbCircle
 62
7
  6
BYLAYER
 10
13.9997874735
 20
23.0449335004
 40
8.4981103978
100
AcDbArc
 50
186.1246199815
 51
186.5480960135
  0
ARC
  5
3C9
100
AcDbEntity
  8
0
100
AcDbCircle
 62
7
  6
BYLAYER
 10
14.0217190545
 20
23.0538823332
 40
8.4644333892
100
AcDbArc
 50
19.5240472263
 51
20.0727484568
  0
ARC
  5
3CA
100
AcDbEntity
  8
0
100
AcDbCircle
 62
7
  6
BYLAYER
 10
14.0306238443
 20
23.0576665491
 40
8.4543886699
100
AcDbArc
 50
20.5503223302
 51
20.9689858994
  0
ARC
  5
3CB
100
AcDbEntity
  8
0
100
AcDbCircle
 62
7
  6
BYLAYER
 10
14.0347950829
 20
23.0586446389
 40
8.450517145
100
AcDbArc
 50
20.0728490139
 51
20.2555010771
  0
ARC
  5
3CC
100
AcDbEntity
  8
0
100
AcDbCircle
 62
7
  6
BYLAYER
 10
14.0422804387
 20
23.0614081529
 40
8.4425379495
100
AcDbArc
 50
20.2554934119
 51
20.4867475104
  0
ARC
  5
3CD
100
AcDbEntity
  8
0
100
AcDbCircle
 62
7
  6
BYLAYER
 10
14.0088851835
 20
23.1106728222
 40
8.4048813592
100
AcDbArc
 50
103.2458156003
 51
103.6890294162
  0
ARC
  5
3CE
100
AcDbEntity
  8
0
100
AcDbCircle
 62
7
  6
BYLAYER
 10
13.8444982607
 20
23.0213687267
 40
8.3434141218
100
AcDbArc
 50
186.6239431509
 51
186.936619981
  0
ARC
  5
3CF
100
AcDbEntity
  8
0
100
AcDbCircle
 62
7
  6
BYLAYER
 10
13.833940658
 20
23.0201386017
 40
8.3327850971
100
AcDbArc
 50
186.4426464388
 51
186.6239151647
  0
ARC
  5
3D0
100
AcDbEntity
  8
0
100
AcDbCircle
 62
7
  6
BYLAYER
 10
13.8223720111
 20
23.0188381859
 40
8.3211435922
100
AcDbArc
 50
186.0866311668
 51
186.4426870512
  0
ARC
  5
3D1
100
AcDbEntity
  8
0
100
AcDbCircle
 62
7
  6
BYLAYER
 10
14.23764806
 20
23.0768453356
 40
8.2557790172
100
AcDbArc
 50
19.3564610652
 51
19.7566439547
  0
ARC
  5
3D2
100
AcDbEntity
  8
0
100
AcDbCircle
 62
7
  6
BYLAYER
 10
14.2521128216
 20
23.0819327765
 40
8.240445676
100
AcDbArc
 50
19.0812225291
 51
19.3564220609
  0
ARC
  5
3D3
100
AcDbEntity
  8
0
100
AcDbCircle
 62
7
  6
BYLAYER
 10
14.266385532
 20
23.0868648032
 40
8.225344844
100
AcDbArc
 50
18.6952108825
 51
19.0812561326
  0
ARC
  5
3D4
100
AcDbEntity
  8
0
100
AcDbCircle
 62
7
  6
BYLAYER
 10
14.2805862209
 20
23.0916757378
 40
8.2103513577
100
AcDbArc
 50
18.4296662282
 51
18.6951739343
  0
ARC
  5
3D5
100
AcDbEntity
  8
0
100
AcDbCircle
 62
7
  6
BYLAYER
 10
13.7281712832
 20
23.1316374221
 40
8.2048667912
100
AcDbArc
 50
157.1146410119
 51
157.6118314966
  0
ARC
  5
3D6
100
AcDbEntity
  8
0
100
AcDbCircle
 62
7
  6
BYLAYER
 10
14.2065935252
 20
23.2300605708
 40
8.2046513082
100
AcDbArc
 50
47.1178178057
 51
47.6131249514
  0
ARC
  5
3D7
100
AcDbEntity
  8
0
100
AcDbCircle
 62
7
  6
BYLAYER
 10
13.9431611714
 20
23.3122675924
 40
8.1954555273
100
AcDbArc
 50
102.6780533108
 51
103.3006118563
  0
ARC
  5
3D8
100
AcDbEntity
  8
0
100
AcDbCircle
 62
7
  6
BYLAYER
 10
14.2157860052
 20
23.238179237
 40
8.1924912712
100
AcDbArc
 50
50.218192483
 51
50.5181389627
  0
ARC
  5
3D9
100
AcDbEntity
  8
0
100
AcDbCircle
 62
7
  6
BYLAYER
 10
13.7120521018
 20
23.1382804354
 40
8.1874324106
100
AcDbArc
 50
157.6118512959
 51
158.0547404257
  0
ARC
  5
3DA
100
AcDbEntity
  8
0
100
AcDbCircle
 62
7
  6
BYLAYER
 10
14.2235990275
 20
23.2487327931
 40
8.1793958483
100
AcDbArc
 50
47.6129348754
 51
48.4828055239
  0
ARC
  5
3DB
100
AcDbEntity
  8
0
100
AcDbCircle
 62
7
  6
BYLAYER
 10
13.6992838892
 20
23.123327358
 40
8.1782532651
100
AcDbArc
 50
157.8365189117
 51
158.1797424682
  0
ARC
  5
3DC
100
AcDbEntity
  8
0
100
AcDbCircle
 62
7
  6
BYLAYER
 10
14.3050906203
 20
23.1249437369
 40
8.1767444634
100
AcDbArc
 50
17.8437756997
 51
18.1772793352
  0
ARC
  5
3DD
100
AcDbEntity
  8
0
100
AcDbCircle
 62
7
  6
BYLAYER
 10
13.7001136672
 20
23.1430987678
 40
8.1745583091
100
AcDbArc
 50
158.0547934393
 51
158.2967879489
  0
ARC
  5
3DE
100
AcDbEntity
  8
0
100
AcDbCircle
 62
7
  6
BYLAYER
 10
13.9384137523
 20
23.3332887265
 40
8.1739049882
100
AcDbArc
 50
102.3416218258
 51
102.6779263706
  0
ARC
  5
3DF
100
AcDbEntity
  8
0
100
AcDbCircle
 62
7
  6
BYLAYER
 10
13.6906352814
 20
23.1468695658
 40
8.1643573918
100
AcDbArc
 50
158.2967766992
 51
158.5934504741
  0
ARC
  5
3E0
100
AcDbEntity
  8
0
100
AcDbCircle
 62
7
  6
BYLAYER
 10
14.2348085224
 20
23.2609381643
 40
8.162829481
100
AcDbArc
 50
49.262475788
 51
50.2185848132
  0
ARC
  5
3E1
100
AcDbEntity
  8
0
100
AcDbCircle
 62
7
  6
BYLAYER
 10
13.6844510826
 20
23.1292664038
 40
8.1622756428
100
AcDbArc
 50
158.1797441781
 51
158.5188963649
  0
ARC
  5
3E2
100
AcDbEntity
  8
0
100
AcDbCircle
 62
7
  6
BYLAYER
 10
13.9357379652
 20
23.3454979197
 40
8.1614060196
100
AcDbArc
 50
102.1242537856
 51
102.3415912377
  0
ARC
  5
3E3
100
AcDbEntity
  8
0
100
AcDbCircle
 62
7
  6
BYLAYER
 10
14.3200111645
 20
23.1298427237
 40
8.1610402375
100
AcDbArc
 50
18.1772798895
 51
18.5101747409
  0
ARC
  5
3E4
100
AcDbEntity
  8
0
100
AcDbCircle
 62
7
  6
BYLAYER
 10
14.2393756228
 20
23.2665030225
 40
8.1556328338
100
AcDbArc
 50
48.4830438909
 51
48.8665956291
  0
ARC
  5
3E5
100
AcDbEntity
  8
0
100
AcDbCircle
 62
7
  6
BYLAYER
 10
13.6811613367
 20
23.150585549
 40
8.1541807443
100
AcDbArc
 50
158.5934631357
 51
158.8298749456
  0
ARC
  5
3E6
100
AcDbEntity
  8
0
100
AcDbCircle
 62
7
  6
BYLAYER
 10
13.6717629757
 20
23.1342637911
 40
8.1486388572
100
AcDbArc
 50
158.5189241221
 51
158.7594359735
  0
ARC
  5
3E7
100
AcDbEntity
  8
0
100
AcDbCircle
 62
7
  6
BYLAYER
 10
14.3338464084
 20
23.1344724074
 40
8.1464509284
100
AcDbArc
 50
18.5101897889
 51
18.793652976
  0
ARC
  5
3E8
100
AcDbEntity
  8
0
100
AcDbCircle
 62
7
  6
BYLAYER
 10
14.2487448225
 20
23.2772280816
 40
8.1413917385
100
AcDbArc
 50
48.8666068524
 51
49.261975546
  0
ARC
  5
3E9
100
AcDbEntity
  8
0
100
AcDbCircle
 62
7
  6
BYLAYER
 10
14.0951680501
 20
23.3635401729
 40
8.1375709971
100
AcDbArc
 50
73.6958711257
 51
74.4793378282
  0
ARC
  5
3EA
100
AcDbEntity
  8
0
100
AcDbCircle
 62
7
  6
BYLAYER
 10
13.6599654898
 20
23.1388471823
 40
8.1359823117
100
AcDbArc
 50
158.759421772
 51
159.0555772259
  0
ARC
  5
3EB
100
AcDbEntity
  8
0
100
AcDbCircle
 62
7
  6
BYLAYER
 10
14.2378066999
 20
23.2931364978
 40
8.1339093275
100
AcDbArc
 50
48.7682615845
 51
49.1391321254
  0
ARC
  5
3EC
100
AcDbEntity
  8
0
100
AcDbCircle
 62
7
  6
BYLAYER
 10
14.1077800824
 20
23.3848522784
 40
8.1136683377
100
AcDbArc
 50
73.0787185896
 51
73.7563489279
  0
ARC
  5
3ED
100
AcDbEntity
  8
0
100
AcDbCircle
 62
7
  6
BYLAYER
 10
14.1087609165
 20
23.3942016658
 40
8.1044048217
100
AcDbArc
 50
74.5130364907
 51
75.640326669
  0
ARC
  5
3EE
100
AcDbEntity
  8
0
100
AcDbCircle
 62
7
  6
BYLAYER
 10
14.1093660649
 20
23.3967186062
 40
8.1018179663
100
AcDbArc
 50
73.7563064272
 51
74.1842003275
  0
ARC
  5
3EF
100
AcDbEntity
  8
0
100
AcDbCircle
 62
7
  6
BYLAYER
 10
14.111781399
 20
23.398303066
 40
8.0996350144
100
AcDbArc
 50
73.4653080653
 51
73.6618781254
  0
ARC
  5
3F0
100
AcDbEntity
  8
0
100
AcDbCircle
 62
7
  6
BYLAYER
 10
14.1125723157
 20
23.4079789226
 40
8.0901100836
100
AcDbArc
 50
74.1843130904
 51
74.5129955631
  0
ARC
  5
3F1
100
AcDbEntity
  8
0
100
AcDbCircle
 62
7
  6
BYLAYER
 10
14.1149793511
 20
23.4092215064
 40
8.0882578781
100
AcDbArc
 50
73.6618596992
 51
73.9378443718
  0
ARC
  5
3F2
100
AcDbEntity
  8
0
100
AcDbCircle
 62
7
  6
BYLAYER
 10
14.406485619
 20
23.1218424425
 40
8.0809117963
100
AcDbArc
 50
14.7562831985
 51
15.1671460575
  0
ARC
  5
3F3
100
AcDbEntity
  8
0
100
AcDbCircle
 62
7
  6
BYLAYER
 10
14.0936887438
 20
23.1356077101
 40
5.6476604758
100
AcDbArc
 50
232.6694507503
 51
235.2480396401
  0
ARC
  5
3F4
100
AcDbEntity
  8
0
100
AcDbCircle
 62
7
  6
BYLAYER
 10
14.1489409554
 20
23.0520569117
 40
5.6469143765
100
AcDbArc
 50
192.3336014995
 51
192.8424899708
  0
ARC
  5
3F5
100
AcDbEntity
  8
0
100
AcDbCircle
 62
7
  6
BYLAYER
 10
14.1089459332
 20
23.1196556909
 40
5.6456579566
100
AcDbArc
 50
221.8029668474
 51
222.8633240338
  0
ARC
  5
3F6
100
AcDbEntity
  8
0
100
AcDbCircle
 62
7
  6
BYLAYER
 10
14.1077362807
 20
23.120398277
 40
5.6453272544
100
AcDbArc
 50
225.6372252341
 51
228.1410741281
  0
ARC
  5
3F7
100
AcDbEntity
  8
0
100
AcDbCircle
 62
7
  6
BYLAYER
 10
14.0094605417
 20
23.1629013391
 40
5.6443932629
100
AcDbArc
 50
264.2460393373
 51
267.3899443529
  0
ARC
  5
3F8
100
AcDbEntity
  8
0
100
AcDbCircle
 62
7
  6
BYLAYER
 10
14.0971604578
 20
23.1232968168
 40
5.6402605533
100
AcDbArc
 50
229.2795618655
 51
232.5664340855
  0
ARC
  5
3F9
100
AcDbEntity
  8
0
100
AcDbCircle
 62
7
  6
BYLAYER
 10
14.0124852195
 20
23.1578745103
 40
5.6399935426
100
AcDbArc
 50
267.503303677
 51
268.3259098081
  0
ARC
  5
3FA
100
AcDbEntity
  8
0
100
AcDbCircle
 62
7
  6
BYLAYER
 10
14.0690247314
 20
23.1390716524
 40
5.6374769021
100
AcDbArc
 50
238.049007953
 51
239.9287763522
  0
ARC
  5
3FB
100
AcDbEntity
  8
0
100
AcDbCircle
 62
7
  6
BYLAYER
 10
14.0353965244
 20
23.0496393088
 40
5.5425115284
100
AcDbArc
 50
249.8209470898
 51
250.9151232583
  0
ARC
  5
3FC
100
AcDbEntity
  8
0
100
AcDbCircle
 62
7
  6
BYLAYER
 10
13.9627430789
 20
23.0326926182
 40
5.5358371741
100
AcDbArc
 50
359.8153570424
 51
1.5805158104
  0
ARC
  5
3FD
100
AcDbEntity
  8
0
100
AcDbCircle
 62
7
  6
BYLAYER
 10
13.9850356796
 20
23.026179263
 40
5.492940857
100
AcDbArc
 50
65.6391812371
 51
66.1328145373
  0
ARC
  5
3FE
100
AcDbEntity
  8
0
100
AcDbCircle
 62
7
  6
BYLAYER
 10
13.9894191341
 20
23.0360805589
 40
5.4821126379
100
AcDbArc
 50
66.1328392595
 51
66.550398875
  0
ARC
  5
3FF
100
AcDbEntity
  8
0
100
AcDbCircle
 62
7
  6
BYLAYER
 10
14.0012083377
 20
23.0636028564
 40
5.4521719736
100
AcDbArc
 50
66.5489618385
 51
68.5577757111
  0
ARC
  5
400
100
AcDbEntity
  8
0
100
AcDbCircle
 62
7
  6
BYLAYER
 10
19.3049781306
 20
17.7100744293
 40
5.0
100
AcDbArc
 50
153.0
 51
225.0
  0
ARC
  5
401
100
AcDbEntity
  8
0
100
AcDbCircle
 62
7
  6
BYLAYER
 10
19.3049781306
 20
17.7100744293
 40
5.0
100
AcDbArc
 50
45.0
 51
117.0
  0
ARC
  5
402
100
AcDbEntity
  8
0
100
AcDbCircle
 62
7
  6
BYLAYER
 10
19.3049781306
 20
17.7100744293
 40
2.0
100
AcDbArc
 50
185.4816172764
 51
225.0
  0
ARC
  5
403
100
AcDbEntity
  8
0
100
AcDbCircle
 62
7
  6
BYLAYER
 10
19.3049781306
 20
17.7100744293
 40
2.0
100
AcDbArc
 50
45.0
 51
80.5355786252
  0
ARC
  5
404
100
AcDbEntity
  8
0
100
AcDbCircle
 62
7
  6
BYLAYER
 10
18.95142474
 20
18.0636278199
 40
1.5
100
AcDbArc
 50
225.0
 51
45.0
  0
ARC
  5
405
100
AcDbEntity
  8
0
100
AcDbCircle
 62
7
  6
BYLAYER
 10
23.8325976923
 20
14.4596578092
 40
1.5999094005
100
AcDbArc
 50
134.9979131552
 51
315.0049070927
  0
ARC
  5
406
100
AcDbEntity
  8
0
100
AcDbCircle
 62
7
  6
BYLAYER
 10
23.6811744982
 20
14.308277978
 40
1.5998740128
100
AcDbArc
 50
131.1655334152
 51
222.4823962217
  0
ARC
  5
407
100
AcDbEntity
  8
0
100
AcDbCircle
 62
7
  6
BYLAYER
 10
23.681357267
 20
14.308092814
 40
1.5998726733
100
AcDbArc
 50
227.5009361849
 51
315.0020868448
  0
ARC
  5
408
100
AcDbEntity
  8
0
100
AcDbCircle
 62
7
  6
BYLAYER
 10
23.6547880173
 20
14.2819507287
 40
1.5998217823
100
AcDbArc
 50
147.1874276403
 51
222.0571088875
  0
ARC
  5
409
100
AcDbEntity
  8
0
100
AcDbCircle
 62
7
  6
BYLAYER
 10
23.6550236575
 20
14.2817045454
 40
1.5998138607
100
AcDbArc
 50
227.9625139348
 51
302.8689317611
  0
ARC
  5
40A
100
AcDbEntity
  8
0
100
AcDbCircle
 62
7
  6
BYLAYER
 10
23.4375488122
 20
14.0647494819
 40
1.5997902243
100
AcDbArc
 50
134.9950929073
 51
221.3649021199
  0
ARC
  5
40B
100
AcDbEntity
  8
0
100
AcDbCircle
 62
7
  6
BYLAYER
 10
23.4378283192
 20
14.0644663481
 40
1.5997882275
100
AcDbArc
 50
228.6107251861
 51
315.0020868448
  0
ARC
  5
40C
100
AcDbEntity
  8
0
100
AcDbCircle
 62
7
  6
BYLAYER
 10
23.1934001765
 20
13.8215605151
 40
1.5991241556
100
AcDbArc
 50
134.9976724957
 51
315.0023356869
  0
ARC
  5
40D
100
AcDbEntity
  8
0
100
AcDbCircle
 62
7
  6
BYLAYER
 10
24.1582535954
 20
14.7930229192
 40
1.5943677164
100
AcDbArc
 50
119.592608757
 51
324.7329803956
  0
ARC
  5
40E
100
AcDbEntity
  8
0
100
AcDbCircle
 62
7
  6
BYLAYER
 10
23.4255197991
 20
14.0522144339
 40
1.5824732604
100
AcDbArc
 50
221.3121002489
 51
228.6631853816
  0
ARC
  5
40F
100
AcDbEntity
  8
0
100
AcDbCircle
 62
7
  6
BYLAYER
 10
23.6407230977
 20
14.2677983772
 40
1.579904985
100
AcDbArc
 50
222.0100324758
 51
228.0099969443
  0
ARC
  5
410
100
AcDbEntity
  8
0
100
AcDbCircle
 62
7
  6
BYLAYER
 10
23.6659451392
 20
14.2927546957
 40
1.5781523993
100
AcDbArc
 50
222.4401789556
 51
227.5428688296
  0
ARC
  5
411
100
AcDbEntity
  8
0
100
AcDbCircle
 62
7
  6
BYLAYER
 10
24.1636340754
 20
14.7864818498
 40
1.5027923022
100
AcDbArc
 50
134.9979131552
 51
145.1977895662
  0
ARC
  5
412
100
AcDbEntity
  8
0
100
AcDbCircle
 62
7
  6
BYLAYER
 10
24.1599211447
 20
14.7900899599
 40
1.5022076555
100
AcDbArc
 50
305.2670196044
 51
315.0049070927
  0
ARC
  5
413
100
AcDbEntity
  8
0
100
AcDbCircle
 62
7
  6
BYLAYER
 10
23.6813353722
 20
14.3081186732
 40
1.4999060269
100
AcDbArc
 50
226.4207930827
 51
305.2400816651
  0
ARC
  5
414
100
AcDbEntity
  8
0
100
AcDbCircle
 62
7
  6
BYLAYER
 10
23.6811934744
 20
14.3082585634
 40
1.4999044941
100
AcDbArc
 50
145.2265797586
 51
223.5885538625
  0
ARC
  5
415
100
AcDbEntity
  8
0
100
AcDbCircle
 62
7
  6
BYLAYER
 10
23.4378058215
 20
14.0645538541
 40
1.499879676
100
AcDbArc
 50
227.600247846
 51
305.2404035041
  0
ARC
  5
416
100
AcDbEntity
  8
0
100
AcDbCircle
 62
7
  6
BYLAYER
 10
23.4376289813
 20
14.0647284415
 40
1.499878436
100
AcDbArc
 50
145.2262554363
 51
222.4169807362
  0
ARC
  5
417
100
AcDbEntity
  8
0
100
AcDbCircle
 62
7
  6
BYLAYER
 10
24.1654358827
 20
14.7834846981
 40
1.4936306735
100
AcDbArc
 50
149.2871256852
 51
305.240596367
  0
ARC
  5
418
100
AcDbEntity
  8
0
100
AcDbCircle
 62
7
  6
BYLAYER
 10
24.1557476498
 20
14.7928344128
 40
1.4926910199
100
AcDbArc
 50
145.2252389769
 51
149.3064580693
  0
ARC
  5
419
100
AcDbEntity
  8
0
100
AcDbCircle
 62
7
  6
BYLAYER
 10
23.4234656489
 20
14.0504992682
 40
1.4798252707
100
AcDbArc
 50
222.3741946296
 51
227.6433263116
  0
ARC
  5
41A
100
AcDbEntity
  8
0
100
AcDbCircle
 62
7
  6
BYLAYER
 10
23.6638559939
 20
14.290812163
 40
1.4753188958
100
AcDbArc
 50
223.560255942
 51
226.4492246373
  0
ARC
  5
41B
100
AcDbEntity
  8
0
100
AcDbCircle
 62
7
  6
BYLAYER
 10
25.6689996198
 20
16.2959163129
 40
1.4998240681
100
AcDbArc
 50
224.9998645979
 51
44.9999958701
  0
SPLINE
  5
41C
100
AcDbEntity
  8
0
100
AcDbSpline
 62
7
  6
BYLAYER
 70
0
 71
3
 72
12
 73
8
 74
0
 42
0.0000001
 43
0.0000001
 44
0.0000000001
 40
0.0
 40
0.0
 40
0.0
 40
0.0
 40
0.1248500964
 40
0.2497207704
 40
0.4995619153
 40
0.7497299782
 40
1.0
 40
1.0
 40
1.0
 40
1.0
 10
10.3185239962
 20
15.353329785
 30
0.0
 10
10.1529087347
 20
15.4325546423
 30
0.0
 10
9.8268169792
 20
15.6021447391
 30
0.0
 10
9.1992350401
 20
15.9847812217
 30
0.0
 10
8.4638050473
 20
16.5404877906
 30
0.0
 10
7.6740353643
 20
17.3147705781
 30
0.0
 10
7.2162557519
 20
17.8939191801
 30
0.0
 10
7.0068161711
 20
18.1965262985
 30
0.0
  0
SPLINE
  5
41D
100
AcDbEntity
  8
0
100
AcDbSpline
 62
7
  6
BYLAYER
 70
0
 71
3
 72
11
 73
7
 74
0
 42
0.0000001
 43
0.0000001
 44
0.0000000001
 40
0.0
 40
0.0
 40
0.0
 40
0.0
 40
0.2503102122
 40
0.5003699309
 40
0.7501631392
 40
1.0
 40
1.0
 40
1.0
 40
1.0
 10
19.5533107059
 20
29.439965147
 30
0.0
 10
19.8154262475
 20
29.2137388231
 30
0.0
 10
20.3129816924
 20
28.7298192067
 30
0.0
 10
20.9661841318
 20
27.9203741023
 30
0.0
 10
21.5142290756
 20
27.0368493389
 30
0.0
 10
21.8014416958
 20
26.4058751491
 30
0.0
 10
21.9251144836
 20
26.0831756515
 30
0.0
  0
LINE
  5
41E
100
AcDbEntity
  8
0
100
AcDbLine
 62
7
  6
BYLAYER
 10
7.0019854669
 20
18.1932206718
 11
6.994713179
 21
18.2038659463
  0
SPLINE
  5
41F
100
AcDbEntity
  8
0
100
AcDbSpline
 62
7
  6
BYLAYER
 70
0
 71
3
 72
14
 73
10
 74
0
 42
0.0000001
 43
0.0000001
 44
0.0000000001
 40
0.0
 40
0.0
 40
0.0
 40
0.0
 40
0.1161725233
 40
0.2337828654
 40
0.3539894894
 40
0.4775253407
 40
0.6044979051
 40
0.7346626074
 40
1.0
 40
1.0
 40
1.0
 40
1.0
 10
4.8381192041
 20
30.0557035852
 30
0.0
 10
4.7780024926
 20
30.1158202968
 30
0.0
 10
4.6703804116
 20
30.2510489791
 30
0.0
 10
4.5577829697
 20
30.4866060951
 30
0.0
 10
4.4970485721
 20
30.7460385141
 30
0.0
 10
4.4905514565
 20
31.0190435438
 30
0.0
 10
4.5379648726
 20
31.2953420362
 30
0.0
 10
4.6707676941
 20
31.6554992665
 30
0.0
 10
4.8428692034
 20
31.8975708916
 30
0.0
 10
4.9801754358
 20
32.034877124
 30
0.0
  0
SPLINE
  5
420
100
AcDbEntity
  8
0
100
AcDbSpline
 62
7
  6
BYLAYER
 70
0
 71
3
 72
40
 73
36
 74
0
 42
0.0000001
 43
0.0000001
 44
0.0000000001
 40
0.0
 40
0.0
 40
0.0
 40
0.0
 40
0.0002249704
 40
0.0008976092
 40
0.0019837241
 40
0.0034434109
 40
0.0052362088
 40
0.0073270214
 40
0.0123694551
 40
0.0185399336
 40
0.0258148277
 40
0.0341715124
 40
0.0435892699
 40
0.0655262892
 40
0.0914688606
 40
0.1212605917
 40
0.1547115432
 40
0.1915319605
 40
0.2312706202
 40
0.2734721452
 40
0.3177182747
 40
0.4110159166
 40
0.5078112443
 40
0.6042523461
 40
0.6965084309
 40
0.7813940287
 40
0.8557461329
 40
0.8878770984
 40
0.9162751773
 40
0.9407641607
 40
0.9611912085
 40
0.9773956705
 40
0.9892057898
 40
0.9964976731
 40
1.0
 40
1.0
 40
1.0
 40
1.0
 10
14.0013829524
 20
14.516770689
 30
0.0
 10
14.0011690371
 20
14.5167010371
 30
0.0
 10
14.0012632685
 20
14.5182557258
 30
0.0
 10
14.0010026427
 20
14.5196088077
 30
0.0
 10
14.0010652488
 20
14.5231731031
 30
0.0
 10
14.0010133645
 20
14.5273667587
 30
0.0
 10
14.0010357262
 20
14.532762756
 30
0.0
 10
14.0010383882
 20
14.541665584
 30
0.0
 10
14.0010544413
 20
14.5549835038
 30
0.0
 10
14.0010663641
 20
14.5734653313
 30
0.0
 10
14.0010808237
 20
14.5952692836
 30
0.0
 10
14.0010946239
 20
14.6203178227
 30
0.0
 10
14.0011145055
 20
14.6600293401
 30
0.0
 10
14.0011387723
 20
14.7173262195
 30
0.0
 10
14.0011667043
 20
14.7949971881
 30
0.0
 10
14.0011942876
 20
14.8841819446
 30
0.0
 10
14.001221218
 20
14.9842445175
 30
0.0
 10
14.001247167
 20
15.0942539581
 30
0.0
 10
14.0012719811
 20
15.2130139289
 30
0.0
 10
14.0012954333
 20
15.3391995723
 30
0.0
 10
14.001325157
 20
15.5189439142
 30
0.0
 10
14.0013572214
 20
15.7532817696
 30
0.0
 10
14.0013866109
 20
16.0398143226
 30
0.0
 10
14.0014058102
 20
16.3253053204
 30
0.0
 10
14.0014147695
 20
16.5988866679
 30
0.0
 10
14.0014135533
 20
16.8503790817
 30
0.0
 10
14.0014033226
 20
17.0417468433
 30
0.0
 10
14.0013894693
 20
17.1766270912
 30
0.0
 10
14.0013753883
 20
17.2616451175
 30
0.0
 10
14.0013643142
 20
17.3349574855
 30
0.0
 10
14.0013360717
 20
17.3960814964
 30
0.0
 10
14.001346962
 20
17.4445127358
 30
0.0
 10
14.0012583718
 20
17.479842572
 30
0.0
 10
14.0013682387
 20
17.5024021661
 30
0.0
 10
14.0012464967
 20
17.5132535175
 30
0.0
 10
14.0017672491
 20
17.5167168945
 30
0.0
  0
SPLINE
  5
421
100
AcDbEntity
  8
0
100
AcDbSpline
 62
7
  6
BYLAYER
 70
0
 71
3
 72
14
 73
10
 74
0
 42
0.0000001
 43
0.0000001
 44
0.0000000001
 40
0.0
 40
0.0
 40
0.0
 40
0.0
 40
0.1161725233
 40
0.2337828654
 40
0.3539894894
 40
0.4775253407
 40
0.6044979051
 40
0.7346626074
 40
1.0
 40
1.0
 40
1.0
 40
1.0
 10
10.775685107
 20
28.3605972233
 30
0.0
 10
10.7155683955
 20
28.4207139348
 30
0.0
 10
10.5803397132
 20
28.5283360159
 30
0.0
 10
10.3447825972
 20
28.6409334577
 30
0.0
 10
10.0853501782
 20
28.7016678553
 30
0.0
 10
9.8123451485
 20
28.7081649709
 30
0.0
 10
9.536046656
 20
28.6607515548
 30
0.0
 10
9.1758894257
 20
28.5279487333
 30
0.0
 10
8.9338178007
 20
28.355847224
 30
0.0
 10
8.7965115682
 20
28.2185409916
 30
0.0
  0
SPLINE
  5
422
100
AcDbEntity
  8
0
100
AcDbSpline
 62
7
  6
BYLAYER
 70
0
 71
3
 72
14
 73
10
 74
0
 42
0.0000001
 43
0.0000001
 44
0.0000000001
 40
0.0
 40
0.0
 40
0.0
 40
0.0
 40
0.2653373926
 40
0.3955020949
 40
0.5224746593
 40
0.6460105106
 40
0.7662171346
 40
0.8838274767
 40
1.0
 40
1.0
 40
1.0
 40
1.0
 10
8.7965115682
 20
28.2185409916
 30
0.0
 10
8.6592053358
 20
28.0812347591
 30
0.0
 10
8.4871038266
 20
27.8391631341
 30
0.0
 10
8.3543010051
 20
27.4790059038
 30
0.0
 10
8.306887589
 20
27.2027074113
 30
0.0
 10
8.3133847046
 20
26.9297023817
 30
0.0
 10
8.3741191022
 20
26.6702699626
 30
0.0
 10
8.486716544
 20
26.4347128466
 30
0.0
 10
8.594338625
 20
26.2994841643
 30
0.0
 10
8.6544553365
 20
26.2393674528
 30
0.0
  0
SPLINE
  5
423
100
AcDbEntity
  8
0
100
AcDbSpline
 62
7
  6
BYLAYER
 70
0
 71
3
 72
14
 73
10
 74
0
 42
0.0000001
 43
0.0000001
 44
0.0000000001
 40
0.0
 40
0.0
 40
0.0
 40
0.0
 40
0.2653373926
 40
0.3955020949
 40
0.5224746593
 40
0.6460105106
 40
0.7662171346
 40
0.8838274767
 40
1.0
 40
1.0
 40
1.0
 40
1.0
 10
4.9801754358
 20
32.034877124
 30
0.0
 10
5.1174816683
 20
32.1721833565
 30
0.0
 10
5.3595532933
 20
32.3442848657
 30
0.0
 10
5.7197105236
 20
32.4770876872
 30
0.0
 10
5.9960090161
 20
32.5245011033
 30
0.0
 10
6.2690140457
 20
32.5180039877
 30
0.0
 10
6.5284464648
 20
32.4572695901
 30
0.0
 10
6.7640035808
 20
32.3446721483
 30
0.0
 10
6.8992322631
 20
32.2370500673
 30
0.0
 10
6.9593489746
 20
32.1769333557
 30
0.0
  0
ENDSEC
  0
SECTION
  2
OBJECTS
  0
DICTIONARY
  5
C
100
AcDbDictionary
280
0
281
1
  3
ACAD_GROUP
350
D
  3
ACAD_MLINESTYLE
350
17
  3
ACAD_LAYOUT
350
1A
  3
ACAD_PLOTSETTINGS
350
19
  3
ACAD_PLOTSTYLENAME
350
E
  0
DICTIONARY
  5
D
102
{ACAD_REACTORS
330
C
102
}
100
AcDbDictionary
280
0
281
1
  0
ACDBDICTIONARYWDFLT
  5
E
102
{ACAD_REACTORS
330
C
102
}
100
AcDbDictionary
281
1
  3
Normal
350
F
100
AcDbDictionaryWithDefault
340
F
  0
DICTIONARY
  5
17
102
{ACAD_REACTORS
330
C
102
}
100
AcDbDictionary
280
0
281
1
  3
Standard
350
18
  0
DICTIONARY
  5
19
102
{ACAD_REACTORS
330
C
102
}
100
AcDbDictionary
281
1
  0
DICTIONARY
  5
1A
102
{ACAD_REACTORS
330
C
102
}
100
AcDbDictionary
281
1
  3
Model
350
424
  3
Layout1
350
425
  0
ACDBPLACEHOLDER
  5
F
102
{ACAD_REACTORS
330
E
102
}
  0
MLINESTYLE
  5
18
102
{ACAD_REACTORS
330
17
102
}
100
AcDbMlineStyle
  2
STANDARD
 70
0
  3

 62
256
 51
90.0
 52
90.0
 71
2
 49
0.5
 62
256
  6
BYLAYER
 49
-0.5
 62
256
  6
BYLAYER
  0
LAYOUT
  5
424
102
{ACAD_REACTORS
330
1A
102
}
100
AcDbPlotSettings
  1

  2
none_device
  4

  6

 40
0.0
 41
0.0
 42
0.0
 43
0.0
 44
210.0
 45
297.0
 46
0.0
 47
0.0
 48
0.0
 49
0.0
140
0.0
141
0.0
142
1.0
143
1.0
 70
1024
 72
1
 73
0
 74
0
  7

 75
0
147
1.0
148
0.0
149
0.0
100
AcDbLayout
  1
Model
 70
0
 71
0
 10
0.0
 20
0.0
 11
210.0
 21
297.0
 12
0.0
 22
0.0
 32
0.0
 14
0.0
 24
0.0
 34
0.0
 15
0.0
 25
0.0
 35
0.0
146
0.0
 13
0.0
 23
0.0
 33
0.0
 16
1.0
 26
0.0
 36
0.0
 17
0.0
 27
1.0
 37
0.0
 76
0
330
210
345
0
346
0
  0
LAYOUT
  5
425
102
{ACAD_REACTORS
330
1A
102
}
100
AcDbPlotSettings
  1

  2
none_device
  4

  6

 40
0.0
 41
0.0
 42
0.0
 43
0.0
 44
210.0
 45
297.0
 46
0.0
 47
0.0
 48
0.0
 49
0.0
140
0.0
141
0.0
142
1.0
143
1.0
 70
0
 72
1
 73
0
 74
0
  7

 75
0
147
1.0
148
0.0
149
0.0
100
AcDbLayout
  1
Layout1
 70
0
 71
1
 10
0.0
 20
0.0
 11
210.0
 21
297.0
 12
0.0
 22
0.0
 32
0.0
 14
0.0
 24
0.0
 34
0.0
 15
0.0
 25
0.0
 35
0.0
146
0.0
 13
0.0
 23
0.0
 33
0.0
 16
1.0
 26
0.0
 36
0.0
 17
0.0
 27
1.0
 37
0.0
 76
0
330
211
345
0
346
0
  0
ENDSEC
  0
EOF
