999
DXF file: C:\Users\sesa63760\Dev\_Creo\CAD\MCADID0004051_3D-CAD\drw0001_1.dxf
999
Pro/ENGINEER 2019471 by Parametric Technology Corporation
  0
SECTION
  2
HEADER
  9
$ACADVER
  1
AC1024
  9
$DWGCODEPAGE
  3
ANSI_1252
  9
$EXTMAX
 10
58.8077489021
 20
83.1709591616
 30
0.0
  9
$EXTMIN
 10
0.0
 20
0.0
 30
0.0
  9
$LIMMIN
 10
0.0
 20
0.0
  9
$LIMMAX
 10
58.8077489021
 20
83.1709591616
  9
$VIEWCTR
 10
29.4038744511
 20
41.5854795808
  9
$VIEWSIZE
 40
83.1709591616
  9
$CLAYER
  8
0
  9
$LTSCALE
 40
5.421514375
  9
$CELTYPE
  6
BYLAYER
  9
$DIMSCALE
 40
1.0
  9
$DIMASZ
 40
0.7000922488
  9
$DIMEXO
 40
1.0
  9
$DIMDLI
 40
3.7457735682
  9
$DIMEXE
 40
1.0
  9
$DIMCEN
 40
0.8871568977
  9
$DIMLFAC
 40
1.0
  9
$DIMBLK
  1
_FILLED
  9
$DIMALT
 70
0
  9
$DIMALTF
 40
0.0393700787
  9
$DIMTXT
 40
0.9801291484
  9
$DIMTOL
 70
1
  9
$DIMLIM
 70
0
  9
$DIMTFAC
 40
1.0
  9
$DIMTP
 40
0.01
  9
$DIMTM
 40
0.01
  9
$DIMGAP
 40
0.625
  9
$DIMDSEP
 70
46
  9
$AUNITS
 70
0
  9
$PDMODE
 70
3
  9
$PDSIZE
 40
0.3125
  9
$HANDSEED
  5
4E6
  9
$TILEMODE
 70
1
  9
$MEASUREMENT
 70
1
  9
$INSUNITS
 70
4
  0
ENDSEC
  0
SECTION
  2
CLASSES
  0
CLASS
  1
ACDBDICTIONARYWDFLT
  2
AcDbDictionaryWithDefault
  3
AutoCAD 2000
 90
0
 91
1
280
0
281
0
  0
CLASS
  1
ACDBPLACEHOLDER
  2
AcDbPlaceHolder
  3
AutoCAD 2000
 90
0
 91
1
280
0
281
0
  0
CLASS
  1
LAYOUT
  2
AcDbLayout
  3
AutoCAD 2000
 90
0
 91
0
280
0
281
0
  0
ENDSEC
  0
SECTION
  2
TABLES
  0
TABLE
  2
VPORT
  5
8
100
AcDbSymbolTable
 70
2
  0
VPORT
  5
1F4
100
AcDbSymbolTableRecord
100
AcDbViewportTableRecord
  2
*ACTIVE
 70
0
 10
0.0
 20
0.0
 11
1.0
 21
1.0
 12
29.4038744511
 22
41.5854795808
 13
0.0
 23
0.0
 14
1.0
 24
1.0
 15
0.0
 25
0.0
 16
0.0
 26
0.0
 36
1.0
 17
0.0
 27
0.0
 37
0.0
 40
83.1709591616
 41
0.7070707071
 42
50.0
 43
0.0
 44
0.0
 50
0.0
 51
0.0
 71
0
 72
100
 73
1
 74
1
 75
0
 76
0
 77
0
 78
0
  0
ENDTAB
  0
TABLE
  2
LTYPE
  5
5
100
AcDbSymbolTable
 70
6
  0
LTYPE
  5
14
100
AcDbSymbolTableRecord
100
AcDbLinetypeTableRecord
  2
BYBLOCK
 70
0
  3

 72
65
 73
0
 40
0.0
  0
LTYPE
  5
15
100
AcDbSymbolTableRecord
100
AcDbLinetypeTableRecord
  2
BYLAYER
 70
0
  3

 72
65
 73
0
 40
0.0
  0
LTYPE
  5
16
100
AcDbSymbolTableRecord
100
AcDbLinetypeTableRecord
  2
CONTINUOUS
 70
64
  3
Solid line
 72
65
 73
0
 40
0.0
  0
LTYPE
  5
1F5
100
AcDbSymbolTableRecord
100
AcDbLinetypeTableRecord
  2
CENTER
 70
64
  3
____ _ ____ _ ____ _ ____ _ ____ _ ____ _ ____
 72
65
 73
4
 40
0.6
 49
0.375
 74
0
 49
-0.075
 74
0
 49
0.075
 74
0
 49
-0.075
 74
0
  0
LTYPE
  5
1F6
100
AcDbSymbolTableRecord
100
AcDbLinetypeTableRecord
  2
HIDDEN
 70
64
  3
- - - - - - - - - - - - - - - - - - - -
 72
65
 73
2
 40
0.2
 49
0.1
 74
0
 49
-0.1
 74
0
  0
LTYPE
  5
1F7
100
AcDbSymbolTableRecord
100
AcDbLinetypeTableRecord
  2
PHANTOM
 70
64
  3
_____ _ _ _____ _ _ _____ _ _ _____
 72
65
 73
6
 40
0.8
 49
0.45
 74
0
 49
-0.05
 74
0
 49
0.1
 74
0
 49
-0.05
 74
0
 49
0.1
 74
0
 49
-0.05
 74
0
  0
LTYPE
  5
1F8
100
AcDbSymbolTableRecord
100
AcDbLinetypeTableRecord
  2
DOT
 70
64
  3
. . . . . . . . . . . . . . . . . . . .
 72
65
 73
2
 40
0.2
 49
0.1
 74
0
 49
-0.1
 74
0
  0
LTYPE
  5
1F9
100
AcDbSymbolTableRecord
100
AcDbLinetypeTableRecord
  2
DASHED
 70
64
  3
- - - - - - - - - - - - - - - - - - - -
 72
65
 73
2
 40
0.2
 49
0.1
 74
0
 49
-0.1
 74
0
  0
ENDTAB
  0
TABLE
  2
LAYER
  5
2
100
AcDbSymbolTable
 70
36
  0
LAYER
  5
10
100
AcDbSymbolTableRecord
100
AcDbLayerTableRecord
  2
0
 70
0
 62
7
  6
CONTINUOUS
370
-3
390
F
  0
LAYER
  5
1FA
100
AcDbSymbolTableRecord
100
AcDbLayerTableRecord
  2
DEFAULT_1
 70
0
 62
7
  6
CENTER
370
-3
390
F
  0
LAYER
  5
1FB
100
AcDbSymbolTableRecord
100
AcDbLayerTableRecord
  2
DEFAULT_2
 70
0
 62
7
  6
HIDDEN
370
-3
390
F
  0
LAYER
  5
1FC
100
AcDbSymbolTableRecord
100
AcDbLayerTableRecord
  2
DEFAULT_3
 70
0
 62
7
  6
PHANTOM
370
-3
390
F
  0
LAYER
  5
1FD
100
AcDbSymbolTableRecord
100
AcDbLayerTableRecord
  2
00_COMPONENTS
 70
0
 62
7
  6
CONTINUOUS
370
-3
390
F
  0
LAYER
  5
1FE
100
AcDbSymbolTableRecord
100
AcDbLayerTableRecord
  2
01_1_DEFAULT_DATUMS
 70
0
 62
7
  6
CONTINUOUS
370
-3
390
F
  0
LAYER
  5
1FF
100
AcDbSymbolTableRecord
100
AcDbLayerTableRecord
  2
01_PLANES
 70
0
 62
7
  6
CONTINUOUS
370
-3
390
F
  0
LAYER
  5
200
100
AcDbSymbolTableRecord
100
AcDbLayerTableRecord
  2
02_COORD_SYS
 70
0
 62
7
  6
CONTINUOUS
370
-3
390
F
  0
LAYER
  5
201
100
AcDbSymbolTableRecord
100
AcDbLayerTableRecord
  2
03_AXES
 70
0
 62
7
  6
CONTINUOUS
370
-3
390
F
  0
LAYER
  5
202
100
AcDbSymbolTableRecord
100
AcDbLayerTableRecord
  2
04_POINTS
 70
0
 62
7
  6
CONTINUOUS
370
-3
390
F
  0
LAYER
  5
203
100
AcDbSymbolTableRecord
100
AcDbLayerTableRecord
  2
05_CURVES
 70
0
 62
7
  6
CONTINUOUS
370
-3
390
F
  0
LAYER
  5
204
100
AcDbSymbolTableRecord
100
AcDbLayerTableRecord
  2
06_SURFS
 70
0
 62
7
  6
CONTINUOUS
370
-3
390
F
  0
LAYER
  5
205
100
AcDbSymbolTableRecord
100
AcDbLayerTableRecord
  2
07_COSMETICS
 70
0
 62
7
  6
CONTINUOUS
370
-3
390
F
  0
LAYER
  5
206
100
AcDbSymbolTableRecord
100
AcDbLayerTableRecord
  2
10_NOTES
 70
0
 62
7
  6
CONTINUOUS
370
-3
390
F
  0
LAYER
  5
207
100
AcDbSymbolTableRecord
100
AcDbLayerTableRecord
  2
11_NOTES_PUB
 70
0
 62
7
  6
CONTINUOUS
370
-3
390
F
  0
LAYER
  5
208
100
AcDbSymbolTableRecord
100
AcDbLayerTableRecord
  2
13_REF_GTOL
 70
0
 62
7
  6
CONTINUOUS
370
-3
390
F
  0
LAYER
  5
209
100
AcDbSymbolTableRecord
100
AcDbLayerTableRecord
  2
16_MISC
 70
0
 62
7
  6
CONTINUOUS
370
-3
390
F
  0
LAYER
  5
20A
100
AcDbSymbolTableRecord
100
AcDbLayerTableRecord
  2
17_NO_PRINT
 70
0
 62
7
  6
CONTINUOUS
370
-3
390
F
  0
LAYER
  5
20B
100
AcDbSymbolTableRecord
100
AcDbLayerTableRecord
  2
18_DATUM_CAMS_JOINTS
 70
0
 62
7
  6
CONTINUOUS
370
-3
390
F
  0
LAYER
  5
20C
100
AcDbSymbolTableRecord
100
AcDbLayerTableRecord
  2
19_DATUM_FUNCTIONAL
 70
0
 62
7
  6
CONTINUOUS
370
-3
390
F
  0
LAYER
  5
20D
100
AcDbSymbolTableRecord
100
AcDbLayerTableRecord
  2
20_DATUM_KINEMATIC_SCHEME
 70
0
 62
7
  6
CONTINUOUS
370
-3
390
F
  0
ENDTAB
  0
TABLE
  2
STYLE
  5
3
100
AcDbSymbolTable
 70
1
  0
STYLE
  5
11
100
AcDbSymbolTableRecord
100
AcDbTextStyleTableRecord
  2
STANDARD
 70
0
 40
0.0
 41
1.0
 50
0.0
 71
0
 42
0.2
  3
ARIAL.TTF
  4

  0
STYLE
  5
20E
100
AcDbSymbolTableRecord
100
AcDbTextStyleTableRecord
  2
TEXTSTYLE_1
 70
0
 40
0.0
 41
0.8
 50
0.0
 71
0
 42
0.2
  3
gdt
  4

  0
ENDTAB
  0
TABLE
  2
VIEW
  5
6
100
AcDbSymbolTable
 70
0
  0
ENDTAB
  0
TABLE
  2
UCS
  5
7
100
AcDbSymbolTable
 70
0
  0
ENDTAB
  0
TABLE
  2
APPID
  5
9
100
AcDbSymbolTable
 70
1
  0
APPID
  5
20F
100
AcDbSymbolTableRecord
100
AcDbRegAppTableRecord
  2
ACAD
 70
0
  0
ENDTAB
  0
TABLE
  2
BLOCK_RECORD
  5
1
100
AcDbSymbolTable
 70
0
  0
BLOCK_RECORD
  5
210
100
AcDbSymbolTableRecord
100
AcDbBlockTableRecord
  2
*Model_Space
  0
BLOCK_RECORD
  5
211
100
AcDbSymbolTableRecord
100
AcDbBlockTableRecord
  2
*Paper_Space
  0
BLOCK_RECORD
  5
212
100
AcDbSymbolTableRecord
100
AcDbBlockTableRecord
  2
_FILLED
  0
ENDTAB
  0
TABLE
  2
DIMSTYLE
  5
A
100
AcDbSymbolTable
 70
1
100
AcDbDimStyleTable
 71
0
  0
DIMSTYLE
105
213
100
AcDbSymbolTableRecord
100
AcDbDimStyleTableRecord
  2
STANDARD
 70
0
  3

  4

 40
1.0
 41
0.7000922488
 42
1.0
 43
0.38
 44
1.0
 45
0.0
 46
0.0
 47
0.01
 48
0.01
140
0.9801291484
141
0.09
142
0.0
143
25.4
144
1.0
145
0.0
146
1.0
147
0.625
 71
1
 72
0
 73
0
 74
0
 75
0
 76
0
 77
1
 78
8
 79
2
170
0
171
1
172
0
173
0
174
0
175
0
176
0
177
0
178
0
270
2
179
2
271
2
272
2
273
2
274
2
275
0
280
0
281
0
282
0
283
1
284
8
285
0
286
0
287
3
288
0
340
11
278
46
341
212
342
212
343
212
344
212
  0
ENDTAB
  0
ENDSEC
  0
SECTION
  2
BLOCKS
  0
BLOCK
  5
20
100
AcDbEntity
  8
0
100
AcDbBlockBegin
  2
*Model_Space
 70
0
 10
0.0
 20
0.0
 30
0.0
  3
*Model_Space
  1

  0
ENDBLK
  5
21
100
AcDbEntity
  8
0
100
AcDbBlockEnd
  0
BLOCK
  5
1C
100
AcDbEntity
  8
0
100
AcDbBlockBegin
  2
*Paper_Space
 70
0
 10
0.0
 20
0.0
 30
0.0
  3
*Paper_Space
  1

  0
ENDBLK
  5
1D
100
AcDbEntity
  8
0
100
AcDbBlockEnd
  0
BLOCK
  5
214
100
AcDbEntity
  8
0
100
AcDbBlockBegin
  2
_FILLED
 70
64
 10
0.0
 20
0.0
  3
_FILLED
  1

  0
SOLID
  5
215
100
AcDbEntity
  8
0
  6
BYBLOCK
 62
0
100
AcDbTrace
 10
0.0
 20
0.0
 11
-1.0
 21
0.25
 12
-1.0
 22
-0.25
 13
-1.0
 23
-0.25
  0
ENDBLK
  5
216
100
AcDbEntity
  8
0
  6
BYBLOCK
 62
0
100
AcDbBlockEnd
  0
ENDSEC
  0
SECTION
  2
ENTITIES
  0
LWPOLYLINE
  5
217
100
AcDbEntity
  8
0
100
AcDbPolyline
 62
7
  6
BYLAYER
 90
3
 70
0
 10
23.3057261999
 20
68.7101555041
 10
21.5666686028
 20
68.1465620045
 10
20.1486505489
 20
67.4329367649
  0
LINE
  5
218
100
AcDbEntity
  8
0
100
AcDbLine
 62
7
  6
BYLAYER
 10
20.4205009757
 20
17.8653646621
 11
19.9608717122
 21
18.1307393282
  0
LINE
  5
219
100
AcDbEntity
  8
0
100
AcDbLine
 62
7
  6
BYLAYER
 10
19.8194473235
 20
19.1105457305
 11
19.2537497685
 21
19.4371607042
  0
LWPOLYLINE
  5
21A
100
AcDbEntity
  8
0
100
AcDbPolyline
 62
7
  6
BYLAYER
 90
4
 70
0
 10
19.9608717122
 20
18.1307393282
 10
19.3086348771
 20
18.5339476138
 10
17.2175577059
 20
20.3745570259
 10
16.4318453449
 20
21.8037901654
  0
LINE
  5
21B
100
AcDbEntity
  8
0
100
AcDbLine
 62
7
  6
BYLAYER
 10
10.21759759
 20
41.6489994379
 11
10.21759759
 21
39.2581144225
  0
LINE
  5
21C
100
AcDbEntity
  8
0
100
AcDbLine
 62
7
  6
BYLAYER
 10
10.21759759
 20
32.6674728494
 11
10.21759759
 21
30.2765878341
  0
LINE
  5
21D
100
AcDbEntity
  8
0
100
AcDbLine
 62
7
  6
BYLAYER
 10
10.9682701871
 20
28.6591632439
 11
10.9682701871
 21
31.0500482593
  0
LINE
  5
21E
100
AcDbEntity
  8
0
100
AcDbLine
 62
7
  6
BYLAYER
 10
10.9682701871
 20
37.6406898324
 11
10.9682701871
 21
40.0315748477
  0
LWPOLYLINE
  5
21F
100
AcDbEntity
  8
0
100
AcDbPolyline
 62
7
  6
BYLAYER
 90
3
 70
0
 10
16.1416401421
 20
58.7777236215
 10
15.1220702161
 20
57.095463095
 10
14.8605789248
 20
55.4854797923
  0
LINE
  5
220
100
AcDbEntity
  8
0
100
AcDbLine
 62
7
  6
BYLAYER
 10
16.0719092866
 20
29.2403560906
 11
13.7608890782
 21
31.6139789706
  0
LINE
  5
221
100
AcDbEntity
  8
0
100
AcDbLine
 62
7
  6
BYLAYER
 10
13.7608890782
 20
31.6139789706
 11
12.6466519313
 21
34.2546489593
  0
LINE
  5
222
100
AcDbEntity
  8
0
100
AcDbLine
 62
7
  6
BYLAYER
 10
12.6466519313
 20
34.2546489593
 11
12.7163336916
 21
35.4351248747
  0
LINE
  5
223
100
AcDbEntity
  8
0
100
AcDbLine
 62
7
  6
BYLAYER
 10
12.7201127168
 20
35.4991451892
 11
12.7675667303
 21
36.3030617346
  0
LINE
  5
224
100
AcDbEntity
  8
0
100
AcDbLine
 62
7
  6
BYLAYER
 10
12.7713955419
 20
36.3679254783
 11
12.7738209531
 21
36.4090142729
  0
LWPOLYLINE
  5
225
100
AcDbEntity
  8
0
100
AcDbPolyline
 62
7
  6
BYLAYER
 90
3
 70
0
 10
13.3549711313
 20
36.0125765297
 10
13.2513582035
 20
34.2999792457
 10
13.3773833247
 20
33.9021941134
  0
LINE
  5
226
100
AcDbEntity
  8
0
100
AcDbLine
 62
7
  6
BYLAYER
 10
16.1119647584
 20
61.4129091386
 11
16.1107000431
 21
61.405122337
  0
LWPOLYLINE
  5
227
100
AcDbEntity
  8
0
100
AcDbPolyline
 62
7
  6
BYLAYER
 90
3
 70
0
 10
12.4738946559
 20
46.9482177297
 10
11.8605823403
 20
44.2585662543
 10
12.4739393133
 20
41.5688427077
  0
LWPOLYLINE
  5
228
100
AcDbEntity
  8
0
100
AcDbPolyline
 62
7
  6
BYLAYER
 90
5
 70
0
 10
12.2068894229
 20
36.7957526149
 10
11.8605823403
 20
35.2770396664
 10
12.4739393132
 20
32.5873161196
 10
14.2721949633
 20
30.0808974681
 10
17.132709855
 20
27.9286501987
  0
LINE
  5
229
100
AcDbEntity
  8
0
100
AcDbLine
 62
7
  6
BYLAYER
 10
33.1948968905
 20
64.3508858241
 11
33.5484578624
 21
64.5550201827
  0
LINE
  5
22A
100
AcDbEntity
  8
0
100
AcDbLine
 62
7
  6
BYLAYER
 10
36.5823299604
 20
26.8021693141
 11
36.6100325403
 21
26.8090471371
  0
LINE
  5
22B
100
AcDbEntity
  8
0
100
AcDbLine
 62
7
  6
BYLAYER
 10
35.1965793864
 20
26.4994059375
 11
35.2197354279
 21
26.5038218083
  0
LINE
  5
22C
100
AcDbEntity
  8
0
100
AcDbLine
 62
7
  6
BYLAYER
 10
33.7705644207
 20
26.2672495231
 11
33.7886518986
 21
26.2697158586
  0
LINE
  5
22D
100
AcDbEntity
  8
0
100
AcDbLine
 62
7
  6
BYLAYER
 10
25.9326441039
 20
26.2696969751
 11
25.9507490745
 21
26.2672749021
  0
LINE
  5
22E
100
AcDbEntity
  8
0
100
AcDbLine
 62
7
  6
BYLAYER
 10
24.5015571982
 20
26.503796045
 11
24.5247437077
 21
26.4994345775
  0
LINE
  5
22F
100
AcDbEntity
  8
0
100
AcDbLine
 62
7
  6
BYLAYER
 10
23.1112556837
 20
26.80901469
 11
23.1390040265
 21
26.8021992602
  0
LINE
  5
230
100
AcDbEntity
  8
0
100
AcDbLine
 62
7
  6
BYLAYER
 10
21.7723205944
 20
27.1830300121
 11
21.8039632179
 21
27.1732975478
  0
LINE
  5
231
100
AcDbEntity
  8
0
100
AcDbLine
 62
7
  6
BYLAYER
 10
20.4949420348
 20
27.6229955288
 11
20.5296564314
 21
27.6099571039
  0
LINE
  5
232
100
AcDbEntity
  8
0
100
AcDbLine
 62
7
  6
BYLAYER
 10
19.2888416271
 20
28.1255628369
 11
19.3256438575
 21
28.1089349335
  0
LINE
  5
233
100
AcDbEntity
  8
0
100
AcDbLine
 62
7
  6
BYLAYER
 10
17.6243031758
 20
28.2124700407
 11
16.0719092866
 21
29.2403560906
  0
LWPOLYLINE
  5
234
100
AcDbEntity
  8
0
100
AcDbPolyline
 62
7
  6
BYLAYER
 90
4
 70
0
 10
17.3027761676
 20
30.3705405285
 10
15.5737516235
 20
32.1976495615
 10
14.6502636649
 20
34.6423260701
 10
14.7101216196
 20
35.131686201
  0
LINE
  5
235
100
AcDbEntity
  8
0
100
AcDbLine
 62
7
  6
BYLAYER
 10
13.6146931356
 20
33.0558551674
 11
13.6204904616
 21
33.0417682034
  0
LINE
  5
236
100
AcDbEntity
  8
0
100
AcDbLine
 62
7
  6
BYLAYER
 10
13.644238228
 20
33.0598944826
 11
13.6487487435
 21
33.0456575115
  0
LINE
  5
237
100
AcDbEntity
  8
0
100
AcDbLine
 62
7
  6
BYLAYER
 10
14.8605789248
 20
55.4854797923
 11
14.8605789248
 21
40.5182880265
  0
LINE
  5
238
100
AcDbEntity
  8
0
100
AcDbLine
 62
7
  6
BYLAYER
 10
14.8605789248
 20
26.0577757277
 11
14.8605789248
 21
25.5606662045
  0
LINE
  5
239
100
AcDbEntity
  8
0
100
AcDbLine
 62
7
  6
BYLAYER
 10
16.1105789248
 20
58.814192698
 11
16.1105789248
 21
56.5061078138
  0
LINE
  5
23A
100
AcDbEntity
  8
0
100
AcDbLine
 62
7
  6
BYLAYER
 10
16.1214223212
 20
61.4068268488
 11
16.1214092696
 21
61.8196263903
  0
LINE
  5
23B
100
AcDbEntity
  8
0
100
AcDbLine
 62
7
  6
BYLAYER
 10
16.5105789248
 20
21.6605715434
 11
16.5105789248
 21
14.2112826064
  0
LINE
  5
23C
100
AcDbEntity
  8
0
100
AcDbLine
 62
7
  6
BYLAYER
 10
16.110600175
 20
61.4129098902
 11
16.1105789248
 21
59.0970374322
  0
LWPOLYLINE
  5
23D
100
AcDbEntity
  8
0
100
AcDbPolyline
 62
7
  6
BYLAYER
 90
3
 70
0
 10
14.8605789248
 20
49.8973932737
 10
14.2720542668
 20
49.4545783626
 10
12.4738946559
 20
46.9482177297
  0
LWPOLYLINE
  5
23E
100
AcDbEntity
  8
0
100
AcDbPolyline
 62
7
  6
BYLAYER
 90
3
 70
0
 10
12.4739393133
 20
41.5688427077
 10
14.2721949634
 20
39.0624240564
 10
17.132709855
 20
36.9101767871
  0
LINE
  5
23F
100
AcDbEntity
  8
0
100
AcDbLine
 62
7
  6
BYLAYER
 10
26.7565693106
 20
72.6027367515
 11
26.5982442901
 21
72.1113048279
  0
LINE
  5
240
100
AcDbEntity
  8
0
100
AcDbLine
 62
7
  6
BYLAYER
 10
29.2565589021
 20
74.0460977995
 11
28.8092312093
 21
72.6576178998
  0
LINE
  5
241
100
AcDbEntity
  8
0
100
AcDbLine
 62
7
  6
BYLAYER
 10
16.3227320944
 20
60.0579155714
 11
16.1214890877
 21
61.4113751736
  0
LWPOLYLINE
  5
242
100
AcDbEntity
  8
0
100
AcDbPolyline
 62
7
  6
BYLAYER
 90
3
 70
0
 10
16.1806909842
 20
61.4201470451
 10
16.3213631514
 20
60.4707420065
 10
17.4528292834
 20
58.4117817425
  0
LWPOLYLINE
  5
243
100
AcDbEntity
  8
0
100
AcDbPolyline
 62
7
  6
BYLAYER
 90
3
 70
0
 10
39.5941679904
 20
55.7980648071
 10
38.1793329495
 20
55.0858325972
 10
34.9130602975
 20
54.0258140842
  0
LINE
  5
244
100
AcDbEntity
  8
0
100
AcDbLine
 62
7
  6
BYLAYER
 10
36.2732240964
 20
54.3828668894
 11
39.5833376456
 21
55.7918119419
  0
LWPOLYLINE
  5
245
100
AcDbEntity
  8
0
100
AcDbPolyline
 62
7
  6
BYLAYER
 90
5
 70
0
 10
19.0769752297
 20
38.033011065
 10
17.6538272357
 20
38.9811015457
 10
15.5737516235
 20
41.1791761499
 10
14.6502636649
 20
43.6238526585
 10
14.8605789248
 20
45.343254927
  0
LINE
  5
246
100
AcDbEntity
  8
0
100
AcDbLine
 62
7
  6
BYLAYER
 10
23.8070403087
 20
61.5052717584
 11
23.8057275351
 21
61.5724686653
  0
LINE
  5
247
100
AcDbEntity
  8
0
100
AcDbLine
 62
7
  6
BYLAYER
 10
23.2971495228
 20
32.9136540734
 11
23.2971495228
 21
30.522769058
  0
LINE
  5
248
100
AcDbEntity
  8
0
100
AcDbLine
 62
7
  6
BYLAYER
 10
23.2971495228
 20
23.9321274849
 11
23.2971495228
 21
21.5412424696
  0
LINE
  5
249
100
AcDbEntity
  8
0
100
AcDbLine
 62
7
  6
BYLAYER
 10
23.3057261999
 20
67.0044223828
 11
23.3057261999
 21
71.7401364022
  0
LINE
  5
24A
100
AcDbEntity
  8
0
100
AcDbLine
 62
7
  6
BYLAYER
 10
23.8057275351
 20
61.5724686653
 11
23.8057261999
 21
65.6743779411
  0
LINE
  5
24B
100
AcDbEntity
  8
0
100
AcDbLine
 62
7
  6
BYLAYER
 10
23.8057261999
 20
72.1483876107
 11
23.8057261999
 21
73.1281905113
  0
LINE
  5
24C
100
AcDbEntity
  8
0
100
AcDbLine
 62
7
  6
BYLAYER
 10
23.9557261999
 20
73.1281905113
 11
23.9557261999
 21
73.781392445
  0
LINE
  5
24D
100
AcDbEntity
  8
0
100
AcDbLine
 62
7
  6
BYLAYER
 10
31.7565693105
 20
72.6027487701
 11
31.5423692481
 21
71.9378838712
  0
LWPOLYLINE
  5
24E
100
AcDbEntity
  8
0
100
AcDbPolyline
 62
7
  6
BYLAYER
 90
3
 70
0
 10
39.5833376456
 20
55.7918119419
 10
42.0187380315
 20
57.6974520648
 10
42.1265418332
 20
57.8753684503
  0
LINE
  5
24F
100
AcDbEntity
  8
0
100
AcDbLine
 62
7
  6
BYLAYER
 10
39.5743858214
 20
55.7866484064
 11
39.5948174776
 21
55.7984476503
  0
LINE
  5
250
100
AcDbEntity
  8
0
100
AcDbLine
 62
7
  6
BYLAYER
 10
14.7166879036
 20
31.4530152644
 11
14.6260180749
 21
31.4286049582
  0
LINE
  5
251
100
AcDbEntity
  8
0
100
AcDbLine
 62
7
  6
BYLAYER
 10
14.2940658685
 20
31.9762638129
 11
14.2033960399
 21
31.9518535067
  0
LINE
  5
252
100
AcDbEntity
  8
0
100
AcDbLine
 62
7
  6
BYLAYER
 10
14.1107565509
 20
32.2317622664
 11
14.0167467604
 21
32.2120072342
  0
LINE
  5
253
100
AcDbEntity
  8
0
100
AcDbLine
 62
7
  6
BYLAYER
 10
13.7687324953
 20
32.7742854759
 11
13.6747227048
 21
32.7545304437
  0
LINE
  5
254
100
AcDbEntity
  8
0
100
AcDbLine
 62
7
  6
BYLAYER
 10
13.6246908566
 20
33.0380355621
 11
13.5280565755
 21
33.0230861516
  0
LINE
  5
255
100
AcDbEntity
  8
0
100
AcDbLine
 62
7
  6
BYLAYER
 10
13.3658677899
 20
33.5957045034
 11
13.2692335088
 21
33.5807550928
  0
LINE
  5
256
100
AcDbEntity
  8
0
100
AcDbLine
 62
7
  6
BYLAYER
 10
13.2621900739
 20
33.8656989249
 11
13.1636667474
 21
33.85566891
  0
LINE
  5
257
100
AcDbEntity
  8
0
100
AcDbLine
 62
7
  6
BYLAYER
 10
13.0885377961
 20
34.4342694004
 11
12.9900144696
 21
34.4242393856
  0
LINE
  5
258
100
AcDbEntity
  8
0
100
AcDbLine
 62
7
  6
BYLAYER
 10
13.0260130528
 20
34.7084533367
 11
12.9263505029
 21
34.703419052
  0
LINE
  5
259
100
AcDbEntity
  8
0
100
AcDbLine
 62
7
  6
BYLAYER
 10
46.7823046872
 20
36.4135951388
 11
46.881967237
 21
36.4186294234
  0
LINE
  5
25A
100
AcDbEntity
  8
0
100
AcDbLine
 62
7
  6
BYLAYER
 10
12.9388531625
 20
35.283598182
 11
12.8391906126
 21
35.2785638973
  0
LINE
  5
25B
100
AcDbEntity
  8
0
100
AcDbLine
 62
7
  6
BYLAYER
 10
46.6951447969
 20
36.9887399841
 11
46.7948073467
 21
36.9937742687
  0
LINE
  5
25C
100
AcDbEntity
  8
0
100
AcDbLine
 62
7
  6
BYLAYER
 10
12.9179572429
 20
35.5598849276
 11
12.8179139618
 21
35.5598846871
  0
LINE
  5
25D
100
AcDbEntity
  8
0
100
AcDbLine
 62
7
  6
BYLAYER
 10
46.8032047701
 20
35.5599663777
 11
46.9032480512
 21
35.5599666182
  0
LINE
  5
25E
100
AcDbEntity
  8
0
100
AcDbLine
 62
7
  6
BYLAYER
 10
12.9179530795
 20
36.1372269431
 11
12.8179097985
 21
36.1372267026
  0
LINE
  5
25F
100
AcDbEntity
  8
0
100
AcDbLine
 62
7
  6
BYLAYER
 10
46.8032006067
 20
36.1373083932
 11
46.9032438878
 21
36.1373086336
  0
LINE
  5
260
100
AcDbEntity
  8
0
100
AcDbLine
 62
7
  6
BYLAYER
 10
46.6951612401
 20
34.7085342673
 11
46.7948238626
 21
34.7035004618
  0
LINE
  5
261
100
AcDbEntity
  8
0
100
AcDbLine
 62
7
  6
BYLAYER
 10
46.7823128353
 20
35.2836795316
 11
46.8819754578
 21
35.2786457261
  0
LINE
  5
262
100
AcDbEntity
  8
0
100
AcDbLine
 62
7
  6
BYLAYER
 10
46.4589963738
 20
33.8657787202
 11
46.5575198449
 21
33.855749179
  0
LINE
  5
263
100
AcDbEntity
  8
0
100
AcDbLine
 62
7
  6
BYLAYER
 10
46.6326404513
 20
34.4343500305
 11
46.7311639224
 21
34.4243204894
  0
LINE
  5
264
100
AcDbEntity
  8
0
100
AcDbLine
 62
7
  6
BYLAYER
 10
46.0965075282
 20
33.0381136148
 11
46.1931420249
 21
33.0231646688
  0
LINE
  5
265
100
AcDbEntity
  8
0
100
AcDbLine
 62
7
  6
BYLAYER
 10
46.3553225518
 20
33.5957838002
 11
46.4519570485
 21
33.5808348542
  0
LINE
  5
266
100
AcDbEntity
  8
0
100
AcDbLine
 62
7
  6
BYLAYER
 10
45.6104534624
 20
32.2318379824
 11
45.7044635378
 21
32.2120834021
  0
LINE
  5
267
100
AcDbEntity
  8
0
100
AcDbLine
 62
7
  6
BYLAYER
 10
45.9524696934
 20
32.7743628361
 11
46.0464797689
 21
32.7546082558
  0
LINE
  5
268
100
AcDbEntity
  8
0
100
AcDbLine
 62
7
  6
BYLAYER
 10
45.0045333414
 20
31.4530880674
 11
45.0952035221
 21
31.4286781971
  0
LINE
  5
269
100
AcDbEntity
  8
0
100
AcDbLine
 62
7
  6
BYLAYER
 10
45.4271478298
 20
31.9763386476
 11
45.5178180105
 21
31.9519287773
  0
LINE
  5
26A
100
AcDbEntity
  8
0
100
AcDbLine
 62
7
  6
BYLAYER
 10
44.2833585831
 20
30.7077906269
 11
44.3699988142
 21
30.6789112404
  0
LINE
  5
26B
100
AcDbEntity
  8
0
100
AcDbLine
 62
7
  6
BYLAYER
 10
44.7833549775
 20
31.2077846808
 11
44.8699952086
 21
31.1789052943
  0
LINE
  5
26C
100
AcDbEntity
  8
0
100
AcDbLine
 62
7
  6
BYLAYER
 10
43.4524177629
 20
30.0016178244
 11
43.53436866
 21
29.9684887113
  0
LINE
  5
26D
100
AcDbEntity
  8
0
100
AcDbLine
 62
7
  6
BYLAYER
 10
44.0259907888
 20
30.4745500953
 11
44.1079416859
 21
30.4414209822
  0
LINE
  5
26E
100
AcDbEntity
  8
0
100
AcDbLine
 62
7
  6
BYLAYER
 10
42.5180348421
 20
29.3399440613
 11
42.5946727094
 21
29.3028173542
  0
LINE
  5
26F
100
AcDbEntity
  8
0
100
AcDbLine
 62
7
  6
BYLAYER
 10
41.4873210391
 20
28.7278050746
 11
42.0454831847
 21
28.4055468457
  0
LINE
  5
270
100
AcDbEntity
  8
0
100
AcDbLine
 62
7
  6
BYLAYER
 10
40.3681207081
 20
28.1698596114
 11
40.4324276086
 21
28.1256136599
  0
LINE
  5
271
100
AcDbEntity
  8
0
100
AcDbLine
 62
7
  6
BYLAYER
 10
40.9371404071
 20
27.8191881753
 11
40.6389046095
 21
28.0243874082
  0
LINE
  5
272
100
AcDbEntity
  8
0
100
AcDbLine
 62
7
  6
BYLAYER
 10
25.9661673623
 20
72.4931590369
 11
25.9661673623
 21
75.1991420319
  0
LINE
  5
273
100
AcDbEntity
  8
0
100
AcDbLine
 62
7
  6
BYLAYER
 10
26.0986573908
 20
21.1078611073
 11
26.0986573908
 21
23.4987461227
  0
LINE
  5
274
100
AcDbEntity
  8
0
100
AcDbLine
 62
7
  6
BYLAYER
 10
26.0986573908
 20
30.0893876958
 11
26.0986573908
 21
32.4802727111
  0
LINE
  5
275
100
AcDbEntity
  8
0
100
AcDbLine
 62
7
  6
BYLAYER
 10
26.3800630976
 20
74.9601846236
 11
26.3800630976
 21
72.217906504
  0
LINE
  5
276
100
AcDbEntity
  8
0
100
AcDbLine
 62
7
  6
BYLAYER
 10
27.361647804
 20
71.8390949373
 11
27.361647804
 21
75.1949250121
  0
LWPOLYLINE
  5
277
100
AcDbEntity
  8
0
100
AcDbPolyline
 62
7
  6
BYLAYER
 90
3
 70
0
 10
42.6683680998
 20
58.5073792703
 10
40.8302090258
 20
56.6167521505
 10
39.5941679904
 20
55.7980648071
  0
LWPOLYLINE
  5
278
100
AcDbEntity
  8
0
100
AcDbPolyline
 62
7
  6
BYLAYER
 90
4
 70
0
 10
41.2080792445
 20
57.4137552989
 10
42.663801191
 20
58.9089309227
 10
43.5492124651
 20
61.0072098608
 10
43.5853671556
 20
61.4145669977
  0
LINE
  5
279
100
AcDbEntity
  8
0
100
AcDbLine
 62
7
  6
BYLAYER
 10
39.5833376456
 20
53.2008823234
 11
42.017192335
 21
55.1048320093
  0
LINE
  5
27A
100
AcDbEntity
  8
0
100
AcDbLine
 62
7
  6
BYLAYER
 10
43.1608192625
 20
29.7822152491
 11
43.2374571297
 21
29.745088542
  0
LINE
  5
27B
100
AcDbEntity
  8
0
100
AcDbLine
 62
7
  6
BYLAYER
 10
42.1944248763
 20
29.1360492284
 11
42.2651664532
 21
29.0952074839
  0
LINE
  5
27C
100
AcDbEntity
  8
0
100
AcDbLine
 62
7
  6
BYLAYER
 10
41.134162475
 20
28.5409697469
 11
41.1984693756
 21
28.4967237953
  0
LINE
  5
27D
100
AcDbEntity
  8
0
100
AcDbLine
 62
7
  6
BYLAYER
 10
39.1689516395
 20
27.6703539738
 11
39.2263344493
 21
27.6230405536
  0
LINE
  5
27E
100
AcDbEntity
  8
0
100
AcDbLine
 62
7
  6
BYLAYER
 10
39.7444983084
 20
27.2908311136
 11
39.4783743325
 21
27.5102563307
  0
LINE
  5
27F
100
AcDbEntity
  8
0
100
AcDbLine
 62
7
  6
BYLAYER
 10
39.9881012958
 20
28.0015057186
 11
40.0454841056
 21
27.9541922984
  0
LINE
  5
280
100
AcDbEntity
  8
0
100
AcDbLine
 62
7
  6
BYLAYER
 10
37.898940234
 20
27.2330897012
 11
37.9489622353
 21
27.183068896
  0
LINE
  5
281
100
AcDbEntity
  8
0
100
AcDbLine
 62
7
  6
BYLAYER
 10
38.4766336151
 20
26.8244967767
 11
38.2446468251
 21
27.0564780198
  0
LINE
  5
282
100
AcDbEntity
  8
0
100
AcDbLine
 62
7
  6
BYLAYER
 10
38.7649635561
 20
27.5217627906
 11
38.8149855573
 21
27.4717419854
  0
LINE
  5
283
100
AcDbEntity
  8
0
100
AcDbLine
 62
7
  6
BYLAYER
 10
36.5677520453
 20
26.8613946387
 11
36.6100325403
 21
26.8090471371
  0
LINE
  5
284
100
AcDbEntity
  8
0
100
AcDbLine
 62
7
  6
BYLAYER
 10
37.1431955431
 20
26.4237342507
 11
36.9471114985
 21
26.6665060024
  0
LINE
  5
285
100
AcDbEntity
  8
0
100
AcDbLine
 62
7
  6
BYLAYER
 10
37.4740580728
 20
27.1053920962
 11
37.5163385678
 21
27.0530445946
  0
LINE
  5
286
100
AcDbEntity
  8
0
100
AcDbLine
 62
7
  6
BYLAYER
 10
35.1855182192
 20
26.5580976102
 11
35.2197354279
 21
26.5038218083
  0
LINE
  5
287
100
AcDbEntity
  8
0
100
AcDbLine
 62
7
  6
BYLAYER
 10
35.7543323612
 20
26.0915935803
 11
35.59564338
 21
26.3433082009
  0
LINE
  5
288
100
AcDbEntity
  8
0
100
AcDbLine
 62
7
  6
BYLAYER
 10
36.125209416
 20
26.7555624678
 11
36.1594266247
 21
26.7012866659
  0
LINE
  5
289
100
AcDbEntity
  8
0
100
AcDbLine
 62
7
  6
BYLAYER
 10
17.4545601168
 20
58.0014289996
 11
16.3227320944
 21
60.0579155714
  0
LINE
  5
28A
100
AcDbEntity
  8
0
100
AcDbLine
 62
7
  6
BYLAYER
 10
16.2817754886
 20
60.333369175
 11
17.1149287664
 21
58.5375229491
  0
LINE
  5
28B
100
AcDbEntity
  8
0
100
AcDbLine
 62
7
  6
BYLAYER
 10
33.7627583898
 20
26.3255068892
 11
33.7886518986
 21
26.2697158586
  0
LINE
  5
28C
100
AcDbEntity
  8
0
100
AcDbLine
 62
7
  6
BYLAYER
 10
34.320614157
 20
25.8306025566
 11
34.2005279581
 21
26.0893443459
  0
LINE
  5
28D
100
AcDbEntity
  8
0
100
AcDbLine
 62
7
  6
BYLAYER
 10
28.8007157914
 20
72.6043018111
 11
28.8007157914
 21
71.5777068629
  0
LINE
  5
28E
100
AcDbEntity
  8
0
100
AcDbLine
 62
7
  6
BYLAYER
 10
29.3606494637
 20
26.0669069076
 11
29.3606498802
 21
26.0091477181
  0
LINE
  5
28F
100
AcDbEntity
  8
0
100
AcDbLine
 62
7
  6
BYLAYER
 10
29.8107157914
 20
72.6043018111
 11
29.8107157914
 21
71.569191864
  0
LINE
  5
290
100
AcDbEntity
  8
0
100
AcDbLine
 62
7
  6
BYLAYER
 10
29.8606506684
 20
25.4915964339
 11
29.8606487367
 21
25.7594659441
  0
LINE
  5
291
100
AcDbEntity
  8
0
100
AcDbLine
 62
7
  6
BYLAYER
 10
42.2179887536
 20
57.9239614885
 11
42.226506335
 21
57.9340588182
  0
LINE
  5
292
100
AcDbEntity
  8
0
100
AcDbLine
 62
7
  6
BYLAYER
 10
17.0364902997
 20
58.5413247755
 11
17.0490173972
 21
58.5226948865
  0
LINE
  5
293
100
AcDbEntity
  8
0
100
AcDbLine
 62
7
  6
BYLAYER
 10
34.7286831385
 20
26.4749363202
 11
34.7545766473
 21
26.4191452896
  0
LINE
  5
294
100
AcDbEntity
  8
0
100
AcDbLine
 62
7
  6
BYLAYER
 10
32.3103006185
 20
26.1653926317
 11
32.3276733621
 21
26.1085109758
  0
LINE
  5
295
100
AcDbEntity
  8
0
100
AcDbLine
 62
7
  6
BYLAYER
 10
32.8529523916
 20
25.6427474788
 11
32.7723829036
 21
25.9065472556
  0
LINE
  5
296
100
AcDbEntity
  8
0
100
AcDbLine
 62
7
  6
BYLAYER
 10
33.2951076485
 20
26.2656493877
 11
33.3124803921
 21
26.2087677318
  0
LINE
  5
297
100
AcDbEntity
  8
0
100
AcDbLine
 62
7
  6
BYLAYER
 10
30.8391989859
 20
26.0789734036
 11
30.8479187473
 21
26.0214340262
  0
LINE
  5
298
100
AcDbEntity
  8
0
100
AcDbLine
 62
7
  6
BYLAYER
 10
31.3625168573
 20
25.5294580376
 11
31.3220772626
 21
25.7963081262
  0
LINE
  5
299
100
AcDbEntity
  8
0
100
AcDbLine
 62
7
  6
BYLAYER
 10
31.8353933211
 20
26.1292944703
 11
31.8441130825
 21
26.0717550929
  0
LINE
  5
29A
100
AcDbEntity
  8
0
100
AcDbLine
 62
7
  6
BYLAYER
 10
30.3606494637
 20
26.0669093113
 11
30.3606498802
 21
26.0091501218
  0
LINE
  5
29B
100
AcDbEntity
  8
0
100
AcDbLine
 62
7
  6
BYLAYER
 10
27.8859047066
 20
26.1292849769
 11
27.877185775
 21
26.0717455576
  0
LINE
  5
29C
100
AcDbEntity
  8
0
100
AcDbLine
 62
7
  6
BYLAYER
 10
28.3587839335
 20
25.5294508175
 11
28.3992196796
 21
25.7963011005
  0
LINE
  5
29D
100
AcDbEntity
  8
0
100
AcDbLine
 62
7
  6
BYLAYER
 10
28.8820997675
 20
26.0789686993
 11
28.873380836
 21
26.02142928
  0
LINE
  5
29E
100
AcDbEntity
  8
0
100
AcDbLine
 62
7
  6
BYLAYER
 10
26.4261884126
 20
26.2656328769
 11
26.4088164894
 21
26.2087511375
  0
LINE
  5
29F
100
AcDbEntity
  8
0
100
AcDbLine
 62
7
  6
BYLAYER
 10
26.8683467653
 20
25.6427330936
 11
26.9489124486
 21
25.9065332577
  0
LINE
  5
2A0
100
AcDbEntity
  8
0
100
AcDbLine
 62
7
  6
BYLAYER
 10
27.4109968886
 20
26.1653808552
 11
27.3936249653
 21
26.1084991158
  0
LINE
  5
2A1
100
AcDbEntity
  8
0
100
AcDbLine
 62
7
  6
BYLAYER
 10
24.9926099042
 20
26.4749129175
 11
24.9667172
 21
26.4191217625
  0
LINE
  5
2A2
100
AcDbEntity
  8
0
100
AcDbLine
 62
7
  6
BYLAYER
 10
25.4006822906
 20
25.8305811157
 11
25.5207647577
 21
26.0893234823
  0
LINE
  5
2A3
100
AcDbEntity
  8
0
100
AcDbLine
 62
7
  6
BYLAYER
 10
25.958536808
 20
26.3254881302
 11
25.9326441039
 21
26.2696969751
  0
LINE
  5
2A4
100
AcDbEntity
  8
0
100
AcDbLine
 62
7
  6
BYLAYER
 10
42.1650251641
 20
57.9388802654
 11
42.1714644106
 21
57.9495074181
  0
LINE
  5
2A5
100
AcDbEntity
  8
0
100
AcDbLine
 62
7
  6
BYLAYER
 10
23.5960795794
 20
26.7555323515
 11
23.5618631534
 21
26.7012563851
  0
LINE
  5
2A6
100
AcDbEntity
  8
0
100
AcDbLine
 62
7
  6
BYLAYER
 10
42.6852998929
 20
58.532373283
 11
42.6683680998
 21
58.5073792703
  0
LINE
  5
2A7
100
AcDbEntity
  8
0
100
AcDbLine
 62
7
  6
BYLAYER
 10
17.5258325193
 20
57.9162361968
 11
17.5193740035
 21
57.9238502798
  0
LINE
  5
2A8
100
AcDbEntity
  8
0
100
AcDbLine
 62
7
  6
BYLAYER
 10
17.4938352797
 20
57.9350322919
 11
17.5004665482
 21
57.9271665191
  0
LINE
  5
2A9
100
AcDbEntity
  8
0
100
AcDbLine
 62
7
  6
BYLAYER
 10
34.6557261999
 20
73.1281905113
 11
34.6557261999
 21
73.781392445
  0
LINE
  5
2AA
100
AcDbEntity
  8
0
100
AcDbLine
 62
7
  6
BYLAYER
 10
34.8057261999
 20
72.1483876107
 11
34.8057261999
 21
73.1281905113
  0
LINE
  5
2AB
100
AcDbEntity
  8
0
100
AcDbLine
 62
7
  6
BYLAYER
 10
35.3057261999
 20
67.0044223828
 11
35.3057261999
 21
71.7401364022
  0
LINE
  5
2AC
100
AcDbEntity
  8
0
100
AcDbLine
 62
7
  6
BYLAYER
 10
34.8057261999
 20
65.7419309607
 11
34.805725209
 21
61.5727752564
  0
LINE
  5
2AD
100
AcDbEntity
  8
0
100
AcDbLine
 62
7
  6
BYLAYER
 10
34.805725209
 20
61.5727752564
 11
34.804412091
 21
61.5052717584
  0
LINE
  5
2AE
100
AcDbEntity
  8
0
100
AcDbLine
 62
7
  6
BYLAYER
 10
42.6794263231
 20
58.533692949
 11
42.6683680998
 21
58.5073792703
  0
LWPOLYLINE
  5
2AF
100
AcDbEntity
  8
0
100
AcDbPolyline
 62
7
  6
BYLAYER
 90
3
 70
0
 10
42.017192335
 20
55.1048320093
 10
43.3708785745
 20
57.3383746706
 10
43.6105789248
 20
58.814192698
  0
LINE
  5
2B0
100
AcDbEntity
  8
0
100
AcDbLine
 62
7
  6
BYLAYER
 10
23.9669603222
 20
26.091565247
 11
24.1256456731
 21
26.3432806304
  0
LINE
  5
2B1
100
AcDbEntity
  8
0
100
AcDbLine
 62
7
  6
BYLAYER
 10
24.5357736241
 20
26.5580720114
 11
24.5015571982
 21
26.503796045
  0
LINE
  5
2B2
100
AcDbEntity
  8
0
100
AcDbLine
 62
7
  6
BYLAYER
 10
22.2472258772
 20
27.1053554954
 11
22.2049461371
 21
27.0530077905
  0
LINE
  5
2B3
100
AcDbEntity
  8
0
100
AcDbLine
 62
7
  6
BYLAYER
 10
22.5780923501
 20
26.4236992405
 11
22.7741728933
 21
26.6664719348
  0
LINE
  5
2B4
100
AcDbEntity
  8
0
100
AcDbLine
 62
7
  6
BYLAYER
 10
23.1535354237
 20
26.8613623949
 11
23.1112556837
 21
26.80901469
  0
LINE
  5
2B5
100
AcDbEntity
  8
0
100
AcDbLine
 62
7
  6
BYLAYER
 10
20.9563143887
 20
27.5217199838
 11
20.9062931089
 21
27.4716989382
  0
LINE
  5
2B6
100
AcDbEntity
  8
0
100
AcDbLine
 62
7
  6
BYLAYER
 10
21.2446484981
 20
26.8244553561
 11
21.4766319423
 21
27.0564377145
  0
LINE
  5
2B7
100
AcDbEntity
  8
0
100
AcDbLine
 62
7
  6
BYLAYER
 10
21.8223418742
 20
27.2330510578
 11
21.7723205944
 21
27.1830300121
  0
LINE
  5
2B8
100
AcDbEntity
  8
0
100
AcDbLine
 62
7
  6
BYLAYER
 10
19.73316973
 20
28.0014570317
 11
19.6757876025
 21
27.9541433356
  0
LINE
  5
2B9
100
AcDbEntity
  8
0
100
AcDbLine
 62
7
  6
BYLAYER
 10
19.9767770791
 20
27.2907835978
 11
20.2428978903
 21
27.5102100943
  0
LINE
  5
2BA
100
AcDbEntity
  8
0
100
AcDbLine
 62
7
  6
BYLAYER
 10
20.5523241623
 20
27.6703092249
 11
20.4949420348
 21
27.6229955288
  0
LINE
  5
2BB
100
AcDbEntity
  8
0
100
AcDbLine
 62
7
  6
BYLAYER
 10
18.5871007702
 20
28.5409155504
 11
18.5227945078
 21
28.4966692897
  0
LINE
  5
2BC
100
AcDbEntity
  8
0
100
AcDbLine
 62
7
  6
BYLAYER
 10
18.7841273601
 20
27.819134926
 11
19.0823601982
 21
28.0243355926
  0
LINE
  5
2BD
100
AcDbEntity
  8
0
100
AcDbLine
 62
7
  6
BYLAYER
 10
19.3531478895
 20
28.1698090977
 11
19.2888416271
 21
28.1255628369
  0
LINE
  5
2BE
100
AcDbEntity
  8
0
100
AcDbLine
 62
7
  6
BYLAYER
 10
17.5268297864
 20
29.1359899348
 11
17.4560887985
 21
29.0951478502
  0
LINE
  5
2BF
100
AcDbEntity
  8
0
100
AcDbLine
 62
7
  6
BYLAYER
 10
18.2339395116
 20
28.7277491803
 11
17.6757761257
 21
28.4054882681
  0
LINE
  5
2C0
100
AcDbEntity
  8
0
100
AcDbLine
 62
7
  6
BYLAYER
 10
16.5604260808
 20
29.7821513096
 11
16.4837887491
 21
29.7450242341
  0
LINE
  5
2C1
100
AcDbEntity
  8
0
100
AcDbLine
 62
7
  6
BYLAYER
 10
17.2032168799
 20
29.339883212
 11
17.1265795481
 21
29.3027561364
  0
LINE
  5
2C2
100
AcDbEntity
  8
0
100
AcDbLine
 62
7
  6
BYLAYER
 10
15.6952445693
 20
30.4744819966
 11
15.61329415
 21
30.4413524895
  0
LINE
  5
2C3
100
AcDbEntity
  8
0
100
AcDbLine
 62
7
  6
BYLAYER
 10
16.2688244161
 20
30.0015524831
 11
16.1868739968
 21
29.968422976
  0
LINE
  5
2C4
100
AcDbEntity
  8
0
100
AcDbLine
 62
7
  6
BYLAYER
 10
14.9378698054
 20
31.2077129411
 11
14.8512299908
 21
31.1788331381
  0
LINE
  5
2C5
100
AcDbEntity
  8
0
100
AcDbLine
 62
7
  6
BYLAYER
 10
17.5451388639
 20
57.9217021872
 11
17.5370334739
 21
57.9288364977
  0
LINE
  5
2C6
100
AcDbEntity
  8
0
100
AcDbLine
 62
7
  6
BYLAYER
 10
17.4528292834
 20
58.4117817425
 11
19.0994930559
 21
56.9620144751
  0
LINE
  5
2C7
100
AcDbEntity
  8
0
100
AcDbLine
 62
7
  6
BYLAYER
 10
17.5597587721
 20
57.9535315204
 11
17.5678187129
 21
57.9461196385
  0
LWPOLYLINE
  5
2C8
100
AcDbEntity
  8
0
100
AcDbPolyline
 62
7
  6
BYLAYER
 90
3
 70
0
 10
17.6134606227
 20
57.9041475627
 10
19.4340485994
 20
56.2299438157
 10
20.8860101412
 20
55.3907988423
  0
LINE
  5
2C9
100
AcDbEntity
  8
0
100
AcDbLine
 62
7
  6
BYLAYER
 10
29.8107157914
 20
72.6043018111
 11
29.8022003734
 21
72.6576178998
  0
LINE
  5
2CA
100
AcDbEntity
  8
0
100
AcDbLine
 62
7
  6
BYLAYER
 10
15.437873411
 20
30.7077212909
 11
15.3512335964
 21
30.6788414879
  0
LINE
  5
2CB
100
AcDbEntity
  8
0
100
AcDbLine
 62
7
  6
BYLAYER
 10
26.8548830892
 20
72.6027367515
 11
27.0749074208
 21
71.91979365
  0
LINE
  5
2CC
100
AcDbEntity
  8
0
100
AcDbLine
 62
7
  6
BYLAYER
 10
20.8860101412
 20
55.3907988423
 11
24.3526140291
 21
54.1314241415
  0
LINE
  5
2CD
100
AcDbEntity
  8
0
100
AcDbLine
 62
7
  6
BYLAYER
 10
21.3956028868
 20
55.6239128765
 11
23.9652281884
 21
54.650829281
  0
LINE
  5
2CE
100
AcDbEntity
  8
0
100
AcDbLine
 62
7
  6
BYLAYER
 10
29.3548726807
 20
74.0460977995
 11
29.8022003734
 21
72.6576178998
  0
LINE
  5
2CF
100
AcDbEntity
  8
0
100
AcDbLine
 62
7
  6
BYLAYER
 10
42.9401308576
 20
35.0856638658
 11
42.9401308576
 21
32.6947788504
  0
LINE
  5
2D0
100
AcDbEntity
  8
0
100
AcDbLine
 62
7
  6
BYLAYER
 10
42.9401308576
 20
26.1041372773
 11
42.9401308576
 21
23.713252262
  0
LINE
  5
2D1
100
AcDbEntity
  8
0
100
AcDbLine
 62
7
  6
BYLAYER
 10
43.2105789248
 20
21.6533794578
 11
43.2105789248
 21
14.2112826064
  0
LINE
  5
2D2
100
AcDbEntity
  8
0
100
AcDbLine
 62
7
  6
BYLAYER
 10
43.6105789248
 20
61.2891036518
 11
43.6105789248
 21
59.0970374322
  0
LINE
  5
2D3
100
AcDbEntity
  8
0
100
AcDbLine
 62
7
  6
BYLAYER
 10
43.6105789248
 20
58.814192698
 11
43.6105789248
 21
56.5061078138
  0
LINE
  5
2D4
100
AcDbEntity
  8
0
100
AcDbLine
 62
7
  6
BYLAYER
 10
43.6214092696
 20
61.8196263903
 11
43.6213925236
 21
61.4042319455
  0
LINE
  5
2D5
100
AcDbEntity
  8
0
100
AcDbLine
 62
7
  6
BYLAYER
 10
43.6213294516
 20
61.4113751899
 11
43.6207014256
 21
61.4042323121
  0
LINE
  5
2D6
100
AcDbEntity
  8
0
100
AcDbLine
 62
7
  6
BYLAYER
 10
32.3991846301
 20
53.6031428719
 11
36.2732240964
 21
54.3828668894
  0
LWPOLYLINE
  5
2D7
100
AcDbEntity
  8
0
100
AcDbPolyline
 62
7
  6
BYLAYER
 90
3
 70
0
 10
34.9130602975
 20
54.0258140842
 10
31.2786899845
 20
53.5146114828
 10
27.5351524114
 20
53.5883530145
  0
LWPOLYLINE
  5
2D8
100
AcDbEntity
  8
0
100
AcDbPolyline
 62
7
  6
BYLAYER
 90
3
 70
0
 10
24.3526140291
 20
54.1314241415
 10
28.3056188467
 20
53.5175987565
 10
32.3991846301
 20
53.6031428719
  0
LWPOLYLINE
  5
2D9
100
AcDbEntity
  8
0
100
AcDbPolyline
 62
7
  6
BYLAYER
 90
5
 70
0
 10
27.5351524114
 20
53.5883530145
 10
23.9688682191
 20
54.2415788071
 10
20.8347984695
 20
55.4280951929
 10
19.5075425343
 20
56.1944074935
 10
17.5908099764
 20
57.881502777
  0
LWPOLYLINE
  5
2DA
100
AcDbEntity
  8
0
100
AcDbPolyline
 62
7
  6
BYLAYER
 90
5
 70
0
 10
23.9652281884
 20
54.650829281
 10
27.5272277621
 20
53.9973945333
 10
31.2653853684
 20
53.9220763181
 10
34.901456198
 20
54.4314285686
 10
37.9019196298
 20
55.4038182634
  0
LINE
  5
2DB
100
AcDbEntity
  8
0
100
AcDbLine
 62
7
  6
BYLAYER
 10
25.3492922772
 20
59.3714105019
 11
25.416690461
 21
59.3293178688
  0
LINE
  5
2DC
100
AcDbEntity
  8
0
100
AcDbLine
 62
7
  6
BYLAYER
 10
31.8548830891
 20
72.6027487701
 11
32.0160370574
 21
72.1025359524
  0
LINE
  5
2DD
100
AcDbEntity
  8
0
100
AcDbLine
 62
7
  6
BYLAYER
 10
44.8605789248
 20
55.4854797923
 11
44.8605789248
 21
40.5183601827
  0
LINE
  5
2DE
100
AcDbEntity
  8
0
100
AcDbLine
 62
7
  6
BYLAYER
 10
44.9909661285
 20
24.8972954899
 11
44.9909661285
 21
27.2881805052
  0
LINE
  5
2DF
100
AcDbEntity
  8
0
100
AcDbLine
 62
7
  6
BYLAYER
 10
44.9909661285
 20
33.8788220783
 11
44.9909661285
 21
36.2697070937
  0
LWPOLYLINE
  5
2E0
100
AcDbEntity
  8
0
100
AcDbPolyline
 62
7
  6
BYLAYER
 90
3
 70
0
 10
44.8079903212
 20
33.7624310053
 10
44.7654279408
 20
33.4144683642
 10
43.2515324986
 20
31.0642349613
  0
LINE
  5
2E1
100
AcDbEntity
  8
0
100
AcDbLine
 62
7
  6
BYLAYER
 10
39.191700341
 20
27.6099306897
 11
39.2263344493
 21
27.6230405536
  0
LINE
  5
2E2
100
AcDbEntity
  8
0
100
AcDbLine
 62
7
  6
BYLAYER
 10
37.9173822408
 20
27.1732683358
 11
37.9489622353
 21
27.183068896
  0
LINE
  5
2E3
100
AcDbEntity
  8
0
100
AcDbLine
 62
7
  6
BYLAYER
 10
44.8605789248
 20
45.4500413803
 11
45.0601927357
 21
44.9216195534
  0
LINE
  5
2E4
100
AcDbEntity
  8
0
100
AcDbLine
 62
7
  6
BYLAYER
 10
46.8059149655
 20
37.3027272011
 11
46.8109659634
 21
37.288590404
  0
LINE
  5
2E5
100
AcDbEntity
  8
0
100
AcDbLine
 62
7
  6
BYLAYER
 10
46.7576211941
 20
37.2969546721
 11
46.7621195878
 21
37.2827942883
  0
LINE
  5
2E6
100
AcDbEntity
  8
0
100
AcDbLine
 62
7
  6
BYLAYER
 10
47.0678309114
 20
36.3204530689
 11
47.0745059183
 21
36.2994409775
  0
LINE
  5
2E7
100
AcDbEntity
  8
0
100
AcDbLine
 62
7
  6
BYLAYER
 10
47.0706913487
 20
36.3206265252
 11
47.0745059183
 21
36.2994409775
  0
LINE
  5
2E8
100
AcDbEntity
  8
0
100
AcDbLine
 62
7
  6
BYLAYER
 10
47.0745059183
 20
36.2994409775
 11
46.9140064793
 21
33.5804263988
  0
LWPOLYLINE
  5
2E9
100
AcDbEntity
  8
0
100
AcDbPolyline
 62
7
  6
BYLAYER
 90
5
 70
0
 10
47.2472631937
 20
41.568925384
 10
47.8605755093
 20
44.2585768593
 10
47.2472185363
 20
46.9483004059
 10
45.4489628862
 20
49.4547190572
 10
44.8605789248
 20
49.8974182992
  0
LINE
  5
2EA
100
AcDbEntity
  8
0
100
AcDbLine
 62
7
  6
BYLAYER
 10
46.9140064793
 20
33.5804263988
 11
45.4903118819
 21
30.9888829639
  0
LWPOLYLINE
  5
2EB
100
AcDbEntity
  8
0
100
AcDbPolyline
 62
7
  6
BYLAYER
 90
9
 70
0
 10
45.4903118819
 20
30.9888829639
 10
42.9029407535
 20
28.7107623477
 10
41.231804026
 20
27.7460981954
 10
37.2914939912
 20
26.2543024735
 10
32.8088725568
 20
25.4323437343
 10
28.1062032924
 20
25.3377469879
 10
23.5303809902
 20
25.9787209409
 10
19.4086682268
 20
27.3144763541
 10
17.6243031758
 20
28.2124700407
  0
LINE
  5
2EC
100
AcDbEntity
  8
0
100
AcDbLine
 62
7
  6
BYLAYER
 10
43.2515324986
 20
31.0642349613
 11
40.6440022333
 21
29.051373462
  0
LINE
  5
2ED
100
AcDbEntity
  8
0
100
AcDbLine
 62
7
  6
BYLAYER
 10
40.3957233333
 20
28.1089133336
 11
40.4324276086
 21
28.1256136599
  0
LINE
  5
2EE
100
AcDbEntity
  8
0
100
AcDbLine
 62
7
  6
BYLAYER
 10
25.4166550952
 20
64.3508283279
 11
25.0631031766
 21
64.5549574596
  0
LINE
  5
2EF
100
AcDbEntity
  8
0
100
AcDbLine
 62
7
  6
BYLAYER
 10
49.5035602597
 20
45.9930190226
 11
49.5035602597
 21
43.6021340073
  0
LINE
  5
2F0
100
AcDbEntity
  8
0
100
AcDbLine
 62
7
  6
BYLAYER
 10
49.5035602597
 20
37.0114924342
 11
49.5035602597
 21
34.6206074188
  0
LWPOLYLINE
  5
2F1
100
AcDbEntity
  8
0
100
AcDbPolyline
 62
7
  6
BYLAYER
 90
4
 70
0
 10
43.2193451639
 20
21.6741482236
 10
42.8844985145
 20
20.8808374772
 10
41.015885704
 20
18.9621231734
 10
39.7601150769
 20
18.1306405653
  0
LINE
  5
2F2
100
AcDbEntity
  8
0
100
AcDbLine
 62
7
  6
BYLAYER
 10
43.6089877891
 20
58.9486298488
 11
43.5943821603
 21
58.9678930373
  0
LINE
  5
2F3
100
AcDbEntity
  8
0
100
AcDbLine
 62
7
  6
BYLAYER
 10
40.467224802
 20
19.4370548867
 11
39.9015370219
 21
19.1104455567
  0
LINE
  5
2F4
100
AcDbEntity
  8
0
100
AcDbLine
 62
7
  6
BYLAYER
 10
43.6089877891
 20
58.9486298488
 11
43.5893982084
 21
58.9666292661
  0
LINE
  5
2F5
100
AcDbEntity
  8
0
100
AcDbLine
 62
7
  6
BYLAYER
 10
39.7601150769
 20
18.1306405653
 11
39.3004937555
 21
17.8652704846
  0
LINE
  5
2F6
100
AcDbEntity
  8
0
100
AcDbLine
 62
7
  6
BYLAYER
 10
25.9661673623
 20
75.1991420319
 11
26.3800630976
 21
74.9601846236
  0
LINE
  5
2F7
100
AcDbEntity
  8
0
100
AcDbLine
 62
7
  6
BYLAYER
 10
27.1932325104
 20
75.4296654006
 11
26.7793367751
 21
75.6686228089
  0
ARC
  5
2F8
100
AcDbEntity
  8
0
100
AcDbCircle
 62
7
  6
BYLAYER
 10
-8.8188824472
 20
-42.1967631893
 40
99.2335593213
100
AcDbArc
 50
54.5378993897
 51
55.2739856801
  0
ARC
  5
2F9
100
AcDbEntity
  8
0
100
AcDbCircle
 62
7
  6
BYLAYER
 10
-14.3609420126
 20
-26.6208826865
 40
62.9881071786
100
AcDbArc
 50
60.000421947
 51
60.2617795629
  0
ARC
  5
2FA
100
AcDbEntity
  8
0
100
AcDbCircle
 62
7
  6
BYLAYER
 10
26.6477353446
 20
32.2559082335
 40
14.7983410975
100
AcDbArc
 50
240.0232401232
 51
242.5384335999
  0
ARC
  5
2FB
100
AcDbEntity
  8
0
100
AcDbCircle
 62
7
  6
BYLAYER
 10
33.1893434349
 20
32.0467856645
 40
14.5592880143
100
AcDbArc
 50
297.5917310663
 51
299.9919906373
  0
ARC
  5
2FC
100
AcDbEntity
  8
0
100
AcDbCircle
 62
7
  6
BYLAYER
 10
33.1622058338
 20
30.7837586164
 40
13.479051252
100
AcDbArc
 50
299.2327355542
 51
299.9990456417
  0
ARC
  5
2FD
100
AcDbEntity
  8
0
100
AcDbCircle
 62
7
  6
BYLAYER
 10
33.2526902289
 20
30.2188694494
 40
13.0153138916
100
AcDbArc
 50
299.9988202066
 51
300.9420823636
  0
ARC
  5
2FE
100
AcDbEntity
  8
0
100
AcDbCircle
 62
7
  6
BYLAYER
 10
33.2818419742
 20
30.1693184287
 40
12.9578255946
100
AcDbArc
 50
299.9967339305
 51
300.9442949693
  0
ARC
  5
2FF
100
AcDbEntity
  8
0
100
AcDbCircle
 62
7
  6
BYLAYER
 10
33.0415940553
 20
19.6022091548
 40
12.5179798294
100
AcDbArc
 50
299.9995232034
 51
300.3609912763
  0
ARC
  5
300
100
AcDbEntity
  8
0
100
AcDbCircle
 62
7
  6
BYLAYER
 10
26.1610083115
 20
29.7094431296
 40
12.4202899526
100
AcDbArc
 50
236.4995314494
 51
239.0532269334
  0
ARC
  5
301
100
AcDbEntity
  8
0
100
AcDbCircle
 62
7
  6
BYLAYER
 10
33.5937606808
 20
29.6533136848
 40
12.3548752577
100
AcDbArc
 50
300.9340163817
 51
303.9943438127
  0
ARC
  5
302
100
AcDbEntity
  8
0
100
AcDbCircle
 62
7
  6
BYLAYER
 10
26.0757732104
 20
29.5742373717
 40
12.2605005074
100
AcDbArc
 50
236.5007051734
 51
239.0701563266
  0
ARC
  5
303
100
AcDbEntity
  8
0
100
AcDbCircle
 62
7
  6
BYLAYER
 10
33.692753916
 20
29.4977040154
 40
12.170512954
100
AcDbArc
 50
300.9109699802
 51
304.0179141454
  0
ARC
  5
304
100
AcDbEntity
  8
0
100
AcDbCircle
 62
7
  6
BYLAYER
 10
24.1704069679
 20
37.2370387697
 40
16.9977526544
100
AcDbArc
 50
123.2213455516
 51
123.7369059161
  0
ARC
  5
305
100
AcDbEntity
  8
0
100
AcDbCircle
 62
7
  6
BYLAYER
 10
24.1540214913
 20
40.2483865998
 40
13.0058867943
100
AcDbArc
 50
232.2237039424
 51
233.8606705161
  0
ARC
  5
306
100
AcDbEntity
  8
0
100
AcDbCircle
 62
7
  6
BYLAYER
 10
23.1125730072
 20
38.9178562488
 40
11.2386533855
100
AcDbArc
 50
226.9305568181
 51
228.7013676562
  0
ARC
  5
307
100
AcDbEntity
  8
0
100
AcDbCircle
 62
7
  6
BYLAYER
 10
23.011013341
 20
38.8678007857
 40
11.2129960366
100
AcDbArc
 50
226.9123600381
 51
228.7195644362
  0
ARC
  5
308
100
AcDbEntity
  8
0
100
AcDbCircle
 62
7
  6
BYLAYER
 10
22.0039452165
 20
37.8013534248
 40
9.6646529448
100
AcDbArc
 50
221.0609477855
 51
223.0191577677
  0
ARC
  5
309
100
AcDbEntity
  8
0
100
AcDbCircle
 62
7
  6
BYLAYER
 10
21.8988982426
 20
37.7599280479
 40
9.6426364652
100
AcDbArc
 50
221.0408298538
 51
223.0392756994
  0
ARC
  5
30A
100
AcDbEntity
  8
0
100
AcDbCircle
 62
7
  6
BYLAYER
 10
20.976233325
 20
36.9639434709
 40
8.3383637656
100
AcDbArc
 50
214.5774098244
 51
216.7382648961
  0
ARC
  5
30B
100
AcDbEntity
  8
0
100
AcDbCircle
 62
7
  6
BYLAYER
 10
20.8710479294
 20
36.9326446378
 40
8.3226114898
100
AcDbArc
 50
214.5556391924
 51
216.7600355281
  0
ARC
  5
30C
100
AcDbEntity
  8
0
100
AcDbCircle
 62
7
  6
BYLAYER
 10
20.0804638963
 20
36.3925143786
 40
7.2752686322
100
AcDbArc
 50
207.4568017661
 51
209.823688382
  0
ARC
  5
30D
100
AcDbEntity
  8
0
100
AcDbCircle
 62
7
  6
BYLAYER
 10
19.9785796499
 20
36.3715783421
 40
7.2678502932
100
AcDbArc
 50
207.434005709
 51
209.8464844391
  0
ARC
  5
30E
100
AcDbEntity
  8
0
100
AcDbCircle
 62
7
  6
BYLAYER
 10
19.3058630492
 20
36.0568324552
 40
6.5247111287
100
AcDbArc
 50
200.5749420757
 51
202.3022355321
  0
ARC
  5
30F
100
AcDbEntity
  8
0
100
AcDbCircle
 62
7
  6
BYLAYER
 10
19.6350794396
 20
35.5253420254
 40
6.5071821478
100
AcDbArc
 50
202.436951452
 51
203.0998798258
  0
ARC
  5
310
100
AcDbEntity
  8
0
100
AcDbCircle
 62
7
  6
BYLAYER
 10
19.3622755366
 20
36.0532252333
 40
6.4804563113
100
AcDbArc
 50
199.7281304239
 51
202.2853959796
  0
ARC
  5
311
100
AcDbEntity
  8
0
100
AcDbCircle
 62
7
  6
BYLAYER
 10
19.2175095285
 20
36.023567127
 40
6.4303028776
100
AcDbArc
 50
199.702589493
 51
200.5741119225
  0
ARC
  5
312
100
AcDbEntity
  8
0
100
AcDbCircle
 62
7
  6
BYLAYER
 10
18.7733023686
 20
35.8899057317
 40
5.9661207464
100
AcDbArc
 50
191.4709291058
 51
194.2211295512
  0
ARC
  5
313
100
AcDbEntity
  8
0
100
AcDbCircle
 62
7
  6
BYLAYER
 10
18.8589259546
 20
35.8943663383
 40
5.9522485305
100
AcDbArc
 50
191.4923921746
 51
194.1996664824
  0
ARC
  5
314
100
AcDbEntity
  8
0
100
AcDbCircle
 62
7
  6
BYLAYER
 10
19.1042776347
 20
35.3423187858
 40
5.9452561367
100
AcDbArc
 50
194.0517750228
 51
195.2686353438
  0
ARC
  5
315
100
AcDbEntity
  8
0
100
AcDbCircle
 62
7
  6
BYLAYER
 10
18.5237928181
 20
35.8471959997
 40
5.7132494119
100
AcDbArc
 50
174.7734933717
 51
177.0901531432
  0
ARC
  5
316
100
AcDbEntity
  8
0
100
AcDbCircle
 62
7
  6
BYLAYER
 10
18.5233704755
 20
35.8499306675
 40
5.7128242315
100
AcDbArc
 50
182.9102170314
 51
185.7400206836
  0
ARC
  5
317
100
AcDbEntity
  8
0
100
AcDbCircle
 62
7
  6
BYLAYER
 10
18.5968418444
 20
35.85045266
 40
5.6863133861
100
AcDbArc
 50
182.9290609489
 51
185.721176766
  0
ARC
  5
318
100
AcDbEntity
  8
0
100
AcDbCircle
 62
7
  6
BYLAYER
 10
18.5855574336
 20
35.8475051438
 40
5.6750046551
100
AcDbArc
 50
175.3946364904
 51
177.0736489937
  0
ARC
  5
319
100
AcDbEntity
  8
0
100
AcDbCircle
 62
7
  6
BYLAYER
 10
23.2621878615
 20
62.7886525859
 40
7.5263679209
100
AcDbArc
 50
220.3443184161
 51
220.7738378777
  0
ARC
  5
31A
100
AcDbEntity
  8
0
100
AcDbCircle
 62
7
  6
BYLAYER
 10
23.2355173442
 20
62.7689604085
 40
7.5055829687
100
AcDbArc
 50
220.1725972497
 51
220.6186118947
  0
ARC
  5
31B
100
AcDbEntity
  8
0
100
AcDbCircle
 62
7
  6
BYLAYER
 10
23.1755538378
 20
62.7152241065
 40
7.4128019983
100
AcDbArc
 50
219.4867108676
 51
220.2680761715
  0
ARC
  5
31C
100
AcDbEntity
  8
0
100
AcDbCircle
 62
7
  6
BYLAYER
 10
20.7040127638
 20
61.4049800591
 40
4.5934229542
100
AcDbArc
 50
174.9152943526
 51
179.1751275165
  0
ARC
  5
31D
100
AcDbEntity
  8
0
100
AcDbCircle
 62
7
  6
BYLAYER
 10
20.7090773101
 20
61.8195160443
 40
4.5876574915
100
AcDbArc
 50
179.9986220083
 51
185.0093638099
  0
ARC
  5
31E
100
AcDbEntity
  8
0
100
AcDbCircle
 62
7
  6
BYLAYER
 10
20.6944675216
 20
58.8143982307
 40
4.5838787488
100
AcDbArc
 50
178.6766416157
 51
180.0025690351
  0
ARC
  5
31F
100
AcDbEntity
  8
0
100
AcDbCircle
 62
7
  6
BYLAYER
 10
20.6943225839
 20
61.4053354593
 40
4.5837286671
100
AcDbArc
 50
179.1778257425
 51
179.9053209402
  0
ARC
  5
320
100
AcDbEntity
  8
0
100
AcDbCircle
 62
7
  6
BYLAYER
 10
29.7427131233
 20
54.1473608989
 40
28.1368225315
100
AcDbArc
 50
262.2547157015
 51
263.1951085375
  0
ARC
  5
321
100
AcDbEntity
  8
0
100
AcDbCircle
 62
7
  6
BYLAYER
 10
29.7497567819
 20
54.0896303553
 40
28.0217940608
100
AcDbArc
 50
262.2242979355
 51
263.1883104485
  0
ARC
  5
322
100
AcDbEntity
  8
0
100
AcDbCircle
 62
7
  6
BYLAYER
 10
29.5471092048
 20
52.9017365898
 40
26.8758047138
100
AcDbArc
 50
259.2295738355
 51
260.187290091
  0
ARC
  5
323
100
AcDbEntity
  8
0
100
AcDbCircle
 62
7
  6
BYLAYER
 10
29.5603507655
 20
52.8642956473
 40
26.7817806995
100
AcDbArc
 50
259.1865577814
 51
260.1799664114
  0
ARC
  5
324
100
AcDbEntity
  8
0
100
AcDbCircle
 62
7
  6
BYLAYER
 10
29.2175256617
 20
51.3474130936
 40
25.2867467047
100
AcDbArc
 50
256.0907047169
 51
257.0758393319
  0
ARC
  5
325
100
AcDbEntity
  8
0
100
AcDbCircle
 62
7
  6
BYLAYER
 10
29.2382893165
 20
51.3274735979
 40
25.2114027244
100
AcDbArc
 50
256.0338103637
 51
257.0679144029
  0
ARC
  5
326
100
AcDbEntity
  8
0
100
AcDbCircle
 62
7
  6
BYLAYER
 10
28.7343102196
 20
49.5632058504
 40
23.4380377169
100
AcDbArc
 50
252.8010401467
 51
253.82453842
  0
ARC
  5
327
100
AcDbEntity
  8
0
100
AcDbCircle
 62
7
  6
BYLAYER
 10
28.7634276179
 20
49.5575543977
 40
23.3786680689
100
AcDbArc
 50
252.7286000064
 51
253.8159212393
  0
ARC
  5
328
100
AcDbEntity
  8
0
100
AcDbCircle
 62
7
  6
BYLAYER
 10
28.0897083265
 20
47.6372771142
 40
21.406821281
100
AcDbArc
 50
249.3189984526
 51
250.3930009327
  0
ARC
  5
329
100
AcDbEntity
  8
0
100
AcDbCircle
 62
7
  6
BYLAYER
 10
28.1275195889
 20
47.6425593102
 40
21.3605795619
100
AcDbArc
 50
249.2289632825
 51
250.3835837892
  0
ARC
  5
32A
100
AcDbEntity
  8
0
100
AcDbCircle
 62
7
  6
BYLAYER
 10
27.2886848874
 20
45.6614036433
 40
19.2744201644
100
AcDbArc
 50
245.5974187336
 51
246.7356395386
  0
ARC
  5
32B
100
AcDbEntity
  8
0
100
AcDbCircle
 62
7
  6
BYLAYER
 10
27.335088888
 20
45.6743902455
 40
19.2385483668
100
AcDbArc
 50
245.4874152489
 51
246.7252969473
  0
ARC
  5
32C
100
AcDbEntity
  8
0
100
AcDbCircle
 62
7
  6
BYLAYER
 10
26.4034160184
 20
43.7428605786
 40
17.0936806071
100
AcDbArc
 50
241.4501113918
 51
242.789337031
  0
ARC
  5
32D
100
AcDbEntity
  8
0
100
AcDbCircle
 62
7
  6
BYLAYER
 10
26.3286492618
 20
43.6866251158
 40
17.0782354603
100
AcDbArc
 50
241.4372935886
 51
242.8021548342
  0
ARC
  5
32E
100
AcDbEntity
  8
0
100
AcDbCircle
 62
7
  6
BYLAYER
 10
25.3616401695
 20
41.9299117733
 40
15.0022894835
100
AcDbArc
 50
237.0564908031
 51
238.517307502
  0
ARC
  5
32F
100
AcDbEntity
  8
0
100
AcDbCircle
 62
7
  6
BYLAYER
 10
25.2757630619
 20
41.8715828712
 40
14.9794725351
100
AcDbArc
 50
237.0420488539
 51
238.5317494512
  0
ARC
  5
330
100
AcDbEntity
  8
0
100
AcDbCircle
 62
7
  6
BYLAYER
 10
24.2490348748
 20
40.3044073715
 40
13.0319828813
100
AcDbArc
 50
232.2399608726
 51
233.8444135859
  0
ARC
  5
331
100
AcDbEntity
  8
0
100
AcDbCircle
 62
7
  6
BYLAYER
 10
29.859648496
 20
55.4791418382
 40
29.4742184469
100
AcDbArc
 50
268.0824080067
 51
269.0299359188
  0
ARC
  5
332
100
AcDbEntity
  8
0
100
AcDbCircle
 62
7
  6
BYLAYER
 10
29.8596536502
 20
55.3640427775
 40
29.3013852123
100
AcDbArc
 50
268.0881413433
 51
269.0242025822
  0
ARC
  5
333
100
AcDbEntity
  8
0
100
AcDbCircle
 62
7
  6
BYLAYER
 10
29.8339897231
 20
55.0165523975
 40
29.0108759725
100
AcDbArc
 50
265.1746363688
 51
266.1324230119
  0
ARC
  5
334
100
AcDbEntity
  8
0
100
AcDbCircle
 62
7
  6
BYLAYER
 10
29.8368577333
 20
54.9398602932
 40
28.876555677
100
AcDbArc
 50
265.181018257
 51
266.1260411237
  0
ARC
  5
335
100
AcDbEntity
  8
0
100
AcDbCircle
 62
7
  6
BYLAYER
 10
27.5548797157
 20
69.2034335818
 40
14.9612950016
100
AcDbArc
 50
244.2519429183
 51
245.49386184
  0
ARC
  5
336
100
AcDbEntity
  8
0
100
AcDbCircle
 62
7
  6
BYLAYER
 10
27.2792692503
 20
68.6359542118
 40
14.3304298345
100
AcDbArc
 50
242.7302713422
 51
244.2588379282
  0
ARC
  5
337
100
AcDbEntity
  8
0
100
AcDbCircle
 62
7
  6
BYLAYER
 10
27.1260393635
 20
68.3373009154
 40
13.9947621804
100
AcDbArc
 50
242.3870816443
 51
242.7276628407
  0
ARC
  5
338
100
AcDbEntity
  8
0
100
AcDbCircle
 62
7
  6
BYLAYER
 10
27.0180265685
 20
68.1315727647
 40
13.7624031758
100
AcDbArc
 50
241.6922346758
 51
242.3885633289
  0
ARC
  5
339
100
AcDbEntity
  8
0
100
AcDbCircle
 62
7
  6
BYLAYER
 10
26.8841021588
 20
67.8835520144
 40
13.480534499
100
AcDbArc
 50
240.9846301719
 51
241.6934906052
  0
ARC
  5
33A
100
AcDbEntity
  8
0
100
AcDbCircle
 62
7
  6
BYLAYER
 10
26.595903313
 20
67.3710173618
 40
12.8925395332
100
AcDbArc
 50
238.9349819241
 51
240.9998509055
  0
ARC
  5
33B
100
AcDbEntity
  8
0
100
AcDbCircle
 62
7
  6
BYLAYER
 10
26.2806557179
 20
66.8479153107
 40
12.2817885286
100
AcDbArc
 50
237.6874481232
 51
238.935492236
  0
ARC
  5
33C
100
AcDbEntity
  8
0
100
AcDbCircle
 62
7
  6
BYLAYER
 10
26.1569877948
 20
66.6516325305
 40
12.0497960304
100
AcDbArc
 50
237.494842933
 51
237.6855308822
  0
ARC
  5
33D
100
AcDbEntity
  8
0
100
AcDbCircle
 62
7
  6
BYLAYER
 10
25.8783891175
 20
66.2217675418
 40
11.5375609357
100
AcDbArc
 50
235.1996040049
 51
237.5144852678
  0
ARC
  5
33E
100
AcDbEntity
  8
0
100
AcDbCircle
 62
7
  6
BYLAYER
 10
25.5506119551
 20
65.7502232561
 40
10.9632858445
100
AcDbArc
 50
233.8330786657
 51
235.1997778631
  0
ARC
  5
33F
100
AcDbEntity
  8
0
100
AcDbCircle
 62
7
  6
BYLAYER
 10
25.4167619039
 20
65.5664691681
 40
10.7359507371
100
AcDbArc
 50
233.5294135097
 51
233.8310331765
  0
ARC
  5
340
100
AcDbEntity
  8
0
100
AcDbCircle
 62
7
  6
BYLAYER
 10
29.3056737095
 20
68.0334049588
 40
8.8845980176
100
AcDbArc
 50
84.7834978904
 51
95.032052373
  0
ARC
  5
341
100
AcDbEntity
  8
0
100
AcDbCircle
 62
7
  6
BYLAYER
 10
29.2916322852
 20
68.2254717271
 40
8.6920403703
100
AcDbArc
 50
95.0509011643
 51
95.2443501354
  0
ARC
  5
342
100
AcDbEntity
  8
0
100
AcDbCircle
 62
7
  6
BYLAYER
 10
29.3212399178
 20
68.2399407067
 40
8.6775030364
100
AcDbArc
 50
84.5714635961
 51
84.7618646834
  0
ARC
  5
343
100
AcDbEntity
  8
0
100
AcDbCircle
 62
7
  6
BYLAYER
 10
27.9568591998
 20
63.7293776783
 40
5.2220690498
100
AcDbArc
 50
239.1271445118
 51
240.0015220109
  0
ARC
  5
344
100
AcDbEntity
  8
0
100
AcDbCircle
 62
7
  6
BYLAYER
 10
27.8207454946
 20
63.5026782668
 40
4.9576464705
100
AcDbArc
 50
236.3743872465
 51
239.1329249698
  0
ARC
  5
345
100
AcDbEntity
  8
0
100
AcDbCircle
 62
7
  6
BYLAYER
 10
27.5937428628
 20
63.1594386879
 40
4.5461341491
100
AcDbArc
 50
232.9676978202
 51
236.3610968609
  0
ARC
  5
346
100
AcDbEntity
  8
0
100
AcDbCircle
 62
7
  6
BYLAYER
 10
26.1522975708
 20
71.3515940409
 40
2.941042965
100
AcDbArc
 50
143.5602365498
 51
145.4401190207
  0
ARC
  5
347
100
AcDbEntity
  8
0
100
AcDbCircle
 62
7
  6
BYLAYER
 10
25.9302441932
 20
73.0491903947
 40
2.1363050014
100
AcDbArc
 50
157.1148654172
 51
157.7460264013
  0
ARC
  5
348
100
AcDbEntity
  8
0
100
AcDbCircle
 62
7
  6
BYLAYER
 10
25.9000899317
 20
73.0614596371
 40
2.1037502847
100
AcDbArc
 50
157.7442711996
 51
159.8398674753
  0
ARC
  5
349
100
AcDbEntity
  8
0
100
AcDbCircle
 62
7
  6
BYLAYER
 10
25.5871400423
 20
61.4923728122
 40
1.8814102792
100
AcDbArc
 50
172.3957508799
 51
177.3651410461
  0
ARC
  5
34A
100
AcDbEntity
  8
0
100
AcDbCircle
 62
7
  6
BYLAYER
 10
25.5767073132
 20
61.4929214252
 40
1.8709633609
100
AcDbArc
 50
177.3672367029
 51
179.3781055187
  0
ARC
  5
34B
100
AcDbEntity
  8
0
100
AcDbCircle
 62
7
  6
BYLAYER
 10
21.9974091414
 20
111.7118516785
 40
81.722591114
100
AcDbArc
 50
279.9826281421
 51
280.3070020018
  0
ARC
  5
34C
100
AcDbEntity
  8
0
100
AcDbCircle
 62
7
  6
BYLAYER
 10
22.1352255354
 20
110.9270152534
 40
80.9257464186
100
AcDbArc
 50
279.3041928177
 51
279.9828555259
  0
ARC
  5
34D
100
AcDbEntity
  8
0
100
AcDbCircle
 62
7
  6
BYLAYER
 10
22.3009586816
 20
109.9246344637
 40
79.9097579986
100
AcDbArc
 50
278.9651625333
 51
279.3031231963
  0
ARC
  5
34E
100
AcDbEntity
  8
0
100
AcDbCircle
 62
7
  6
BYLAYER
 10
22.3726290677
 20
109.471757779
 40
79.451245309
100
AcDbArc
 50
278.7940526072
 51
278.9650029646
  0
ARC
  5
34F
100
AcDbEntity
  8
0
100
AcDbCircle
 62
7
  6
BYLAYER
 10
29.5075698064
 20
78.5955367452
 40
7.6063776382
100
AcDbArc
 50
283.6675019026
 51
283.7997655146
  0
ARC
  5
350
100
AcDbEntity
  8
0
100
AcDbCircle
 62
7
  6
BYLAYER
 10
28.1578921703
 20
75.5146270988
 40
5.2758143325
100
AcDbArc
 50
240.747242088
 51
242.0439881207
  0
ARC
  5
351
100
AcDbEntity
  8
0
100
AcDbCircle
 62
7
  6
BYLAYER
 10
28.0702541583
 20
75.3570436329
 40
5.0955016485
100
AcDbArc
 50
240.0028218375
 51
240.7411308499
  0
ARC
  5
352
100
AcDbEntity
  8
0
100
AcDbCircle
 62
7
  6
BYLAYER
 10
28.0233475493
 20
75.9287359078
 40
5.001458904
100
AcDbArc
 50
239.4387794241
 51
240.0013568364
  0
ARC
  5
353
100
AcDbEntity
  8
0
100
AcDbCircle
 62
7
  6
BYLAYER
 10
29.9787168091
 20
54.0324732606
 40
27.9641727249
100
AcDbArc
 50
276.810981243
 51
277.776979021
  0
ARC
  5
354
100
AcDbEntity
  8
0
100
AcDbCircle
 62
7
  6
BYLAYER
 10
30.1608082778
 20
52.9746535506
 40
26.9499114439
100
AcDbArc
 50
279.814320535
 51
280.7694004562
  0
ARC
  5
355
100
AcDbEntity
  8
0
100
AcDbCircle
 62
7
  6
BYLAYER
 10
30.1746016026
 20
52.7885162448
 40
26.7047588846
100
AcDbArc
 50
279.818894917
 51
280.8151671185
  0
ARC
  5
356
100
AcDbEntity
  8
0
100
AcDbCircle
 62
7
  6
BYLAYER
 10
30.4831101652
 20
51.4334430849
 40
25.3751872837
100
AcDbArc
 50
282.926183631
 51
283.9078813535
  0
ARC
  5
357
100
AcDbEntity
  8
0
100
AcDbCircle
 62
7
  6
BYLAYER
 10
30.5045105704
 20
51.2369752357
 40
25.1183563679
100
AcDbArc
 50
282.9304765951
 51
283.9684091306
  0
ARC
  5
358
100
AcDbEntity
  8
0
100
AcDbCircle
 62
7
  6
BYLAYER
 10
30.9585079313
 20
49.6577426849
 40
23.5367270114
100
AcDbArc
 50
286.1779296099
 51
287.1971323454
  0
ARC
  5
359
100
AcDbEntity
  8
0
100
AcDbCircle
 62
7
  6
BYLAYER
 10
30.9879815023
 20
49.4568997542
 40
23.273570501
100
AcDbArc
 50
286.1819461841
 51
287.2741747386
  0
ARC
  5
35A
100
AcDbEntity
  8
0
100
AcDbCircle
 62
7
  6
BYLAYER
 10
31.5953975603
 20
47.735558895
 40
21.5115021929
100
AcDbArc
 50
289.6099547788
 51
290.6787261499
  0
ARC
  5
35B
100
AcDbEntity
  8
0
100
AcDbCircle
 62
7
  6
BYLAYER
 10
31.6325845199
 20
47.5366716689
 40
21.2477624263
100
AcDbArc
 50
289.6136937192
 51
290.7744413929
  0
ARC
  5
35C
100
AcDbEntity
  8
0
100
AcDbCircle
 62
7
  6
BYLAYER
 10
32.3894362608
 20
45.7588258908
 40
19.3809196367
100
AcDbArc
 50
293.2678552688
 51
294.399815992
  0
ARC
  5
35D
100
AcDbEntity
  8
0
100
AcDbCircle
 62
7
  6
BYLAYER
 10
32.4330978189
 20
45.5682327165
 40
19.1224468872
100
AcDbArc
 50
293.2713130648
 51
294.5167063926
  0
ARC
  5
35E
100
AcDbEntity
  8
0
100
AcDbCircle
 62
7
  6
BYLAYER
 10
33.3378929525
 20
43.7898611614
 40
17.1950199826
100
AcDbArc
 50
297.2028789004
 51
298.5584645083
  0
ARC
  5
35F
100
AcDbEntity
  8
0
100
AcDbCircle
 62
7
  6
BYLAYER
 10
33.3715689455
 20
43.6411150163
 40
16.9785819626
100
AcDbArc
 50
297.2065220171
 51
298.5548213916
  0
ARC
  5
360
100
AcDbEntity
  8
0
100
AcDbCircle
 62
7
  6
BYLAYER
 10
34.385792281
 20
41.9661812788
 40
15.0912724373
100
AcDbArc
 50
301.4742040941
 51
302.952861591
  0
ARC
  5
361
100
AcDbEntity
  8
0
100
AcDbCircle
 62
7
  6
BYLAYER
 10
34.418259668
 20
41.8366791435
 40
14.8921034641
100
AcDbArc
 50
301.4777231289
 51
302.9493425562
  0
ARC
  5
362
100
AcDbEntity
  8
0
100
AcDbCircle
 62
7
  6
BYLAYER
 10
35.5049493241
 20
40.3310374194
 40
13.1093093105
100
AcDbArc
 50
306.1462654689
 51
307.7703092459
  0
ARC
  5
363
100
AcDbEntity
  8
0
100
AcDbCircle
 62
7
  6
BYLAYER
 10
29.8615098909
 20
55.4791204265
 40
29.4741970287
100
AcDbArc
 50
270.9703396457
 51
271.9178680169
  0
ARC
  5
364
100
AcDbEntity
  8
0
100
AcDbCircle
 62
7
  6
BYLAYER
 10
29.8615047336
 20
55.3640214914
 40
29.3013639198
100
AcDbArc
 50
270.9760729851
 51
271.9121346775
  0
ARC
  5
365
100
AcDbEntity
  8
0
100
AcDbCircle
 62
7
  6
BYLAYER
 10
29.8844266541
 20
55.0526203126
 40
29.0470466619
100
AcDbArc
 50
273.8684522977
 51
274.825045539
  0
ARC
  5
366
100
AcDbEntity
  8
0
100
AcDbCircle
 62
7
  6
BYLAYER
 10
29.8870020013
 20
54.9043131122
 40
28.8409071732
100
AcDbArc
 50
273.8736537727
 51
274.8198440641
  0
ARC
  5
367
100
AcDbEntity
  8
0
100
AcDbCircle
 62
7
  6
BYLAYER
 10
29.9713382724
 20
54.2030263622
 40
28.1929378911
100
AcDbArc
 50
276.8061122088
 51
277.7446310001
  0
ARC
  5
368
100
AcDbEntity
  8
0
100
AcDbCircle
 62
7
  6
BYLAYER
 10
31.8500779291
 20
69.9487579619
 40
15.7796312059
100
AcDbArc
 50
292.6428193526
 51
294.3754146214
  0
ARC
  5
369
100
AcDbEntity
  8
0
100
AcDbCircle
 62
7
  6
BYLAYER
 10
32.1284782626
 20
69.3286757723
 40
15.0999231932
100
AcDbArc
 50
294.3842647956
 51
295.7021686288
  0
ARC
  5
36A
100
AcDbEntity
  8
0
100
AcDbCircle
 62
7
  6
BYLAYER
 10
32.3456339274
 20
68.8745059908
 40
14.5965098192
100
AcDbArc
 50
295.7072712379
 51
296.6693244587
  0
ARC
  5
36B
100
AcDbEntity
  8
0
100
AcDbCircle
 62
7
  6
BYLAYER
 10
32.4993993432
 20
68.5666720239
 40
14.2524096014
100
AcDbArc
 50
296.6723869504
 51
297.2325165565
  0
ARC
  5
36C
100
AcDbEntity
  8
0
100
AcDbCircle
 62
7
  6
BYLAYER
 10
32.6045734723
 20
68.3619007176
 40
14.022207843
100
AcDbArc
 50
297.2332830693
 51
297.6432528497
  0
ARC
  5
36D
100
AcDbEntity
  8
0
100
AcDbCircle
 62
7
  6
BYLAYER
 10
32.6948691133
 20
68.1895073874
 40
13.8275985856
100
AcDbArc
 50
297.6432351877
 51
298.2323753486
  0
ARC
  5
36E
100
AcDbEntity
  8
0
100
AcDbCircle
 62
7
  6
BYLAYER
 10
32.8296221768
 20
67.9382343623
 40
13.5424731734
100
AcDbArc
 50
298.2329762613
 51
298.9938597697
  0
ARC
  5
36F
100
AcDbEntity
  8
0
100
AcDbCircle
 62
7
  6
BYLAYER
 10
33.0085581861
 20
67.6148819452
 40
13.1729128542
100
AcDbArc
 50
298.9948331811
 51
299.9957480236
  0
ARC
  5
370
100
AcDbEntity
  8
0
100
AcDbCircle
 62
7
  6
BYLAYER
 10
33.211049708
 20
67.2628389336
 40
12.7667888697
100
AcDbArc
 50
299.9985689457
 51
301.0501227733
  0
ARC
  5
371
100
AcDbEntity
  8
0
100
AcDbCircle
 62
7
  6
BYLAYER
 10
33.4193423577
 20
66.916005013
 40
12.3622157713
100
AcDbArc
 50
301.0521850063
 51
302.2986459917
  0
ARC
  5
372
100
AcDbEntity
  8
0
100
AcDbCircle
 62
7
  6
BYLAYER
 10
33.5797420228
 20
66.6600947794
 40
12.0601947085
100
AcDbArc
 50
302.3041540046
 51
302.5477726032
  0
ARC
  5
373
100
AcDbEntity
  8
0
100
AcDbCircle
 62
7
  6
BYLAYER
 10
33.7740051759
 20
66.3578727564
 40
11.7009246914
100
AcDbArc
 50
302.5421093291
 51
304.7165439428
  0
ARC
  5
374
100
AcDbEntity
  8
0
100
AcDbCircle
 62
7
  6
BYLAYER
 10
34.1325165737
 20
65.835135279
 40
11.0670672486
100
AcDbArc
 50
304.7321724765
 51
306.0902762935
  0
ARC
  5
375
100
AcDbEntity
  8
0
100
AcDbCircle
 62
7
  6
BYLAYER
 10
34.3048321362
 20
65.5964975062
 40
10.7727224928
100
AcDbArc
 50
306.0973251464
 51
306.2612990698
  0
ARC
  5
376
100
AcDbEntity
  8
0
100
AcDbCircle
 62
7
  6
BYLAYER
 10
34.5218997728
 20
65.3030444505
 40
10.407714479
100
AcDbArc
 50
306.2532647823
 51
308.8036975821
  0
ARC
  5
377
100
AcDbEntity
  8
0
100
AcDbCircle
 62
7
  6
BYLAYER
 10
34.8994183097
 20
64.8277632276
 40
9.8007561325
100
AcDbArc
 50
308.8249635948
 51
310.3025511965
  0
ARC
  5
378
100
AcDbEntity
  8
0
100
AcDbCircle
 62
7
  6
BYLAYER
 10
35.0767227571
 20
64.616790905
 40
9.5251756552
100
AcDbArc
 50
310.3100252315
 51
310.6188861344
  0
ARC
  5
379
100
AcDbEntity
  8
0
100
AcDbCircle
 62
7
  6
BYLAYER
 10
30.3275435784
 20
64.337517863
 40
5.9127004083
100
AcDbArc
 50
295.4360562911
 51
296.8719533826
  0
ARC
  5
37A
100
AcDbEntity
  8
0
100
AcDbCircle
 62
7
  6
BYLAYER
 10
30.6080023033
 20
71.9921268816
 40
4.681399202
100
AcDbArc
 50
58.4796630392
 51
59.4411474205
  0
ARC
  5
37B
100
AcDbEntity
  8
0
100
AcDbCircle
 62
7
  6
BYLAYER
 10
30.1587307628
 20
71.9945551809
 40
4.223357173
100
AcDbArc
 50
60.0577222708
 51
63.7723557617
  0
ARC
  5
37C
100
AcDbEntity
  8
0
100
AcDbCircle
 62
7
  6
BYLAYER
 10
32.4158833547
 20
71.3199885996
 40
2.9946228451
100
AcDbArc
 50
35.9586027897
 51
37.0348495912
  0
ARC
  5
37D
100
AcDbEntity
  8
0
100
AcDbCircle
 62
7
  6
BYLAYER
 10
32.8047995928
 20
73.0944621859
 40
2.0046650678
100
AcDbArc
 50
15.3619824498
 51
19.9055500997
  0
ARC
  5
37E
100
AcDbEntity
  8
0
100
AcDbCircle
 62
7
  6
BYLAYER
 10
32.9940710253
 20
61.4892936308
 40
1.9117514478
100
AcDbArc
 50
2.2316328055
 51
13.3229810695
  0
ARC
  5
37F
100
AcDbEntity
  8
0
100
AcDbCircle
 62
7
  6
BYLAYER
 10
33.0360679484
 20
61.4930781348
 40
1.8696402417
100
AcDbArc
 50
0.1352492826
 51
2.165858835
  0
ARC
  5
380
100
AcDbEntity
  8
0
100
AcDbCircle
 62
7
  6
BYLAYER
 10
35.5334121765
 20
40.2229498365
 40
12.9300532706
100
AcDbArc
 50
306.1497402433
 51
307.7668344714
  0
ARC
  5
381
100
AcDbEntity
  8
0
100
AcDbCircle
 62
7
  6
BYLAYER
 10
36.648115575
 20
38.9362468533
 40
11.305355907
100
AcDbArc
 50
311.2883463662
 51
313.0807769
  0
ARC
  5
382
100
AcDbEntity
  8
0
100
AcDbCircle
 62
7
  6
BYLAYER
 10
36.6697182263
 20
38.8503983848
 40
11.1476266793
100
AcDbArc
 50
311.2919300641
 51
313.0771932021
  0
ARC
  5
383
100
AcDbEntity
  8
0
100
AcDbCircle
 62
7
  6
BYLAYER
 10
37.7632961616
 20
37.8130931187
 40
9.7220172513
100
AcDbArc
 50
316.9694678786
 51
318.9515851942
  0
ARC
  5
384
100
AcDbEntity
  8
0
100
AcDbCircle
 62
7
  6
BYLAYER
 10
37.7753247878
 20
37.7489559378
 40
9.5864179208
100
AcDbArc
 50
316.9734349755
 51
318.9476180973
  0
ARC
  5
385
100
AcDbEntity
  8
0
100
AcDbCircle
 62
7
  6
BYLAYER
 10
38.7970960199
 20
36.9706794224
 40
8.387846095
100
AcDbArc
 50
323.2491817457
 51
325.4364218269
  0
ARC
  5
386
100
AcDbEntity
  8
0
100
AcDbCircle
 62
7
  6
BYLAYER
 10
38.7971730314
 20
36.9264578265
 40
8.2740706857
100
AcDbArc
 50
323.2539828173
 51
325.4316207553
  0
ARC
  5
387
100
AcDbEntity
  8
0
100
AcDbCircle
 62
7
  6
BYLAYER
 10
39.6981866598
 20
36.3958215142
 40
7.3184191867
100
AcDbArc
 50
330.1625563062
 51
332.5583531346
  0
ARC
  5
388
100
AcDbEntity
  8
0
100
AcDbCircle
 62
7
  6
BYLAYER
 10
39.6844445862
 20
36.3686212301
 40
7.2254295477
100
AcDbArc
 50
330.1688519837
 51
332.5520574571
  0
ARC
  5
389
100
AcDbEntity
  8
0
100
AcDbCircle
 62
7
  6
BYLAYER
 10
40.3925482635
 20
36.0657642329
 40
6.5491456573
100
AcDbArc
 50
337.7017425081
 51
339.4225854056
  0
ARC
  5
38A
100
AcDbEntity
  8
0
100
AcDbCircle
 62
7
  6
BYLAYER
 10
40.7211030303
 20
35.1206199527
 40
6.4642498731
100
AcDbArc
 50
19.0224499259
 51
19.5955562087
  0
ARC
  5
38B
100
AcDbEntity
  8
0
100
AcDbCircle
 62
7
  6
BYLAYER
 10
40.3918815053
 20
36.040553816
 40
6.4451167208
100
AcDbArc
 50
337.7083516021
 51
340.2796331202
  0
ARC
  5
38C
100
AcDbEntity
  8
0
100
AcDbCircle
 62
7
  6
BYLAYER
 10
40.5037046072
 20
36.0235464858
 40
6.4302429267
100
AcDbArc
 50
339.4266464257
 51
340.2981742721
  0
ARC
  5
38D
100
AcDbEntity
  8
0
100
AcDbCircle
 62
7
  6
BYLAYER
 10
40.9503351281
 20
35.1953882386
 40
6.223135259
100
AcDbArc
 50
11.7686125762
 51
18.4462772694
  0
ARC
  5
38E
100
AcDbEntity
  8
0
100
AcDbCircle
 62
7
  6
BYLAYER
 10
40.9270319582
 20
35.8946541689
 40
5.9874726711
100
AcDbArc
 50
345.7845771119
 51
348.5249624822
  0
ARC
  5
38F
100
AcDbEntity
  8
0
100
AcDbCircle
 62
7
  6
BYLAYER
 10
41.1874007471
 20
35.2501807404
 40
5.9798798049
100
AcDbArc
 50
10.3119786989
 51
11.7179376428
  0
ARC
  5
390
100
AcDbEntity
  8
0
100
AcDbCircle
 62
7
  6
BYLAYER
 10
40.9516465205
 20
35.8080930109
 40
5.9622452554
100
AcDbArc
 50
11.4705888493
 51
14.0222899934
  0
ARC
  5
391
100
AcDbEntity
  8
0
100
AcDbCircle
 62
7
  6
BYLAYER
 10
40.611103854
 20
35.3435275858
 40
5.9511572138
100
AcDbArc
 50
344.5684009584
 51
345.6591799237
  0
ARC
  5
392
100
AcDbEntity
  8
0
100
AcDbCircle
 62
7
  6
BYLAYER
 10
40.8827547763
 20
35.8896864689
 40
5.9312047195
100
AcDbArc
 50
345.7963318954
 51
348.5132076987
  0
ARC
  5
393
100
AcDbEntity
  8
0
100
AcDbCircle
 62
7
  6
BYLAYER
 10
40.9053961403
 20
35.8122504546
 40
5.9080721999
100
AcDbArc
 50
11.486237972
 51
12.7222179173
  0
ARC
  5
394
100
AcDbEntity
  8
0
100
AcDbCircle
 62
7
  6
BYLAYER
 10
41.1907214029
 20
35.8504650311
 40
5.7199082191
100
AcDbArc
 50
354.2625562441
 51
357.088852488
  0
ARC
  5
395
100
AcDbEntity
  8
0
100
AcDbCircle
 62
7
  6
BYLAYER
 10
41.1977873742
 20
35.8472626532
 40
5.7128242314
100
AcDbArc
 50
2.9102170314
 51
5.7400206836
  0
ARC
  5
396
100
AcDbEntity
  8
0
100
AcDbCircle
 62
7
  6
BYLAYER
 10
41.1243160052
 20
35.8467406608
 40
5.686313386
100
AcDbArc
 50
2.9290609489
 51
5.7211767661
  0
ARC
  5
397
100
AcDbEntity
  8
0
100
AcDbCircle
 62
7
  6
BYLAYER
 10
41.1312799609
 20
35.8499260235
 40
5.6793316189
100
AcDbArc
 50
354.2779309135
 51
357.0734778187
  0
ARC
  5
398
100
AcDbEntity
  8
0
100
AcDbCircle
 62
7
  6
BYLAYER
 10
39.9526734969
 20
44.2525186824
 40
5.1581752078
100
AcDbArc
 50
7.1359742608
 51
7.4566532655
  0
ARC
  5
399
100
AcDbEntity
  8
0
100
AcDbCircle
 62
7
  6
BYLAYER
 10
39.9617357749
 20
44.2536497203
 40
5.1490426223
100
AcDbArc
 50
6.5964293873
 51
7.1360129849
  0
ARC
  5
39A
100
AcDbEntity
  8
0
100
AcDbCircle
 62
7
  6
BYLAYER
 10
39.9697698216
 20
44.2545829066
 40
5.1409545616
100
AcDbArc
 50
6.2071334844
 51
6.5963837433
  0
ARC
  5
39B
100
AcDbEntity
  8
0
100
AcDbCircle
 62
7
  6
BYLAYER
 10
37.5111652426
 20
54.3401509234
 40
7.6433974868
100
AcDbArc
 50
37.2616741609
 51
37.75836325
  0
ARC
  5
39C
100
AcDbEntity
  8
0
100
AcDbCircle
 62
7
  6
BYLAYER
 10
36.4727532064
 20
62.7791734552
 40
7.5220219844
100
AcDbArc
 50
319.1970200984
 51
319.7993512797
  0
ARC
  5
39D
100
AcDbEntity
  8
0
100
AcDbCircle
 62
7
  6
BYLAYER
 10
37.645506969
 20
54.4415667261
 40
7.475073343
100
AcDbArc
 50
36.0802873626
 51
37.0811584766
  0
ARC
  5
39E
100
AcDbEntity
  8
0
100
AcDbCircle
 62
7
  6
BYLAYER
 10
36.5916726279
 20
62.6790066889
 40
7.3665379388
100
AcDbArc
 50
319.9001350851
 51
321.0969211811
  0
ARC
  5
39F
100
AcDbEntity
  8
0
100
AcDbCircle
 62
7
  6
BYLAYER
 10
39.021110623
 20
61.8201580367
 40
4.600288127
100
AcDbArc
 50
354.9351957552
 51
359.9933785678
  0
ARC
  5
3A0
100
AcDbEntity
  8
0
100
AcDbCircle
 62
7
  6
BYLAYER
 10
39.0220984903
 20
58.8139466553
 40
4.5884705885
100
AcDbArc
 50
0.0030723093
 51
2.2147474803
  0
ARC
  5
3A1
100
AcDbEntity
  8
0
100
AcDbCircle
 62
7
  6
BYLAYER
 10
30.4697121915
 20
75.4846888404
 40
5.241799189
100
AcDbArc
 50
297.9492868581
 51
299.2522298183
  0
SPLINE
  5
3A2
100
AcDbEntity
  8
0
100
AcDbSpline
 62
7
  6
BYLAYER
 70
0
 71
3
 72
11
 73
7
 74
0
 42
0.0000001
 43
0.0000001
 44
0.0000000001
 40
0.0
 40
0.0
 40
0.0
 40
0.0
 40
0.1947822139
 40
0.4288060743
 40
0.7022153829
 40
1.0
 40
1.0
 40
1.0
 40
1.0
 10
29.3548694547
 20
74.0460974346
 30
0.0
 10
29.3537986281
 20
74.0494077749
 30
0.0
 10
29.3493126289
 20
74.0560072154
 30
0.0
 10
29.3387761474
 20
74.0631247091
 30
0.0
 10
29.3251037401
 20
74.0679580681
 30
0.0
 10
29.3149233324
 20
74.0693587679
 30
0.0
 10
29.3096096628
 20
74.0695984085
 30
0.0
  0
SPLINE
  5
3A3
100
AcDbEntity
  8
0
100
AcDbSpline
 62
7
  6
BYLAYER
 70
0
 71
3
 72
9
 73
5
 74
0
 42
0.0000001
 43
0.0000001
 44
0.0000000001
 40
0.0
 40
0.0
 40
0.0
 40
0.0
 40
0.5041242937
 40
1.0
 40
1.0
 40
1.0
 40
1.0
 10
28.8092368998
 20
72.6576172885
 30
0.0
 10
28.8064451933
 20
72.6489553088
 30
0.0
 10
28.8021642193
 20
72.6313355751
 30
0.0
 10
28.800718175
 20
72.6132536456
 30
0.0
 10
28.800720154
 20
72.6043018114
 30
0.0
  0
SPLINE
  5
3A4
100
AcDbEntity
  8
0
100
AcDbSpline
 62
7
  6
BYLAYER
 70
0
 71
3
 72
11
 73
7
 74
0
 42
0.0000001
 43
0.0000001
 44
0.0000000001
 40
0.0
 40
0.0
 40
0.0
 40
0.0
 40
0.2983186176
 40
0.4419426527
 40
0.5772680507
 40
1.0
 40
1.0
 40
1.0
 40
1.0
 10
29.3096096628
 20
74.0695984085
 30
0.0
 10
29.3035708288
 20
74.0698707531
 30
0.0
 10
29.2945567554
 20
74.0693481235
 30
0.0
 10
29.2830893254
 20
74.0667344409
 30
0.0
 10
29.2698631607
 20
74.062023894
 30
0.0
 10
29.2591818147
 20
74.0542536591
 30
0.0
 10
29.2565640049
 20
74.04609745
 30
0.0
  0
SPLINE
  5
3A5
100
AcDbEntity
  8
0
100
AcDbSpline
 62
7
  6
BYLAYER
 70
0
 71
3
 72
13
 73
9
 74
0
 42
0.0000001
 43
0.0000001
 44
0.0000000001
 40
0.0
 40
0.0
 40
0.0
 40
0.0
 40
0.0945361705
 40
0.1900295655
 40
0.2938930975
 40
0.4105787455
 40
0.6851060894
 40
1.0
 40
1.0
 40
1.0
 40
1.0
 10
29.2565640049
 20
74.04609745
 30
0.0
 10
29.2559449778
 20
74.0441687711
 30
0.0
 10
29.2553484559
 20
74.0400340233
 30
0.0
 10
29.2568375738
 20
74.0337788884
 30
0.0
 10
29.2605292102
 20
74.0279815022
 30
0.0
 10
29.2684184851
 20
74.0207544803
 30
0.0
 10
29.2824914433
 20
74.014364565
 30
0.0
 10
29.2950816755
 20
74.0123435266
 30
0.0
 10
29.30182192
 20
74.0120395491
 30
0.0
  0
SPLINE
  5
3A6
100
AcDbEntity
  8
0
100
AcDbSpline
 62
7
  6
BYLAYER
 70
0
 71
3
 72
16
 73
12
 74
0
 42
0.0000001
 43
0.0000001
 44
0.0000000001
 40
0.0
 40
0.0
 40
0.0
 40
0.0
 40
0.0456630339
 40
0.0921028423
 40
0.1898343791
 40
0.2977153389
 40
0.417738116
 40
0.549919417
 40
0.6927620451
 40
0.8439283272
 40
1.0
 40
1.0
 40
1.0
 40
1.0
 10
28.800720154
 20
72.6043018114
 30
0.0
 10
28.8007221623
 20
72.5952176285
 30
0.0
 10
28.8022205128
 20
72.5768606751
 30
0.0
 10
28.811258602
 20
72.540052051
 30
0.0
 10
28.834484453
 20
72.4947721508
 30
0.0
 10
28.8780496285
 20
72.4461079931
 30
0.0
 10
28.9359634541
 20
72.4032632494
 30
0.0
 10
29.0062597359
 20
72.3674663402
 30
0.0
 10
29.0866405541
 20
72.3397492933
 30
0.0
 10
29.1744028504
 20
72.3210547561
 30
0.0
 10
29.2353703902
 20
72.3150284167
 30
0.0
 10
29.2663876903
 20
72.3136295712
 30
0.0
  0
SPLINE
  5
3A7
100
AcDbEntity
  8
0
100
AcDbSpline
 62
7
  6
BYLAYER
 70
0
 71
3
 72
18
 73
14
 74
0
 42
0.0000001
 43
0.0000001
 44
0.0000000001
 40
0.0
 40
0.0
 40
0.0
 40
0.0
 40
0.1537010236
 40
0.3048148173
 40
0.4490736883
 40
0.5831442628
 40
0.7046213632
 40
0.7604269944
 40
0.8130225739
 40
0.862699877
 40
0.9099437031
 40
0.9554349286
 40
1.0
 40
1.0
 40
1.0
 40
1.0
 10
29.2663876903
 20
72.3136295712
 30
0.0
 10
29.3009676798
 20
72.3120700524
 30
0.0
 10
29.369798093
 20
72.3130605178
 30
0.0
 10
29.4702756838
 20
72.3265042124
 30
0.0
 10
29.5640328617
 20
72.3514220343
 30
0.0
 10
29.6472074421
 20
72.3867513213
 30
0.0
 10
29.7066269174
 20
72.4248816091
 30
0.0
 10
29.7451622833
 20
72.4596084105
 30
0.0
 10
29.768635609
 20
72.486502976
 30
0.0
 10
29.7872321282
 20
72.5147118465
 30
0.0
 10
29.8006977411
 20
72.5439705979
 30
0.0
 10
29.808884512
 20
72.5739376712
 30
0.0
 10
29.8107136476
 20
72.5942652735
 30
0.0
 10
29.8107114287
 20
72.6043018108
 30
0.0
  0
SPLINE
  5
3A8
100
AcDbEntity
  8
0
100
AcDbSpline
 62
7
  6
BYLAYER
 70
0
 71
3
 72
13
 73
9
 74
0
 42
0.0000001
 43
0.0000001
 44
0.0000000001
 40
0.0
 40
0.0
 40
0.0
 40
0.0
 40
0.3130143561
 40
0.5917146996
 40
0.7100825552
 40
0.8140519228
 40
0.9079519476
 40
1.0
 40
1.0
 40
1.0
 40
1.0
 10
29.30182192
 20
74.0120395491
 30
0.0
 10
29.309328482
 20
74.0117010116
 30
0.0
 10
29.3236420512
 20
74.0128724196
 30
0.0
 10
29.339985493
 20
74.0188874232
 30
0.0
 10
29.3495150504
 20
74.0263915543
 30
0.0
 10
29.3541156716
 20
74.0325841881
 30
0.0
 10
29.3561178394
 20
74.039425382
 30
0.0
 10
29.3555495488
 20
74.0439950001
 30
0.0
 10
29.3548694547
 20
74.0460974346
 30
0.0
  0
SPLINE
  5
3A9
100
AcDbEntity
  8
0
100
AcDbSpline
 62
7
  6
BYLAYER
 70
0
 71
3
 72
11
 73
7
 74
0
 42
0.0000001
 43
0.0000001
 44
0.0000000001
 40
0.0
 40
0.0
 40
0.0
 40
0.0
 40
0.4227245821
 40
0.5586438458
 40
0.7026238281
 40
1.0
 40
1.0
 40
1.0
 40
1.0
 10
31.8548774452
 20
72.6027482549
 30
0.0
 10
31.8521579128
 20
72.6112111949
 30
0.0
 10
31.8408499537
 20
72.6191368129
 30
0.0
 10
31.8270271073
 20
72.6237673903
 30
0.0
 10
31.8150716945
 20
72.6262396981
 30
0.0
 10
31.8057153675
 20
72.6265642925
 30
0.0
 10
31.7994785288
 20
72.6261108074
 30
0.0
  0
SPLINE
  5
3AA
100
AcDbEntity
  8
0
100
AcDbSpline
 62
7
  6
BYLAYER
 70
0
 71
3
 72
11
 73
7
 74
0
 42
0.0000001
 43
0.0000001
 44
0.0000000001
 40
0.0
 40
0.0
 40
0.0
 40
0.0
 40
0.2980713752
 40
0.5706722301
 40
0.804264483
 40
1.0
 40
1.0
 40
1.0
 40
1.0
 10
31.7994785288
 20
72.6261108074
 30
0.0
 10
31.7944002511
 20
72.6257415622
 30
0.0
 10
31.7847128296
 20
72.624162769
 30
0.0
 10
31.771756044
 20
72.6192731095
 30
0.0
 10
31.7618154285
 20
72.6122817865
 30
0.0
 10
31.7576035547
 20
72.6059293107
 30
0.0
 10
31.756573739
 20
72.6027482794
 30
0.0
  0
SPLINE
  5
3AB
100
AcDbEntity
  8
0
100
AcDbSpline
 62
7
  6
BYLAYER
 70
0
 71
3
 72
13
 73
9
 74
0
 42
0.0000001
 43
0.0000001
 44
0.0000000001
 40
0.0
 40
0.0
 40
0.0
 40
0.0
 40
0.091393372
 40
0.1849327516
 40
0.2890404014
 40
0.4080117245
 40
0.6880135996
 40
1.0
 40
1.0
 40
1.0
 40
1.0
 10
31.756573739
 20
72.6027482794
 30
0.0
 10
31.7558760378
 20
72.6005931275
 30
0.0
 10
31.7553131147
 20
72.5958897329
 30
0.0
 10
31.7574914936
 20
72.5888753018
 30
0.0
 10
31.7623766144
 20
72.5825700046
 30
0.0
 10
31.7724228907
 20
72.5750066696
 30
0.0
 10
31.7894432998
 20
72.5691420152
 30
0.0
 10
31.8042613436
 20
72.568268308
 30
0.0
 10
31.8119738708
 20
72.5688290914
 30
0.0
  0
SPLINE
  5
3AC
100
AcDbEntity
  8
0
100
AcDbSpline
 62
7
  6
BYLAYER
 70
0
 71
3
 72
13
 73
9
 74
0
 42
0.0000001
 43
0.0000001
 44
0.0000000001
 40
0.0
 40
0.0
 40
0.0
 40
0.0
 40
0.3149898719
 40
0.5882116155
 40
0.704517499
 40
0.8084923448
 40
0.9046101948
 40
1.0
 40
1.0
 40
1.0
 40
1.0
 10
31.8119738708
 20
72.5688290914
 30
0.0
 10
31.818459867
 20
72.5693006928
 30
0.0
 10
31.8305119794
 20
72.5715387309
 30
0.0
 10
31.8438897021
 20
72.5780032563
 30
0.0
 10
31.8513011067
 20
72.5851225783
 30
0.0
 10
31.8547314433
 20
72.5907925413
 30
0.0
 10
31.856081528
 20
72.596867137
 30
0.0
 10
31.8554799499
 20
72.6008733145
 30
0.0
 10
31.8548774452
 20
72.6027482549
 30
0.0
  0
SPLINE
  5
3AD
100
AcDbEntity
  8
0
100
AcDbSpline
 62
7
  6
BYLAYER
 70
0
 71
3
 72
10
 73
6
 74
0
 42
0.0000001
 43
0.0000001
 44
0.0000000001
 40
0.0
 40
0.0
 40
0.0
 40
0.0
 40
0.4320969365
 40
0.7020891391
 40
1.0
 40
1.0
 40
1.0
 40
1.0
 10
26.8548765018
 20
72.602736068
 30
0.0
 10
26.8531372546
 20
72.6081595293
 30
0.0
 10
26.8461585537
 20
72.6154805694
 30
0.0
 10
26.8344588245
 20
72.621425242
 30
0.0
 10
26.8272324061
 20
72.6236256241
 30
0.0
 10
26.8233958004
 20
72.6244623914
 30
0.0
  0
SPLINE
  5
3AE
100
AcDbEntity
  8
0
100
AcDbSpline
 62
7
  6
BYLAYER
 70
0
 71
3
 72
12
 73
8
 74
0
 42
0.0000001
 43
0.0000001
 44
0.0000000001
 40
0.0
 40
0.0
 40
0.0
 40
0.0
 40
0.2866011036
 40
0.5668794781
 40
0.6944081904
 40
0.8095979301
 40
1.0
 40
1.0
 40
1.0
 40
1.0
 10
26.8233958004
 20
72.6244623914
 30
0.0
 10
26.8163823052
 20
72.6259920414
 30
0.0
 10
26.8020573931
 20
72.6271002327
 30
0.0
 10
26.7846854589
 20
72.6242798695
 30
0.0
 10
26.7724856026
 20
72.6193047693
 30
0.0
 10
26.7632887848
 20
72.6135796268
 30
0.0
 10
26.7580377684
 20
72.607274451
 30
0.0
 10
26.756571915
 20
72.6027364109
 30
0.0
  0
SPLINE
  5
3AF
100
AcDbEntity
  8
0
100
AcDbSpline
 62
7
  6
BYLAYER
 70
0
 71
3
 72
12
 73
8
 74
0
 42
0.0000001
 43
0.0000001
 44
0.0000000001
 40
0.0
 40
0.0
 40
0.0
 40
0.0
 40
0.1005943897
 40
0.200878958
 40
0.4201710152
 40
0.6873989273
 40
1.0
 40
1.0
 40
1.0
 40
1.0
 10
26.756571915
 20
72.6027364109
 30
0.0
 10
26.7560528098
 20
72.6011293468
 30
0.0
 10
26.7554739568
 20
72.5977469978
 30
0.0
 10
26.7564508004
 20
72.5906531131
 30
0.0
 10
26.7621739778
 20
72.5820742839
 30
0.0
 10
26.7735849916
 20
72.5746451252
 30
0.0
 10
26.7829290496
 20
72.5715717938
 30
0.0
 10
26.7880565994
 20
72.5704534703
 30
0.0
  0
SPLINE
  5
3B0
100
AcDbEntity
  8
0
100
AcDbSpline
 62
7
  6
BYLAYER
 70
0
 71
3
 72
13
 73
9
 74
0
 42
0.0000001
 43
0.0000001
 44
0.0000000001
 40
0.0
 40
0.0
 40
0.0
 40
0.0
 40
0.3038448492
 40
0.5899612353
 40
0.7126818828
 40
0.8184574957
 40
0.911049845
 40
1.0
 40
1.0
 40
1.0
 40
1.0
 10
26.7880565994
 20
72.5704534703
 30
0.0
 10
26.79654737
 20
72.5686016252
 30
0.0
 10
26.8136694911
 20
72.5677223528
 30
0.0
 10
26.8339113631
 20
72.572584846
 30
0.0
 10
26.846614826
 20
72.5802670135
 30
0.0
 10
26.8530122723
 20
72.587068179
 30
0.0
 10
26.8561761264
 20
72.5949242223
 30
0.0
 10
26.8556533949
 20
72.6003134974
 30
0.0
 10
26.8548765018
 20
72.602736068
 30
0.0
  0
SPLINE
  5
3B1
100
AcDbEntity
  8
0
100
AcDbSpline
 62
7
  6
BYLAYER
 70
0
 71
3
 72
12
 73
8
 74
0
 42
0.0000001
 43
0.0000001
 44
0.0000000001
 40
0.0
 40
0.0
 40
0.0
 40
0.0
 40
0.1081684773
 40
0.2183718775
 40
0.451328479
 40
0.7105242679
 40
1.0
 40
1.0
 40
1.0
 40
1.0
 10
27.3616451606
 20
75.1949250055
 30
0.0
 10
27.3616436741
 20
75.2058110005
 30
0.0
 10
27.359738459
 20
75.2278320364
 30
0.0
 10
27.348312368
 20
75.2719785538
 30
0.0
 10
27.3189460385
 20
75.3261261747
 30
0.0
 10
27.2642362189
 20
75.3835560667
 30
0.0
 10
27.218462244
 20
75.4150993366
 30
0.0
 10
27.1932325104
 20
75.4296654006
 30
0.0
  0
SPLINE
  5
3B2
100
AcDbEntity
  8
0
100
AcDbSpline
 62
7
  6
BYLAYER
 70
0
 71
3
 72
11
 73
7
 74
0
 42
0.0000001
 43
0.0000001
 44
0.0000000001
 40
0.0
 40
0.0
 40
0.0
 40
0.0
 40
0.2421370971
 40
0.4875440034
 40
0.7392779222
 40
1.0
 40
1.0
 40
1.0
 40
1.0
 10
34.6557244324
 20
73.1281905099
 30
0.0
 10
34.6557239557
 20
73.0428009274
 30
0.0
 10
34.643271845
 20
72.8706235274
 30
0.0
 10
34.5876447214
 20
72.6150864511
 30
0.0
 10
34.4954718315
 20
72.3634079665
 30
0.0
 10
34.4119027036
 20
72.202571938
 30
0.0
 10
34.3648433214
 20
72.1235843771
 30
0.0
  0
SPLINE
  5
3B3
100
AcDbEntity
  8
0
100
AcDbSpline
 62
7
  6
BYLAYER
 70
0
 71
3
 72
11
 73
7
 74
0
 42
0.0000001
 43
0.0000001
 44
0.0000000001
 40
0.0
 40
0.0
 40
0.0
 40
0.0
 40
0.225744704
 40
0.4669785411
 40
0.7249893466
 40
1.0
 40
1.0
 40
1.0
 40
1.0
 10
34.3648433214
 20
72.1235843771
 30
0.0
 10
34.2946969428
 20
72.0058460839
 30
0.0
 10
34.1283216804
 20
71.774558138
 30
0.0
 10
33.8206654772
 20
71.4579926316
 30
0.0
 10
33.4517602976
 20
71.1648916891
 30
0.0
 10
33.1768101599
 20
70.9929311806
 30
0.0
 10
33.031144605
 20
70.9113396596
 30
0.0
  0
SPLINE
  5
3B4
100
AcDbEntity
  8
0
100
AcDbSpline
 62
7
  6
BYLAYER
 70
0
 71
3
 72
19
 73
15
 74
0
 42
0.0000001
 43
0.0000001
 44
0.0000000001
 40
0.0
 40
0.0
 40
0.0
 40
0.0
 40
0.0565005337
 40
0.1152775315
 40
0.1760980935
 40
0.2386867174
 40
0.3678367438
 40
0.4999947466
 40
0.632152441
 40
0.7613012981
 40
0.823888972
 40
0.8847047806
 40
0.9434897554
 40
1.0
 40
1.0
 40
1.0
 40
1.0
 10
32.926490383
 20
70.8542785285
 30
0.0
 10
32.8018676868
 20
70.7881385959
 30
0.0
 10
32.542216003
 20
70.6631451682
 30
0.0
 10
32.1332044764
 20
70.5008186471
 30
0.0
 10
31.6999470703
 20
70.3610130956
 30
0.0
 10
31.0886213873
 20
70.2047242321
 30
0.0
 10
30.2885255487
 20
70.0741156036
 30
0.0
 10
29.305574366
 20
70.0218533366
 30
0.0
 10
28.322627499
 20
70.0741450537
 30
0.0
 10
27.522542388
 20
70.20478353
 30
0.0
 10
26.9112395174
 20
70.3610908576
 30
0.0
 10
26.4779777115
 20
70.5009018676
 30
0.0
 10
26.0689479699
 20
70.6632716757
 30
0.0
 10
25.8092657738
 20
70.7883028224
 30
0.0
 10
25.6846244271
 20
70.8544593398
 30
0.0
  0
SPLINE
  5
3B5
100
AcDbEntity
  8
0
100
AcDbSpline
 62
7
  6
BYLAYER
 70
0
 71
3
 72
16
 73
12
 74
0
 42
0.0000001
 43
0.0000001
 44
0.0000000001
 40
0.0
 40
0.0
 40
0.0
 40
0.0
 40
0.1445407888
 40
0.2824986735
 40
0.4138980993
 40
0.4773262474
 40
0.5393410004
 40
0.6594926579
 40
0.7754538569
 40
0.8884471649
 40
1.0
 40
1.0
 40
1.0
 40
1.0
 10
33.0898282778
 20
76.0322297348
 30
0.0
 10
33.2088224225
 20
75.9619632196
 30
0.0
 10
33.4358280193
 20
75.8148343032
 30
0.0
 10
33.7467251925
 20
75.5690496508
 30
0.0
 10
33.9747783155
 20
75.3461414203
 30
0.0
 10
34.1345367816
 20
75.1594690253
 30
0.0
 10
34.2759605446
 20
74.9718767607
 30
0.0
 10
34.4252257827
 20
74.7279348751
 30
0.0
 10
34.5571673615
 20
74.4199767469
 30
0.0
 10
34.6376390058
 20
74.1031448071
 30
0.0
 10
34.6557261999
 20
73.8880453399
 30
0.0
 10
34.6557261999
 20
73.781392445
 30
0.0
  0
SPLINE
  5
3B6
100
AcDbEntity
  8
0
100
AcDbSpline
 62
7
  6
BYLAYER
 70
0
 71
3
 72
27
 73
23
 74
0
 42
0.0000001
 43
0.0000001
 44
0.0000000001
 40
0.0
 40
0.0
 40
0.0
 40
0.0
 40
0.0226055621
 40
0.0453711876
 40
0.068487072
 40
0.0921170943
 40
0.1163970348
 40
0.1414543669
 40
0.1673913309
 40
0.1942833776
 40
0.2510659328
 40
0.3119409688
 40
0.3766470921
 40
0.4446419298
 40
0.5151723512
 40
0.5873384535
 40
0.6601520995
 40
0.7325909597
 40
0.8036533576
 40
0.8724076546
 40
0.9380612101
 40
1.0
 40
1.0
 40
1.0
 40
1.0
 10
23.9557261999
 20
73.781392445
 30
0.0
 10
23.9557261999
 20
73.8623465979
 30
0.0
 10
23.9660928765
 20
74.0250105672
 30
0.0
 10
24.012324636
 20
74.2664872555
 30
0.0
 10
24.088763996
 20
74.5040209731
 30
0.0
 10
24.1943491293
 20
74.7360128048
 30
0.0
 10
24.3281115764
 20
74.961051742
 30
0.0
 10
24.4888169837
 20
75.1780066224
 30
0.0
 10
24.6752907511
 20
75.3859450533
 30
0.0
 10
24.9617814998
 20
75.6548801199
 30
0.0
 10
25.3806751333
 20
75.9625078335
 30
0.0
 10
25.9553342268
 20
76.2761067748
 30
0.0
 10
26.5994962497
 20
76.5360267972
 30
0.0
 10
27.3000152434
 20
76.7376926419
 30
0.0
 10
28.0425526841
 20
76.8774046872
 30
0.0
 10
28.8116494388
 20
76.9524573761
 30
0.0
 10
29.5911564401
 20
76.9613660712
 30
0.0
 10
30.3646522427
 20
76.9039574565
 30
0.0
 10
31.1158490812
 20
76.7813642145
 30
0.0
 10
31.8291322896
 20
76.595972054
 30
0.0
 10
32.4896315892
 20
76.351309442
 30
0.0
 10
32.8988299017
 20
76.1450150346
 30
0.0
 10
33.0898282778
 20
76.0322297348
 30
0.0
  0
SPLINE
  5
3B7
100
AcDbEntity
  8
0
100
AcDbSpline
 62
7
  6
BYLAYER
 70
0
 71
3
 72
26
 73
22
 74
0
 42
0.0000001
 43
0.0000001
 44
0.0000000001
 40
0.0
 40
0.0
 40
0.0
 40
0.0
 40
0.0213307963
 40
0.042890099
 40
0.0648939608
 40
0.0875376186
 40
0.1109854317
 40
0.1353711605
 40
0.1872686726
 40
0.2437024928
 40
0.3046462153
 40
0.3697296209
 40
0.4383224633
 40
0.509604447
 40
0.5826242282
 40
0.6563516727
 40
0.7297235499
 40
0.8016957593
 40
0.8712825997
 40
0.9376221868
 40
1.0
 40
1.0
 40
1.0
 40
1.0
 10
33.4932186759
 20
73.9446928941
 30
0.0
 10
33.493222545
 20
73.8852880046
 30
0.0
 10
33.4855546798
 20
73.7657036332
 30
0.0
 10
33.451187821
 20
73.5878210563
 30
0.0
 10
33.3942117134
 20
73.4119916768
 30
0.0
 10
33.314953127
 20
73.2392667601
 30
0.0
 10
33.2139757623
 20
73.0705295428
 30
0.0
 10
33.047699122
 20
72.847553514
 30
0.0
 10
32.7854969337
 20
72.5841665364
 30
0.0
 10
32.4036085724
 20
72.3051597283
 30
0.0
 10
31.9560769578
 20
72.0617344916
 30
0.0
 10
31.4523616475
 20
71.8588111102
 30
0.0
 10
30.9030188334
 20
71.7004906072
 30
0.0
 10
30.3196695994
 20
71.5900861666
 30
0.0
 10
29.7147035033
 20
71.5299247992
 30
0.0
 10
29.1010158173
 20
71.5212913251
 30
0.0
 10
28.4916920593
 20
71.5643591367
 30
0.0
 10
27.8997408657
 20
71.6582274429
 30
0.0
 10
27.3376917238
 20
71.8008940401
 30
0.0
 10
26.8175970183
 20
71.9893497938
 30
0.0
 10
26.4951740895
 20
72.1483129177
 30
0.0
 10
26.3447288815
 20
72.2351705341
 30
0.0
  0
SPLINE
  5
3B8
100
AcDbEntity
  8
0
100
AcDbSpline
 62
7
  6
BYLAYER
 70
0
 71
3
 72
16
 73
12
 74
0
 42
0.0000001
 43
0.0000001
 44
0.0000000001
 40
0.0
 40
0.0
 40
0.0
 40
0.0
 40
0.1485560364
 40
0.2894921435
 40
0.4227033948
 40
0.4865584747
 40
0.5486679024
 40
0.6680227953
 40
0.7819520401
 40
0.8919928945
 40
1.0
 40
1.0
 40
1.0
 40
1.0
 10
26.3447288815
 20
72.2351705341
 30
0.0
 10
26.2502978486
 20
72.289689083
 30
0.0
 10
26.0705534234
 20
72.403632771
 30
0.0
 10
25.8248136927
 20
72.5938018457
 30
0.0
 10
25.6451858978
 20
72.7657519034
 30
0.0
 10
25.5199763717
 20
72.9091169143
 30
0.0
 10
25.4101499952
 20
73.0519254659
 30
0.0
 10
25.2948632888
 20
73.2364203354
 30
0.0
 10
25.1934574593
 20
73.4681827802
 30
0.0
 10
25.1319937054
 20
73.7050490269
 30
0.0
 10
25.1182388871
 20
73.8654166074
 30
0.0
 10
25.1182337238
 20
73.9446929627
 30
0.0
  0
SPLINE
  5
3B9
100
AcDbEntity
  8
0
100
AcDbSpline
 62
7
  6
BYLAYER
 70
0
 71
3
 72
10
 73
6
 74
0
 42
0.0000001
 43
0.0000001
 44
0.0000000001
 40
0.0
 40
0.0
 40
0.0
 40
0.0
 40
0.2656595951
 40
0.5207304606
 40
1.0
 40
1.0
 40
1.0
 40
1.0
 10
24.9697286043
 20
71.318831137
 30
0.0
 10
24.8961266217
 20
71.3776233812
 30
0.0
 10
24.755942734
 20
71.4981888133
 30
0.0
 10
24.506251509
 20
71.7502007587
 30
0.0
 10
24.3468747767
 20
71.9586902172
 30
0.0
 10
24.2584928849
 20
72.103845231
 30
0.0
  0
SPLINE
  5
3BA
100
AcDbEntity
  8
0
100
AcDbSpline
 62
7
  6
BYLAYER
 70
0
 71
3
 72
11
 73
7
 74
0
 42
0.0000001
 43
0.0000001
 44
0.0000000001
 40
0.0
 40
0.0
 40
0.0
 40
0.0
 40
0.2611056438
 40
0.5129185501
 40
0.7581591066
 40
1.0
 40
1.0
 40
1.0
 40
1.0
 10
24.2584928849
 20
72.103845231
 30
0.0
 10
24.2095654307
 20
72.1842017967
 30
0.0
 10
24.122636589
 20
72.3479295364
 30
0.0
 10
24.0266520327
 20
72.6045518238
 30
0.0
 10
23.9686962307
 20
72.8652882067
 30
0.0
 10
23.9557275941
 20
73.0410517364
 30
0.0
 10
23.9557281439
 20
73.1281905116
 30
0.0
  0
SPLINE
  5
3BB
100
AcDbEntity
  8
0
100
AcDbSpline
 62
7
  6
BYLAYER
 70
0
 71
3
 72
9
 73
5
 74
0
 42
0.0000001
 43
0.0000001
 44
0.0000000001
 40
0.0
 40
0.0
 40
0.0
 40
0.0
 40
0.2580729919
 40
1.0
 40
1.0
 40
1.0
 40
1.0
 10
25.5227206708
 20
70.9440842881
 30
0.0
 10
25.4729284944
 20
70.9728311641
 30
0.0
 10
25.2819222853
 20
71.0875041958
 30
0.0
 10
25.0988748642
 20
71.2156708933
 30
0.0
 10
24.9697286043
 20
71.318831137
 30
0.0
  0
SPLINE
  5
3BC
100
AcDbEntity
  8
0
100
AcDbSpline
 62
7
  6
BYLAYER
 70
0
 71
3
 72
26
 73
22
 74
0
 42
0.0000001
 43
0.0000001
 44
0.0000000001
 40
0.0
 40
0.0
 40
0.0
 40
0.0
 40
0.0213153537
 40
0.0428442627
 40
0.0647892707
 40
0.0873348229
 40
0.1106378164
 40
0.1348276832
 40
0.1861826614
 40
0.2418947717
 40
0.3019945845
 40
0.3661883829
 40
0.4339337667
 40
0.5045033664
 40
0.5770381772
 40
0.6505944758
 40
0.7241852532
 40
0.7968216911
 40
0.8675582403
 40
0.9355219385
 40
1.0
 40
1.0
 40
1.0
 40
1.0
 10
25.1182337238
 20
73.9446929627
 30
0.0
 10
25.1182299841
 20
74.002112144
 30
0.0
 10
25.1253876379
 20
74.1176509147
 30
0.0
 10
25.1574855006
 20
74.2896138348
 30
0.0
 10
25.2107118571
 20
74.4597318851
 30
0.0
 10
25.284798828
 20
74.6270509535
 30
0.0
 10
25.3792447894
 20
74.7907704543
 30
0.0
 10
25.5347439862
 20
75.0073820876
 30
0.0
 10
25.7802958341
 20
75.2644175736
 30
0.0
 10
26.1390524838
 20
75.538964273
 30
0.0
 10
26.5605967143
 20
75.7810865228
 30
0.0
 10
27.0365763647
 20
75.9862184912
 30
0.0
 10
27.5576605212
 20
76.1504952664
 30
0.0
 10
28.11354686
 20
76.2707099907
 30
0.0
 10
28.6932017709
 20
76.3444961963
 30
0.0
 10
29.2850782454
 20
76.3703847197
 30
0.0
 10
29.8773667073
 20
76.3478598963
 30
0.0
 10
30.4582472345
 20
76.2773732392
 30
0.0
 10
31.0161563129
 20
76.1603018631
 30
0.0
 10
31.5399913601
 20
75.9990278866
 30
0.0
 10
31.8694113589
 20
75.8599068252
 30
0.0
 10
32.0251957975
 20
75.7830976559
 30
0.0
  0
SPLINE
  5
3BD
100
AcDbEntity
  8
0
100
AcDbSpline
 62
7
  6
BYLAYER
 70
0
 71
3
 72
11
 73
7
 74
0
 42
0.0000001
 43
0.0000001
 44
0.0000000001
 40
0.0
 40
0.0
 40
0.0
 40
0.0
 40
0.2783713182
 40
0.5371201145
 40
0.7768398899
 40
1.0
 40
1.0
 40
1.0
 40
1.0
 10
26.0707261446
 20
60.5945706001
 30
0.0
 10
25.9328342028
 20
60.6741807488
 30
0.0
 10
25.6748851003
 20
60.8426683462
 30
0.0
 10
25.3367035796
 20
61.1331383027
 30
0.0
 10
25.0669854089
 20
61.4478806019
 30
0.0
 10
24.9321193088
 20
61.6779602622
 30
0.0
 10
24.8794743264
 20
61.7942414178
 30
0.0
  0
SPLINE
  5
3BE
100
AcDbEntity
  8
0
100
AcDbSpline
 62
7
  6
BYLAYER
 70
0
 71
3
 72
9
 73
5
 74
0
 42
0.0000001
 43
0.0000001
 44
0.0000000001
 40
0.0
 40
0.0
 40
0.0
 40
0.0
 40
0.4895248354
 40
1.0
 40
1.0
 40
1.0
 40
1.0
 10
25.8762725894
 20
60.0933919483
 30
0.0
 10
25.9837385511
 20
60.03134785
 30
0.0
 10
26.2084912404
 20
59.9135054722
 30
0.0
 10
26.4411441733
 20
59.8122890646
 30
0.0
 10
26.5614469381
 20
59.764624916
 30
0.0
  0
SPLINE
  5
3BF
100
AcDbEntity
  8
0
100
AcDbSpline
 62
7
  6
BYLAYER
 70
0
 71
3
 72
11
 73
7
 74
0
 42
0.0000001
 43
0.0000001
 44
0.0000000001
 40
0.0
 40
0.0
 40
0.0
 40
0.0
 40
0.2771990216
 40
0.5367305519
 40
0.7775604701
 40
1.0
 40
1.0
 40
1.0
 40
1.0
 10
32.0503027532
 20
59.7647460299
 30
0.0
 10
32.2294485839
 20
59.8357309068
 30
0.0
 10
32.5699155589
 20
59.9903570511
 30
0.0
 10
33.034627565
 20
60.2690100211
 30
0.0
 10
33.4293359416
 20
60.5824215997
 30
0.0
 10
33.6491562641
 20
60.8202373365
 30
0.0
 10
33.7430424275
 20
60.9431029285
 30
0.0
  0
SPLINE
  5
3C0
100
AcDbEntity
  8
0
100
AcDbSpline
 62
7
  6
BYLAYER
 70
0
 71
3
 72
12
 73
8
 74
0
 42
0.0000001
 43
0.0000001
 44
0.0000000001
 40
0.0
 40
0.0
 40
0.0
 40
0.0
 40
0.1130771458
 40
0.2303283548
 40
0.4757987494
 40
0.7335743201
 40
1.0
 40
1.0
 40
1.0
 40
1.0
 10
32.9473107974
 20
76.0471502261
 30
0.0
 10
32.8511308979
 20
76.1026784608
 30
0.0
 10
32.6512833814
 20
76.2090856139
 30
0.0
 10
32.2257308781
 20
76.4027246839
 30
0.0
 10
31.6495840268
 20
76.6055581142
 30
0.0
 10
30.913366133
 20
76.7819373777
 30
0.0
 10
30.4026631922
 20
76.8537697669
 30
0.0
 10
30.1421676772
 20
76.8785248824
 30
0.0
  0
SPLINE
  5
3C1
100
AcDbEntity
  8
0
100
AcDbSpline
 62
7
  6
BYLAYER
 70
0
 71
3
 72
28
 73
24
 74
0
 42
0.0000001
 43
0.0000001
 44
0.0000000001
 40
0.0
 40
0.0
 40
0.0
 40
0.0
 40
0.0829007901
 40
0.163608499
 40
0.2412177324
 40
0.3149562966
 40
0.3842368696
 40
0.4487179521
 40
0.5083760655
 40
0.5635857462
 40
0.5898000691
 40
0.6152599106
 40
0.6401439818
 40
0.6646560675
 40
0.689015487
 40
0.7134489405
 40
0.7381789421
 40
0.7634158323
 40
0.7893479816
 40
0.8161382441
 40
0.8727252481
 40
0.9339390723
 40
1.0
 40
1.0
 40
1.0
 40
1.0
 10
28.4971500412
 20
76.8811267435
 30
0.0
 10
28.2675784489
 20
76.8600547911
 30
0.0
 10
27.8159232683
 20
76.8004851557
 30
0.0
 10
27.159703364
 20
76.6576682197
 30
0.0
 10
26.5429035301
 20
76.4648159844
 30
0.0
 10
25.9768398917
 20
76.225403214
 30
0.0
 10
25.4717887243
 20
75.9436729023
 30
0.0
 10
25.0368926798
 20
75.6244065198
 30
0.0
 10
24.6802205611
 20
75.2730223055
 30
0.0
 10
24.4499617939
 20
74.952295436
 30
0.0
 10
24.3147069426
 20
74.6870926768
 30
0.0
 10
24.2383069944
 20
74.4879174653
 30
0.0
 10
24.1857277532
 20
74.2860398819
 30
0.0
 10
24.1572222226
 20
74.0824505071
 30
0.0
 10
24.1529813281
 20
73.8781620838
 30
0.0
 10
24.1730424392
 20
73.6742140078
 30
0.0
 10
24.2172410857
 20
73.4716228416
 30
0.0
 10
24.2853794541
 20
73.2714064455
 30
0.0
 10
24.3770183745
 20
73.0744870203
 30
0.0
 10
24.5327479041
 20
72.8129179271
 30
0.0
 10
24.7873421438
 20
72.4987031486
 30
0.0
 10
25.1702367694
 20
72.1572569781
 30
0.0
 10
25.465132051
 20
71.9594812747
 30
0.0
 10
25.6233184343
 20
71.866071587
 30
0.0
  0
SPLINE
  5
3C2
100
AcDbEntity
  8
0
100
AcDbSpline
 62
7
  6
BYLAYER
 70
0
 71
3
 72
11
 73
7
 74
0
 42
0.0000001
 43
0.0000001
 44
0.0000000001
 40
0.0
 40
0.0
 40
0.0
 40
0.0
 40
0.2349310462
 40
0.4806861582
 40
0.7360959428
 40
1.0
 40
1.0
 40
1.0
 40
1.0
 10
25.6233184343
 20
71.866071587
 30
0.0
 10
25.7443485448
 20
71.7946028258
 30
0.0
 10
25.9985301344
 20
71.6592485862
 30
0.0
 10
26.4025595644
 20
71.4830370792
 30
0.0
 10
26.8345378863
 20
71.3305827359
 30
0.0
 10
27.1340369409
 20
71.246960983
 30
0.0
 10
27.2873582412
 20
71.2092517934
 30
0.0
  0
SPLINE
  5
3C3
100
AcDbEntity
  8
0
100
AcDbSpline
 62
7
  6
BYLAYER
 70
0
 71
3
 72
13
 73
9
 74
0
 42
0.0000001
 43
0.0000001
 44
0.0000000001
 40
0.0
 40
0.0
 40
0.0
 40
0.0
 40
0.2465012582
 40
0.372749403
 40
0.4998641776
 40
0.6269959214
 40
0.7532964195
 40
1.0
 40
1.0
 40
1.0
 40
1.0
 10
27.2873582412
 20
71.2092517934
 30
0.0
 10
27.6107497665
 20
71.1297140364
 30
0.0
 10
28.1082206483
 20
71.0412984064
 30
0.0
 10
28.7811558199
 20
70.9818745923
 30
0.0
 10
29.2952920984
 20
70.9664310734
 30
0.0
 10
29.8095337405
 20
70.9806708787
 30
0.0
 10
30.4829730745
 20
71.0385405203
 30
0.0
 10
30.9809940115
 20
71.1257914206
 30
0.0
 10
31.3048583132
 20
71.2045466357
 30
0.0
  0
SPLINE
  5
3C4
100
AcDbEntity
  8
0
100
AcDbSpline
 62
7
  6
BYLAYER
 70
0
 71
3
 72
26
 73
22
 74
0
 42
0.0000001
 43
0.0000001
 44
0.0000000001
 40
0.0
 40
0.0
 40
0.0
 40
0.0
 40
0.0818750286
 40
0.160417923
 40
0.2350898748
 40
0.3055058146
 40
0.3714767593
 40
0.4330561477
 40
0.4905898561
 40
0.5447582473
 40
0.5709195691
 40
0.5966495438
 40
0.6221195618
 40
0.6475094815
 40
0.6730023653
 40
0.6987769209
 40
0.7517752673
 40
0.8077335047
 40
0.8674774281
 40
0.9315114643
 40
1.0
 40
1.0
 40
1.0
 40
1.0
 10
31.3219151333
 20
71.2087152494
 30
0.0
 10
31.5084823983
 20
71.254539867
 30
0.0
 10
31.8708135966
 20
71.3582256487
 30
0.0
 10
32.3873952292
 20
71.5535564107
 30
0.0
 10
32.8600946163
 20
71.7832141267
 30
0.0
 10
33.2821903284
 20
72.0440447139
 30
0.0
 10
33.6477253686
 20
72.3325387833
 30
0.0
 10
33.9514477451
 20
72.6449737663
 30
0.0
 10
34.1887421037
 20
72.9772390342
 30
0.0
 10
34.3294111735
 20
73.2707707496
 30
0.0
 10
34.4032296512
 20
73.508803149
 30
0.0
 10
34.4394615885
 20
73.6869989929
 30
0.0
 10
34.4570496387
 20
73.8661702766
 30
0.0
 10
34.4558682959
 20
74.0456463123
 30
0.0
 10
34.4359464782
 20
74.2247416739
 30
0.0
 10
34.3841108003
 20
74.4642139605
 30
0.0
 10
34.2706242358
 20
74.7615758053
 30
0.0
 10
34.0636824036
 20
75.1012078216
 30
0.0
 10
33.7884952847
 20
75.42289794
 30
0.0
 10
33.4494074666
 20
75.7223159938
 30
0.0
 10
33.1924331881
 20
75.8987894738
 30
0.0
 10
33.0554433011
 20
75.9828074063
 30
0.0
  0
SPLINE
  5
3C5
100
AcDbEntity
  8
0
100
AcDbSpline
 62
7
  6
BYLAYER
 70
0
 71
3
 72
16
 73
12
 74
0
 42
0.0000001
 43
0.0000001
 44
0.0000000001
 40
0.0
 40
0.0
 40
0.0
 40
0.0
 40
0.1485560364
 40
0.2894921435
 40
0.4227033948
 40
0.4865584747
 40
0.5486679024
 40
0.6680227953
 40
0.7819520401
 40
0.8919928945
 40
1.0
 40
1.0
 40
1.0
 40
1.0
 10
32.2667235182
 20
75.6542153227
 30
0.0
 10
32.3611545512
 20
75.5996967738
 30
0.0
 10
32.5408989763
 20
75.4857530858
 30
0.0
 10
32.786638707
 20
75.2955840111
 30
0.0
 10
32.966266502
 20
75.1236339534
 30
0.0
 10
33.0914760281
 20
74.9802689425
 30
0.0
 10
33.2013024045
 20
74.8374603909
 30
0.0
 10
33.3165891109
 20
74.6529655214
 30
0.0
 10
33.4179949405
 20
74.4212030766
 30
0.0
 10
33.4794586943
 20
74.1843368299
 30
0.0
 10
33.4932135126
 20
74.0239692494
 30
0.0
 10
33.4932186759
 20
73.9446928941
 30
0.0
  0
LINE
  5
3C6
100
AcDbEntity
  8
0
100
AcDbLine
 62
7
  6
BYLAYER
 10
32.9473107974
 20
76.0471502261
 11
32.9881339655
 21
76.0233142698
  0
SPLINE
  5
3C7
100
AcDbEntity
  8
0
100
AcDbSpline
 62
7
  6
BYLAYER
 70
0
 71
3
 72
23
 73
19
 74
0
 42
0.0000001
 43
0.0000001
 44
0.0000000001
 40
0.0
 40
0.0
 40
0.0
 40
0.0
 40
0.0598254155
 40
0.1230944627
 40
0.1892838636
 40
0.257778755
 40
0.3278586457
 40
0.3987525192
 40
0.4696590892
 40
0.5397769785
 40
0.6083323381
 40
0.6746074666
 40
0.7379716412
 40
0.7979155692
 40
0.8540915283
 40
0.9063611181
 40
0.9548494327
 40
1.0
 40
1.0
 40
1.0
 40
1.0
 10
25.5227206708
 20
71.5972862218
 30
0.0
 10
25.6924950991
 20
71.4992691273
 30
0.0
 10
26.0537268299
 20
71.3177687131
 30
0.0
 10
26.6336529755
 20
71.0953895746
 30
0.0
 10
27.2585174008
 20
70.9182718568
 30
0.0
 10
27.9177255385
 20
70.7893468804
 30
0.0
 10
28.6002924507
 20
70.7107868347
 30
0.0
 10
29.2947227353
 20
70.6838975087
 30
0.0
 10
29.9893397934
 20
70.7091409271
 30
0.0
 10
30.6724541535
 20
70.7860874339
 30
0.0
 10
31.3325856876
 20
70.9134438511
 30
0.0
 10
31.9586653816
 20
71.0890837607
 30
0.0
 10
32.5402292237
 20
71.3100986982
 30
0.0
 10
33.0676006347
 20
71.5728901075
 30
0.0
 10
33.5320207604
 20
71.8732458432
 30
0.0
 10
33.9257880923
 20
72.2065900368
 30
0.0
 10
34.2420558281
 20
72.567700465
 30
0.0
 10
34.4023153116
 20
72.8318635313
 30
0.0
 10
34.4657187254
 20
72.9655399379
 30
0.0
  0
SPLINE
  5
3C8
100
AcDbEntity
  8
0
100
AcDbSpline
 62
7
  6
BYLAYER
 70
0
 71
3
 72
11
 73
7
 74
0
 42
0.0000001
 43
0.0000001
 44
0.0000000001
 40
0.0
 40
0.0
 40
0.0
 40
0.0
 40
0.2572541517
 40
0.5083789992
 40
0.7552710308
 40
1.0
 40
1.0
 40
1.0
 40
1.0
 10
34.4657187254
 20
72.9655399379
 30
0.0
 10
34.4967422743
 20
73.0309483485
 30
0.0
 10
34.5516292809
 20
73.1633910852
 30
0.0
 10
34.6115701006
 20
73.3677366835
 30
0.0
 10
34.6476638723
 20
73.5740493767
 30
0.0
 10
34.655727681
 20
73.712524282
 30
0.0
 10
34.655725801
 20
73.781392445
 30
0.0
  0
SPLINE
  5
3C9
100
AcDbEntity
  8
0
100
AcDbSpline
 62
7
  6
BYLAYER
 70
0
 71
3
 72
9
 73
5
 74
0
 42
0.0000001
 43
0.0000001
 44
0.0000000001
 40
0.0
 40
0.0
 40
0.0
 40
0.0
 40
0.5171851242
 40
1.0
 40
1.0
 40
1.0
 40
1.0
 10
26.7793367751
 20
75.6686228089
 30
0.0
 10
26.6307307511
 20
75.6037170085
 30
0.0
 10
26.349481508
 20
75.4635681785
 30
0.0
 10
26.0865100347
 20
75.2909851036
 30
0.0
 10
25.9661673623
 20
75.1991420319
 30
0.0
  0
SPLINE
  5
3CA
100
AcDbEntity
  8
0
100
AcDbSpline
 62
7
  6
BYLAYER
 70
0
 71
3
 72
19
 73
15
 74
0
 42
0.0000001
 43
0.0000001
 44
0.0000000001
 40
0.0
 40
0.0
 40
0.0
 40
0.0
 40
0.0623915947
 40
0.1288324685
 40
0.2703538915
 40
0.4174444484
 40
0.5617193862
 40
0.6953270161
 40
0.7563203939
 40
0.8128004675
 40
0.8647387497
 40
0.9125519997
 40
0.9571587193
 40
1.0
 40
1.0
 40
1.0
 40
1.0
 10
26.3800630976
 20
74.9601846236
 30
0.0
 10
26.4007085818
 20
74.9482652174
 30
0.0
 10
26.4449928365
 20
74.9264487172
 30
0.0
 10
26.5422522748
 20
74.8911850579
 30
0.0
 10
26.6761185411
 20
74.8644192467
 30
0.0
 10
26.8421957124
 20
74.8598370692
 30
0.0
 10
27.0037486253
 20
74.8825183339
 30
0.0
 10
27.1275370399
 20
74.9238669983
 30
0.0
 10
27.2120244261
 20
74.9697918364
 30
0.0
 10
27.2644701888
 20
75.0081177246
 30
0.0
 10
27.3067887097
 20
75.0506221907
 30
0.0
 10
27.3380260557
 20
75.0965466944
 30
0.0
 10
27.3572571369
 20
75.1450023392
 30
0.0
 10
27.361647396
 20
75.1785557722
 30
0.0
 10
27.3616451606
 20
75.1949250055
 30
0.0
  0
SPLINE
  5
3CB
100
AcDbEntity
  8
0
100
AcDbSpline
 62
7
  6
BYLAYER
 70
0
 71
3
 72
11
 73
7
 74
0
 42
0.0000001
 43
0.0000001
 44
0.0000000001
 40
0.0
 40
0.0
 40
0.0
 40
0.0
 40
0.2447624892
 40
0.4916729734
 40
0.7427907959
 40
1.0
 40
1.0
 40
1.0
 40
1.0
 10
23.9557265987
 20
73.781392445
 30
0.0
 10
23.9557284726
 20
73.7127484113
 30
0.0
 10
23.9637382439
 20
73.5747298508
 30
0.0
 10
23.9995885982
 20
73.3690849564
 30
0.0
 10
24.0591487844
 20
73.1653928483
 30
0.0
 10
24.1136774236
 20
73.0333457715
 30
0.0
 10
24.1445037172
 20
72.9681295189
 30
0.0
  0
SPLINE
  5
3CC
100
AcDbEntity
  8
0
100
AcDbSpline
 62
7
  6
BYLAYER
 70
0
 71
3
 72
11
 73
7
 74
0
 42
0.0000001
 43
0.0000001
 44
0.0000000001
 40
0.0
 40
0.0
 40
0.0
 40
0.0
 40
0.2241633955
 40
0.4643378152
 40
0.7227547668
 40
1.0
 40
1.0
 40
1.0
 40
1.0
 10
24.1445037172
 20
72.9681295189
 30
0.0
 10
24.2058902924
 20
72.8382597903
 30
0.0
 10
24.3601856991
 20
72.5815405969
 30
0.0
 10
24.6636302783
 20
72.2292756336
 30
0.0
 10
25.0407323692
 20
71.9029640845
 30
0.0
 10
25.3273305839
 20
71.712384061
 30
0.0
 10
25.480312135
 20
71.6220478473
 30
0.0
  0
SPLINE
  5
3CD
100
AcDbEntity
  8
0
100
AcDbSpline
 62
7
  6
BYLAYER
 70
0
 71
3
 72
14
 73
10
 74
0
 42
0.0000001
 43
0.0000001
 44
0.0000000001
 40
0.0
 40
0.0
 40
0.0
 40
0.0
 40
0.1057890971
 40
0.2161433855
 40
0.3318148096
 40
0.4533067088
 40
0.5809011684
 40
0.7146716048
 40
1.0
 40
1.0
 40
1.0
 40
1.0
 10
33.7589915643
 20
61.857032844
 30
0.0
 10
33.7285595906
 20
61.7824101617
 30
0.0
 10
33.6558852699
 20
61.6340498559
 30
0.0
 10
33.5171126594
 20
61.4221091704
 30
0.0
 10
33.3476420515
 20
61.2180428421
 30
0.0
 10
33.1488239762
 20
61.0232999706
 30
0.0
 10
32.922097438
 20
60.8392032731
 30
0.0
 10
32.577500567
 20
60.6046856658
 30
0.0
 10
32.2930466576
 20
60.4565443663
 30
0.0
 10
32.0943781689
 20
60.368358727
 30
0.0
  0
SPLINE
  5
3CE
100
AcDbEntity
  8
0
100
AcDbSpline
 62
7
  6
BYLAYER
 70
0
 71
3
 72
9
 73
5
 74
0
 42
0.0000001
 43
0.0000001
 44
0.0000000001
 40
0.0
 40
0.0
 40
0.0
 40
0.0
 40
0.2563431085
 40
1.0
 40
1.0
 40
1.0
 40
1.0
 10
26.5695485545
 20
60.3454101036
 30
0.0
 10
26.5257796941
 20
60.3642706209
 30
0.0
 10
26.3560501407
 20
60.4401605195
 30
0.0
 10
26.1904646803
 20
60.5254410882
 30
0.0
 10
26.0707261446
 20
60.5945706001
 30
0.0
  0
SPLINE
  5
3CF
100
AcDbEntity
  8
0
100
AcDbSpline
 62
7
  6
BYLAYER
 70
0
 71
3
 72
10
 73
6
 74
0
 42
0.0000001
 43
0.0000001
 44
0.0000000001
 40
0.0
 40
0.0
 40
0.0
 40
0.0
 40
0.4735965568
 40
0.730293631
 40
1.0
 40
1.0
 40
1.0
 40
1.0
 10
24.868231082
 20
60.9433419918
 30
0.0
 10
24.9952663706
 20
60.7770520519
 30
0.0
 10
25.2241698511
 20
60.5449008689
 30
0.0
 10
25.5760067604
 20
60.2772695797
 30
0.0
 10
25.7730666344
 20
60.1529765862
 30
0.0
 10
25.8762725894
 20
60.0933919483
 30
0.0
  0
SPLINE
  5
3D0
100
AcDbEntity
  8
0
100
AcDbSpline
 62
7
  6
BYLAYER
 70
0
 71
3
 72
23
 73
19
 74
0
 42
0.0000001
 43
0.0000001
 44
0.0000000001
 40
0.0
 40
0.0
 40
0.0
 40
0.0
 40
0.0559369227
 40
0.1144214098
 40
0.1751820323
 40
0.2379279641
 40
0.3023031787
 40
0.3679194853
 40
0.4343637053
 40
0.501204503
 40
0.5680029211
 40
0.6343211047
 40
0.6997308318
 40
0.7638221496
 40
0.826213189
 40
0.8865600622
 40
0.9445671958
 40
1.0
 40
1.0
 40
1.0
 40
1.0
 10
39.7601150769
 20
18.9471429824
 30
0.0
 10
39.4243549419
 20
18.7532929353
 30
0.0
 10
38.719845665
 20
18.3868282506
 30
0.0
 10
37.6013290607
 20
17.911694075
 30
0.0
 10
36.4069554632
 20
17.5028254064
 30
0.0
 10
35.1486009191
 20
17.1641721974
 30
0.0
 10
33.8384339128
 20
16.8990418678
 30
0.0
 10
32.4893058029
 20
16.7100050275
 30
0.0
 10
31.1144195017
 20
16.598899171
 30
0.0
 10
29.727241752
 20
16.5668411859
 30
0.0
 10
28.3413728701
 20
16.6141344294
 30
0.0
 10
26.9703927256
 20
16.7403009268
 30
0.0
 10
25.6277308984
 20
16.9441115074
 30
0.0
 10
24.326531856
 20
17.2235961247
 30
0.0
 10
23.0795232076
 20
17.5760056423
 30
0.0
 10
21.8988444137
 20
17.9979308407
 30
0.0
 10
20.796114635
 20
18.485241431
 30
0.0
 10
20.103464388
 20
18.8596152233
 30
0.0
 10
19.7739790677
 20
19.0572386654
 30
0.0
  0
SPLINE
  5
3D1
100
AcDbEntity
  8
0
100
AcDbSpline
 62
7
  6
BYLAYER
 70
0
 71
3
 72
31
 73
27
 74
0
 42
0.0000001
 43
0.0000001
 44
0.0000000001
 40
0.0
 40
0.0
 40
0.0
 40
0.0
 40
0.0218464331
 40
0.0439004559
 40
0.0663592185
 40
0.0894043221
 40
0.1131929598
 40
0.137855427
 40
0.163491612
 40
0.1901718256
 40
0.2179371413
 40
0.2468021973
 40
0.2767566606
 40
0.3077691491
 40
0.3727219207
 40
0.4410923478
 40
0.51208398
 40
0.5847630586
 40
0.6581132296
 40
0.7310864936
 40
0.8026522825
 40
0.8718490304
 40
0.9052982281
 40
0.9378568382
 40
0.9694518296
 40
1.0
 40
1.0
 40
1.0
 40
1.0
 10
16.5105789248
 20
14.2112826064
 30
0.0
 10
16.5105789248
 20
14.0165674472
 30
0.0
 10
16.5356893017
 20
13.624841916
 30
0.0
 10
16.6478708294
 20
13.0426379584
 30
0.0
 10
16.8337413831
 20
12.4683711047
 30
0.0
 10
17.0914450393
 20
11.9056702474
 30
0.0
 10
17.4190320735
 20
11.357704931
 30
0.0
 10
17.814072578
 20
10.8272727939
 30
0.0
 10
18.2740607536
 20
10.3169683108
 30
0.0
 10
18.7962352825
 20
9.8291819527
 30
0.0
 10
19.3776517264
 20
9.3661786454
 30
0.0
 10
20.0151487205
 20
8.9301601505
 30
0.0
 10
20.7053082196
 20
8.5231515125
 30
0.0
 10
21.706210298
 20
8.0141030201
 30
0.0
 10
23.0682158517
 20
7.4665034152
 30
0.0
 10
24.8212216978
 20
6.963252123
 30
0.0
 10
26.681224234
 20
6.6138629616
 30
0.0
 10
28.6087433701
 20
6.4255517417
 30
0.0
 10
30.5629002406
 20
6.4021970722
 30
0.0
 10
32.5021412535
 20
6.544302531
 30
0.0
 10
34.3851087955
 20
6.8488793524
 30
0.0
 10
35.8912254219
 20
7.2372519625
 30
0.0
 10
37.0323656101
 20
7.6259594522
 30
0.0
 10
37.8402609727
 20
7.9497795548
 30
0.0
 10
38.6052692811
 20
8.3074842863
 30
0.0
 10
39.0924756813
 20
8.571831842
 30
0.0
 10
39.3274077442
 20
8.7094525603
 30
0.0
  0
SPLINE
  5
3D2
100
AcDbEntity
  8
0
100
AcDbSpline
 62
7
  6
BYLAYER
 70
0
 71
3
 72
15
 73
11
 74
0
 42
0.0000001
 43
0.0000001
 44
0.0000000001
 40
0.0
 40
0.0
 40
0.0
 40
0.0
 40
0.1468395161
 40
0.2864453804
 40
0.418862174
 40
0.5445481037
 40
0.6642508746
 40
0.779073601
 40
0.8904353679
 40
1.0
 40
1.0
 40
1.0
 40
1.0
 10
39.3274077442
 20
8.7094525603
 30
0.0
 10
39.6249318371
 20
8.8837390278
 30
0.0
 10
40.1916323649
 20
9.2480135443
 30
0.0
 10
40.9667928998
 20
9.8559739644
 30
0.0
 10
41.6387335681
 20
10.5073371922
 30
0.0
 10
42.2006528521
 20
11.1967929013
 30
0.0
 10
42.6463031181
 20
11.9188690717
 30
0.0
 10
42.9699029015
 20
12.6672732633
 30
0.0
 10
43.1664735246
 20
13.434190811
 30
0.0
 10
43.2105789248
 20
13.9539992355
 30
0.0
 10
43.2105789248
 20
14.2112826064
 30
0.0
  0
SPLINE
  5
3D3
100
AcDbEntity
  8
0
100
AcDbSpline
 62
7
  6
BYLAYER
 70
0
 71
3
 72
23
 73
19
 74
0
 42
0.0000001
 43
0.0000001
 44
0.0000000001
 40
0.0
 40
0.0
 40
0.0
 40
0.0
 40
0.0548189534
 40
0.1119854059
 40
0.1713119026
 40
0.2325639176
 40
0.2954679921
 40
0.3597184831
 40
0.4249862044
 40
0.4909242537
 40
0.557173972
 40
0.6233721152
 40
0.6891558356
 40
0.7541689066
 40
0.8180695566
 40
0.8805346308
 40
0.9412632414
 40
1.0
 40
1.0
 40
1.0
 40
1.0
 10
19.7740215681
 20
19.0572131286
 30
0.0
 10
20.0745653219
 20
18.87695034
 30
0.0
 10
20.7037789474
 20
18.5336756397
 30
0.0
 10
21.701764271
 20
18.0805394438
 30
0.0
 10
22.7665610399
 20
17.6813984976
 30
0.0
 10
23.8894066498
 20
17.3395320156
 30
0.0
 10
25.0611635893
 20
17.057738573
 30
0.0
 10
26.2722345783
 20
16.838285279
 30
0.0
 10
27.5127099279
 20
16.6829613741
 30
0.0
 10
28.7724318122
 20
16.5930744717
 30
0.0
 10
30.041073685
 20
16.5693278556
 30
0.0
 10
31.308237828
 20
16.6119133003
 30
0.0
 10
32.5635326426
 20
16.720519386
 30
0.0
 10
33.7966771068
 20
16.894218833
 30
0.0
 10
34.9975724978
 20
17.1315918374
 30
0.0
 10
36.156381301
 20
17.4307495231
 30
0.0
 10
37.2636053668
 20
17.7891596169
 30
0.0
 10
37.9742453458
 20
18.0708173932
 30
0.0
 10
38.3182414077
 20
18.2213858336
 30
0.0
  0
SPLINE
  5
3D4
100
AcDbEntity
  8
0
100
AcDbSpline
 62
7
  6
BYLAYER
 70
0
 71
3
 72
9
 73
5
 74
0
 42
0.0000001
 43
0.0000001
 44
0.0000000001
 40
0.0
 40
0.0
 40
0.0
 40
0.0
 40
0.2560008499
 40
1.0
 40
1.0
 40
1.0
 40
1.0
 10
38.3182414077
 20
18.2213858336
 30
0.0
 10
38.4444662618
 20
18.2766349527
 30
0.0
 10
38.9346938136
 20
18.4988362079
 30
0.0
 10
39.4133226064
 20
18.7469234514
 30
0.0
 10
39.7601150769
 20
18.9471429824
 30
0.0
  0
SPLINE
  5
3D5
100
AcDbEntity
  8
0
100
AcDbSpline
 62
7
  6
BYLAYER
 70
0
 71
3
 72
23
 73
19
 74
0
 42
0.0000001
 43
0.0000001
 44
0.0000000001
 40
0.0
 40
0.0
 40
0.0
 40
0.0
 40
0.0558327992
 40
0.1141818748
 40
0.1747824303
 40
0.237353236
 40
0.3015491958
 40
0.3669930257
 40
0.4332834669
 40
0.5000012362
 40
0.5667188423
 40
0.6330091518
 40
0.698453143
 40
0.7626483507
 40
0.8252184373
 40
0.885822016
 40
0.9441623851
 40
1.0
 40
1.0
 40
1.0
 40
1.0
 10
39.7601150769
 20
18.1306405653
 30
0.0
 10
39.4284727404
 20
17.939167916
 30
0.0
 10
38.7329798868
 20
17.5769214405
 30
0.0
 10
37.6293146734
 20
17.1062935829
 30
0.0
 10
36.4513168384
 20
16.7002561596
 30
0.0
 10
35.2104259996
 20
16.3626433427
 30
0.0
 10
33.9183570051
 20
16.0966675334
 30
0.0
 10
32.5874848682
 20
15.9048477663
 30
0.0
 10
31.2305269495
 20
15.7890089455
 30
0.0
 10
29.8604582153
 20
15.7502880697
 30
0.0
 10
28.4903916086
 20
15.7890349058
 30
0.0
 10
27.1334345024
 20
15.9048693778
 30
0.0
 10
25.802568156
 20
16.0966994538
 30
0.0
 10
24.5105146974
 20
16.3627044762
 30
0.0
 10
23.2696144358
 20
16.7003238275
 30
0.0
 10
22.0916670811
 20
17.1063711888
 30
0.0
 10
20.9879992574
 20
17.5769791658
 30
0.0
 10
20.2925488068
 20
17.9392504113
 30
0.0
 10
19.9608807278
 20
18.1307445331
 30
0.0
  0
SPLINE
  5
3D6
100
AcDbEntity
  8
0
100
AcDbSpline
 62
7
  6
BYLAYER
 70
0
 71
3
 72
30
 73
26
 74
0
 42
0.0000001
 43
0.0000001
 44
0.0000000001
 40
0.0
 40
0.0
 40
0.0
 40
0.0
 40
0.0306630685
 40
0.0623994627
 40
0.0951208335
 40
0.1287476329
 40
0.1983274302
 40
0.2702904338
 40
0.3436539766
 40
0.4173718934
 40
0.4903827346
 40
0.5616560783
 40
0.6302406505
 40
0.6953162157
 40
0.7263460762
 40
0.756282108
 40
0.812708954
 40
0.8392296563
 40
0.8646476659
 40
0.8890300102
 40
0.9124747566
 40
0.9351151665
 40
0.9571160421
 40
0.9786722544
 40
1.0
 40
1.0
 40
1.0
 40
1.0
 10
39.3004937555
 20
8.7612685336
 30
0.0
 10
39.0646926435
 20
8.6251295107
 30
0.0
 10
38.5757299907
 20
8.3636100582
 30
0.0
 10
37.808287587
 20
8.0097947366
 30
0.0
 10
36.9978659725
 20
7.6895343104
 30
0.0
 10
35.8532011124
 20
7.305228532
 30
0.0
 10
34.3430246535
 20
6.921883397
 30
0.0
 10
32.4558883471
 20
6.6226443647
 30
0.0
 10
30.5132931655
 20
6.4853122628
 30
0.0
 10
28.5568025438
 20
6.5128425663
 30
0.0
 10
26.6281269076
 20
6.704634341
 30
0.0
 10
24.7683226286
 20
7.0566277535
 30
0.0
 10
23.0170805789
 20
7.5613288998
 30
0.0
 10
21.6576521766
 20
8.1089610325
 30
0.0
 10
20.6596646792
 20
8.6170896082
 30
0.0
 10
19.7615598001
 20
9.1470770984
 30
0.0
 10
18.9488272211
 20
9.7409970609
 30
0.0
 10
18.2447556186
 20
10.3982944834
 30
0.0
 10
17.7902128308
 20
10.9022169481
 30
0.0
 10
17.400817276
 20
11.4244347148
 30
0.0
 10
17.0788869365
 20
11.9623482485
 30
0.0
 10
16.8262282274
 20
12.5130189552
 30
0.0
 10
16.6445800664
 20
13.0735632511
 30
0.0
 10
16.5350077055
 20
13.6406599949
 30
0.0
 10
16.5105944372
 20
14.0218983347
 30
0.0
 10
16.5105928969
 20
14.2112826065
 30
0.0
  0
SPLINE
  5
3D7
100
AcDbEntity
  8
0
100
AcDbSpline
 62
7
  6
BYLAYER
 70
0
 71
3
 72
11
 73
7
 74
0
 42
0.0000001
 43
0.0000001
 44
0.0000000001
 40
0.0
 40
0.0
 40
0.0
 40
0.0
 40
0.2460259661
 40
0.4936734761
 40
0.7445091908
 40
1.0
 40
1.0
 40
1.0
 40
1.0
 10
43.2105649527
 20
14.2112826064
 30
0.0
 10
43.2105661573
 20
14.0631664158
 30
0.0
 10
43.1957004846
 20
13.7657467791
 30
0.0
 10
43.1288338072
 20
13.3218352798
 30
0.0
 10
43.0177564244
 20
12.8810198224
 30
0.0
 10
42.9155737128
 20
12.5932898931
 30
0.0
 10
42.8576626674
 20
12.450793694
 30
0.0
  0
SPLINE
  5
3D8
100
AcDbEntity
  8
0
100
AcDbSpline
 62
7
  6
BYLAYER
 70
0
 71
3
 72
9
 73
5
 74
0
 42
0.0000001
 43
0.0000001
 44
0.0000000001
 40
0.0
 40
0.0
 40
0.0
 40
0.0
 40
0.4844581735
 40
1.0
 40
1.0
 40
1.0
 40
1.0
 10
42.8576626674
 20
12.450793694
 30
0.0
 10
42.7326924986
 20
12.1432914905
 30
0.0
 10
42.4128394693
 20
11.5326076499
 30
0.0
 10
41.9957765747
 20
10.985174421
 30
0.0
 10
41.7624314374
 20
10.7200012661
 30
0.0
  0
SPLINE
  5
3D9
100
AcDbEntity
  8
0
100
AcDbSpline
 62
7
  6
BYLAYER
 70
0
 71
3
 72
10
 73
6
 74
0
 42
0.0000001
 43
0.0000001
 44
0.0000000001
 40
0.0
 40
0.0
 40
0.0
 40
0.0
 40
0.4782190446
 40
0.7337781033
 40
1.0
 40
1.0
 40
1.0
 40
1.0
 10
41.7624314374
 20
10.7200012661
 30
0.0
 10
41.4382252649
 20
10.3515737315
 30
0.0
 10
40.8841991761
 20
9.8343009907
 30
0.0
 10
40.0578770212
 20
9.2251135896
 30
0.0
 10
39.6044986066
 20
8.9390621258
 30
0.0
 10
39.3687621599
 20
8.800970208
 30
0.0
  0
SPLINE
  5
3DA
100
AcDbEntity
  8
0
100
AcDbSpline
 62
7
  6
BYLAYER
 70
0
 71
3
 72
23
 73
19
 74
0
 42
0.0000001
 43
0.0000001
 44
0.0000000001
 40
0.0
 40
0.0
 40
0.0
 40
0.0
 40
0.0558380137
 40
0.1141783862
 40
0.1747815936
 40
0.2373518673
 40
0.3015471617
 40
0.3669909444
 40
0.43328131
 40
0.4999989172
 40
0.5667166093
 40
0.6330070973
 40
0.6984508307
 40
0.7626469724
 40
0.8252174296
 40
0.8858177391
 40
0.9441686939
 40
1.0
 40
1.0
 40
1.0
 40
1.0
 10
20.4205009757
 20
17.8653646621
 30
0.0
 10
20.7367724939
 20
17.6827599793
 30
0.0
 10
21.3999437339
 20
17.3373200177
 30
0.0
 10
22.452372007
 20
16.8885681888
 30
0.0
 10
23.5756202477
 20
16.5013504616
 30
0.0
 10
24.7589099748
 20
16.1794147616
 30
0.0
 10
25.9909784865
 20
15.9257747605
 30
0.0
 10
27.2600519193
 20
15.7428356054
 30
0.0
 10
28.5540069104
 20
15.6323754633
 30
0.0
 10
29.8604638158
 20
15.5954413844
 30
0.0
 10
31.1669219401
 20
15.6323623946
 30
0.0
 10
32.4608788911
 20
15.7428108606
 30
0.0
 10
33.7299607643
 20
15.9257334364
 30
0.0
 10
34.9620375796
 20
16.1793669162
 30
0.0
 10
36.1453168474
 20
16.5012907791
 30
0.0
 10
37.2686295199
 20
16.8884825303
 30
0.0
 10
38.3210498484
 20
17.3372696503
 30
0.0
 10
38.98425749
 20
17.6826924814
 30
0.0
 10
39.3004937555
 20
17.8652704846
 30
0.0
  0
SPLINE
  5
3DB
100
AcDbEntity
  8
0
100
AcDbSpline
 62
7
  6
BYLAYER
 70
0
 71
3
 72
11
 73
7
 74
0
 42
0.0000001
 43
0.0000001
 44
0.0000000001
 40
0.0
 40
0.0
 40
0.0
 40
0.0
 40
0.2095049725
 40
0.4455888939
 40
0.7095844493
 40
1.0
 40
1.0
 40
1.0
 40
1.0
 10
33.6882313925
 20
61.9254773923
 30
0.0
 10
33.7038306178
 20
61.8946958995
 30
0.0
 10
33.7306583958
 20
61.8259578313
 30
0.0
 10
33.7574260765
 20
61.7119133077
 30
0.0
 10
33.7730353438
 20
61.5824348012
 30
0.0
 10
33.7761248799
 20
61.4910653391
 30
0.0
 10
33.7761248799
 20
61.4432297053
 30
0.0
  0
SPLINE
  5
3DC
100
AcDbEntity
  8
0
100
AcDbSpline
 62
7
  6
BYLAYER
 70
0
 71
3
 72
23
 73
19
 74
0
 42
0.0000001
 43
0.0000001
 44
0.0000000001
 40
0.0
 40
0.0
 40
0.0
 40
0.0
 40
0.0174841244
 40
0.0353882581
 40
0.0738043267
 40
0.1175380436
 40
0.1677051612
 40
0.2244494187
 40
0.2872713383
 40
0.3552150317
 40
0.4270465942
 40
0.5014316278
 40
0.5770471029
 40
0.6526857004
 40
0.7272831369
 40
0.7999346806
 40
0.8699536007
 40
1.0
 40
1.0
 40
1.0
 40
1.0
 10
33.8718164762
 20
61.8952998778
 30
0.0
 10
33.8570454552
 20
61.9038253951
 30
0.0
 10
33.8257146627
 20
61.9187156384
 30
0.0
 10
33.7564691998
 20
61.9392978548
 30
0.0
 10
33.6578629758
 20
61.9458976059
 30
0.0
 10
33.5296853844
 20
61.9255078873
 30
0.0
 10
33.389794314
 20
61.8789288394
 30
0.0
 10
33.2400722204
 20
61.8075033332
 30
0.0
 10
33.0832589728
 20
61.7128868301
 30
0.0
 10
32.9228543661
 20
61.5971172243
 30
0.0
 10
32.7628004691
 20
61.4625904675
 30
0.0
 10
32.6072892153
 20
61.311864688
 30
0.0
 10
32.4606204468
 20
61.1474845017
 30
0.0
 10
32.3269183975
 20
60.9720799373
 30
0.0
 10
32.2101352208
 20
60.7883711806
 30
0.0
 10
32.1141325084
 20
60.5988907754
 30
0.0
 10
32.0209710948
 20
60.3495225255
 30
0.0
 10
31.9867434088
 20
60.1537150623
 30
0.0
 10
31.9867434088
 20
60.0268616808
 30
0.0
  0
SPLINE
  5
3DD
100
AcDbEntity
  8
0
100
AcDbSpline
 62
7
  6
BYLAYER
 70
0
 71
3
 72
22
 73
18
 74
0
 42
0.0000001
 43
0.0000001
 44
0.0000000001
 40
0.0
 40
0.0
 40
0.0
 40
0.0
 40
0.0488260841
 40
0.0981615819
 40
0.1484898869
 40
0.2002462938
 40
0.2538033544
 40
0.3094602573
 40
0.3674440439
 40
0.4279068155
 40
0.4909366417
 40
0.5565571549
 40
0.6247410809
 40
0.6954098088
 40
0.7684458126
 40
0.8436926251
 40
1.0
 40
1.0
 40
1.0
 40
1.0
 10
43.6213987193
 20
61.8196264008
 30
0.0
 10
43.6214051493
 20
62.0121209827
 30
0.0
 10
43.5968802714
 20
62.3995516921
 30
0.0
 10
43.4870453545
 20
62.9760089507
 30
0.0
 10
43.3047872072
 20
63.5459603192
 30
0.0
 10
43.0513601212
 20
64.1061915568
 30
0.0
 10
42.7282481917
 20
64.6537351169
 30
0.0
 10
42.3374190704
 20
65.1858127696
 30
0.0
 10
41.8809704869
 20
65.6996550493
 30
0.0
 10
41.3614638566
 20
66.1927447003
 30
0.0
 10
40.7815905877
 20
66.6624983578
 30
0.0
 10
40.1444769425
 20
67.1066167194
 30
0.0
 10
39.4534095295
 20
67.5227435031
 30
0.0
 10
38.7120600825
 20
67.9088118409
 30
0.0
 10
37.9242420209
 20
68.2627782793
 30
0.0
 10
36.8034098959
 20
68.694911405
 30
0.0
 10
35.9268264574
 20
68.9567205897
 30
0.0
 10
35.3289416917
 20
69.1059817691
 30
0.0
  0
SPLINE
  5
3DE
100
AcDbEntity
  8
0
100
AcDbSpline
 62
7
  6
BYLAYER
 70
0
 71
3
 72
13
 73
9
 74
0
 42
0.0000001
 43
0.0000001
 44
0.0000000001
 40
0.0
 40
0.0
 40
0.0
 40
0.0
 40
0.1199536893
 40
0.2404281594
 40
0.361924592
 40
0.4849214715
 40
0.7370084036
 40
1.0
 40
1.0
 40
1.0
 40
1.0
 10
43.6213925236
 20
61.4042319455
 30
0.0
 10
43.6211975735
 20
61.2817128225
 30
0.0
 10
43.6109418701
 20
61.0360453917
 30
0.0
 10
43.5660584592
 20
60.6687440272
 30
0.0
 10
43.4916942627
 20
60.3030593117
 30
0.0
 10
43.3524798984
 20
59.8148857929
 30
0.0
 10
43.1028552291
 20
59.2102132468
 30
0.0
 10
42.8354389499
 20
58.7551132417
 30
0.0
 10
42.6852998929
 20
58.532373283
 30
0.0
  0
SPLINE
  5
3DF
100
AcDbEntity
  8
0
100
AcDbSpline
 62
7
  6
BYLAYER
 70
0
 71
3
 72
9
 73
5
 74
0
 42
0.0000001
 43
0.0000001
 44
0.0000000001
 40
0.0
 40
0.0
 40
0.0
 40
0.0
 40
0.4969811207
 40
1.0
 40
1.0
 40
1.0
 40
1.0
 10
34.8057229321
 20
73.1281905094
 30
0.0
 10
34.8057207459
 20
73.2115317402
 30
0.0
 10
34.7941928778
 20
73.379418026
 30
0.0
 10
34.7601753357
 20
73.5441875199
 30
0.0
 10
34.7378407779
 20
73.6255307416
 30
0.0
  0
SPLINE
  5
3E0
100
AcDbEntity
  8
0
100
AcDbSpline
 62
7
  6
BYLAYER
 70
0
 71
3
 72
11
 73
7
 74
0
 42
0.0000001
 43
0.0000001
 44
0.0000000001
 40
0.0
 40
0.0
 40
0.0
 40
0.0
 40
0.263554263
 40
0.5158115051
 40
0.7600110191
 40
1.0
 40
1.0
 40
1.0
 40
1.0
 10
23.7302493524
 20
73.0199513616
 30
0.0
 10
23.6620857476
 20
72.9209602841
 30
0.0
 10
23.540618776
 20
72.7185465179
 30
0.0
 10
23.4057284731
 20
72.3979377857
 30
0.0
 10
23.324001739
 20
72.0708001237
 30
0.0
 10
23.305741437
 20
71.8495793299
 30
0.0
 10
23.3057415737
 20
71.7401364022
 30
0.0
  0
SPLINE
  5
3E1
100
AcDbEntity
  8
0
100
AcDbSpline
 62
7
  6
BYLAYER
 70
0
 71
3
 72
11
 73
7
 74
0
 42
0.0000001
 43
0.0000001
 44
0.0000000001
 40
0.0
 40
0.0
 40
0.0
 40
0.0
 40
0.2391107411
 40
0.4828203374
 40
0.7353045393
 40
1.0
 40
1.0
 40
1.0
 40
1.0
 10
35.305710826
 20
71.7401364021
 30
0.0
 10
35.3057106827
 20
71.8548730148
 30
0.0
 10
35.2856012141
 20
72.0870283316
 30
0.0
 10
35.1957155204
 20
72.4298190032
 30
0.0
 10
35.0474787154
 20
72.7650238273
 30
0.0
 10
34.9144339088
 20
72.9756202836
 30
0.0
 10
34.8398552676
 20
73.0784328408
 30
0.0
  0
SPLINE
  5
3E2
100
AcDbEntity
  8
0
100
AcDbSpline
 62
7
  6
BYLAYER
 70
0
 71
3
 72
13
 73
9
 74
0
 42
0.0000001
 43
0.0000001
 44
0.0000000001
 40
0.0
 40
0.0
 40
0.0
 40
0.0
 40
0.1146136531
 40
0.2303628181
 40
0.3483275443
 40
0.4694847361
 40
0.72428716
 40
1.0
 40
1.0
 40
1.0
 40
1.0
 10
35.305710826
 20
67.0044223828
 30
0.0
 10
35.3057109282
 20
66.9226054116
 30
0.0
 10
35.2955912291
 20
66.757983523
 30
0.0
 10
35.2501064809
 20
66.5129461606
 30
0.0
 10
35.1746582813
 20
66.2705081107
 30
0.0
 10
35.0323972575
 20
65.9471822362
 30
0.0
 10
34.7770269223
 20
65.5543832982
 30
0.0
 10
34.5148809687
 20
65.2783502794
 30
0.0
 10
34.3691881023
 20
65.1460219954
 30
0.0
  0
SPLINE
  5
3E3
100
AcDbEntity
  8
0
100
AcDbSpline
 62
7
  6
BYLAYER
 70
0
 71
3
 72
9
 73
5
 74
0
 42
0.0000001
 43
0.0000001
 44
0.0000000001
 40
0.0
 40
0.0
 40
0.0
 40
0.0
 40
0.4850324514
 40
1.0
 40
1.0
 40
1.0
 40
1.0
 10
34.3691881023
 20
65.1460219954
 30
0.0
 10
34.2479742674
 20
65.0359272518
 30
0.0
 10
33.9838439919
 20
64.8243218939
 30
0.0
 10
33.6990195667
 20
64.6419495162
 30
0.0
 10
33.5484578624
 20
64.5550201827
 30
0.0
  0
SPLINE
  5
3E4
100
AcDbEntity
  8
0
100
AcDbSpline
 62
7
  6
BYLAYER
 70
0
 71
3
 72
11
 73
7
 74
0
 42
0.0000001
 43
0.0000001
 44
0.0000000001
 40
0.0
 40
0.0
 40
0.0
 40
0.0
 40
0.2365091675
 40
0.4798120481
 40
0.7336008612
 40
1.0
 40
1.0
 40
1.0
 40
1.0
 10
26.384317331
 20
59.4104137479
 30
0.0
 10
26.332979768
 20
59.3967778551
 30
0.0
 10
26.2255495075
 20
59.3801837998
 30
0.0
 10
26.0599420258
 20
59.3895362671
 30
0.0
 10
25.893031511
 20
59.4330896432
 30
0.0
 10
25.7866669576
 20
59.4831335261
 30
0.0
 10
25.7348518219
 20
59.5130483318
 30
0.0
  0
SPLINE
  5
3E5
100
AcDbEntity
  8
0
100
AcDbSpline
 62
7
  6
BYLAYER
 70
0
 71
3
 72
13
 73
9
 74
0
 42
0.0000001
 43
0.0000001
 44
0.0000000001
 40
0.0
 40
0.0
 40
0.0
 40
0.0
 40
0.1173052057
 40
0.2354741128
 40
0.3551906244
 40
0.477101111
 40
0.7301087742
 40
1.0
 40
1.0
 40
1.0
 40
1.0
 10
26.2396558595
 20
59.2972021104
 30
0.0
 10
26.2688930252
 20
59.3140821947
 30
0.0
 10
26.3252626865
 20
59.352180962
 30
0.0
 10
26.4012751494
 20
59.4210047971
 30
0.0
 10
26.4678679132
 20
59.5007471966
 30
0.0
 10
26.5434659911
 20
59.6218409687
 30
0.0
 10
26.6085114461
 20
59.7980024781
 30
0.0
 10
26.6247489788
 20
59.9491747134
 30
0.0
 10
26.6247489788
 20
60.0268487921
 30
0.0
  0
SPLINE
  5
3E6
100
AcDbEntity
  8
0
100
AcDbSpline
 62
7
  6
BYLAYER
 70
0
 71
3
 72
14
 73
10
 74
0
 42
0.0000001
 43
0.0000001
 44
0.0000000001
 40
0.0
 40
0.0
 40
0.0
 40
0.0
 40
0.2328124978
 40
0.3601998675
 40
0.4921819163
 40
0.625951593
 40
0.7579717118
 40
0.8841121941
 40
1.0
 40
1.0
 40
1.0
 40
1.0
 10
25.7348518219
 20
59.5130483318
 30
0.0
 10
25.5862884678
 20
59.5988194839
 30
0.0
 10
25.3872792818
 20
59.786739196
 30
0.0
 10
25.1866927951
 20
60.0890677405
 30
0.0
 10
25.0588789569
 20
60.3500572239
 30
0.0
 10
24.9598352012
 20
60.6263951088
 30
0.0
 10
24.8890284683
 20
60.9068145718
 30
0.0
 10
24.8458934356
 20
61.1793960563
 30
0.0
 10
24.83534708
 20
61.3578176156
 30
0.0
 10
24.83534708
 20
61.4432082143
 30
0.0
  0
SPLINE
  5
3E7
100
AcDbEntity
  8
0
100
AcDbSpline
 62
7
  6
BYLAYER
 70
0
 71
3
 72
11
 73
7
 74
0
 42
0.0000001
 43
0.0000001
 44
0.0000000001
 40
0.0
 40
0.0
 40
0.0
 40
0.0
 40
0.292773908
 40
0.5574106797
 40
0.7926097811
 40
1.0
 40
1.0
 40
1.0
 40
1.0
 10
24.83534708
 20
61.4432082143
 30
0.0
 10
24.83534708
 20
61.4932007667
 30
0.0
 10
24.8386846086
 20
61.5884400182
 30
0.0
 10
24.8557917386
 20
61.7229483399
 30
0.0
 10
24.8851576363
 20
61.8404095218
 30
0.0
 10
24.9146372435
 20
61.9105187371
 30
0.0
 10
24.9317563543
 20
61.9415188645
 30
0.0
  0
SPLINE
  5
3E8
100
AcDbEntity
  8
0
100
AcDbSpline
 62
7
  6
BYLAYER
 70
0
 71
3
 72
15
 73
11
 74
0
 42
0.0000001
 43
0.0000001
 44
0.0000000001
 40
0.0
 40
0.0
 40
0.0
 40
0.0
 40
0.1629118624
 40
0.3145846781
 40
0.4542927369
 40
0.5820579169
 40
0.6985416911
 40
0.8052145465
 40
0.9045915993
 40
1.0
 40
1.0
 40
1.0
 40
1.0
 10
25.4166550952
 20
61.778845714
 30
0.0
 10
25.3829584683
 20
61.7983000305
 30
0.0
 10
25.3167624692
 20
61.8339714357
 30
0.0
 10
25.2177773907
 20
61.8786584394
 30
0.0
 10
25.123249928
 20
61.9120458073
 30
0.0
 10
25.0339527406
 20
61.9337200356
 30
0.0
 10
24.9504541786
 20
61.9434503014
 30
0.0
 10
24.873115773
 20
61.9408843866
 30
0.0
 10
24.8023108293
 20
61.9256648014
 30
0.0
 10
24.7593986218
 20
61.9066741046
 30
0.0
 10
24.73966451
 20
61.8952805787
 30
0.0
  0
SPLINE
  5
3E9
100
AcDbEntity
  8
0
100
AcDbSpline
 62
7
  6
BYLAYER
 70
0
 71
3
 72
16
 73
12
 74
0
 42
0.0000001
 43
0.0000001
 44
0.0000000001
 40
0.0
 40
0.0
 40
0.0
 40
0.0
 40
0.1130035634
 40
0.2338355534
 40
0.3612768008
 40
0.4932665889
 40
0.5601104139
 40
0.6269565254
 40
0.7586712058
 40
0.8844022003
 40
1.0
 40
1.0
 40
1.0
 40
1.0
 10
26.6247489788
 20
60.0268487921
 30
0.0
 10
26.6247489788
 20
60.1101163203
 30
0.0
 10
26.6048306483
 20
60.2826995502
 30
0.0
 10
26.5262083932
 20
60.53823856
 30
0.0
 10
26.4029486796
 20
60.7909373138
 30
0.0
 10
26.2703832322
 20
60.9922010609
 30
0.0
 10
26.1496949241
 20
61.1464336795
 30
0.0
 10
26.0212542695
 20
61.2940078823
 30
0.0
 10
25.851431916
 20
61.4626781094
 30
0.0
 10
25.6389133273
 20
61.6376163888
 30
0.0
 10
25.4904227862
 20
61.7362568812
 30
0.0
 10
25.4166550952
 20
61.778845714
 30
0.0
  0
SPLINE
  5
3EA
100
AcDbEntity
  8
0
100
AcDbSpline
 62
7
  6
BYLAYER
 70
0
 71
3
 72
9
 73
5
 74
0
 42
0.0000001
 43
0.0000001
 44
0.0000000001
 40
0.0
 40
0.0
 40
0.0
 40
0.0
 40
0.5149176849
 40
1.0
 40
1.0
 40
1.0
 40
1.0
 10
25.0631031766
 20
64.5549574596
 30
0.0
 10
24.9116209517
 20
64.6424137844
 30
0.0
 10
24.6250875566
 20
64.82601713
 30
0.0
 10
24.3595067045
 20
65.0391874517
 30
0.0
 10
24.2376985215
 20
65.1501623603
 30
0.0
  0
SPLINE
  5
3EB
100
AcDbEntity
  8
0
100
AcDbSpline
 62
7
  6
BYLAYER
 70
0
 71
3
 72
14
 73
10
 74
0
 42
0.0000001
 43
0.0000001
 44
0.0000000001
 40
0.0
 40
0.0
 40
0.0
 40
0.0
 40
0.275517137
 40
0.4053721195
 40
0.5305333314
 40
0.6516706672
 40
0.7696273182
 40
0.8853783608
 40
1.0
 40
1.0
 40
1.0
 40
1.0
 10
24.2376985215
 20
65.1501623603
 30
0.0
 10
24.0926840035
 20
65.2822796983
 30
0.0
 10
23.8930225778
 20
65.493271033
 30
0.0
 10
23.6738292589
 20
65.8014828194
 30
0.0
 10
23.5405691111
 20
66.0343686986
 30
0.0
 10
23.4361334141
 20
66.2723288026
 30
0.0
 10
23.3610662919
 20
66.5141727955
 30
0.0
 10
23.3158106697
 20
66.7586037729
 30
0.0
 10
23.3057416756
 20
66.9228094025
 30
0.0
 10
23.3057415737
 20
67.0044223828
 30
0.0
  0
SPLINE
  5
3EC
100
AcDbEntity
  8
0
100
AcDbSpline
 62
7
  6
BYLAYER
 70
0
 71
3
 72
9
 73
5
 74
0
 42
0.0000001
 43
0.0000001
 44
0.0000000001
 40
0.0
 40
0.0
 40
0.0
 40
0.0
 40
0.5052607896
 40
1.0
 40
1.0
 40
1.0
 40
1.0
 10
23.9252299884
 20
73.7865068527
 30
0.0
 10
23.8862537386
 20
73.6803065435
 30
0.0
 10
23.8262350298
 20
73.4633118255
 30
0.0
 10
23.8057361949
 20
73.2389614953
 30
0.0
 10
23.8057410805
 20
73.1281905372
 30
0.0
  0
SPLINE
  5
3ED
100
AcDbEntity
  8
0
100
AcDbSpline
 62
7
  6
BYLAYER
 70
0
 71
3
 72
15
 73
11
 74
0
 42
0.0000001
 43
0.0000001
 44
0.0000000001
 40
0.0
 40
0.0
 40
0.0
 40
0.0
 40
0.1485900062
 40
0.289507438
 40
0.4227227312
 40
0.5486437651
 40
0.6680017248
 40
0.7819384658
 40
0.8919875924
 40
1.0
 40
1.0
 40
1.0
 40
1.0
 10
20.1486505489
 20
67.4329367649
 30
0.0
 10
19.8385314396
 20
67.2538904825
 30
0.0
 10
19.2483237453
 20
66.8798021275
 30
0.0
 10
18.4414458484
 20
66.2552625036
 30
0.0
 10
17.7435445478
 20
65.5872255412
 30
0.0
 10
17.1615512368
 20
64.8818279435
 30
0.0
 10
16.7014435329
 20
64.1452764307
 30
0.0
 10
16.3684018598
 20
63.3842661156
 30
0.0
 10
16.1666106472
 20
62.6065056438
 30
0.0
 10
16.121428515
 20
62.0799306506
 30
0.0
 10
16.12141982
 20
61.8196263798
 30
0.0
  0
SPLINE
  5
3EE
100
AcDbEntity
  8
0
100
AcDbSpline
 62
7
  6
BYLAYER
 70
0
 71
3
 72
13
 73
9
 74
0
 42
0.0000001
 43
0.0000001
 44
0.0000000001
 40
0.0
 40
0.0
 40
0.0
 40
0.0
 40
0.2698953581
 40
0.5229010975
 40
0.6448076658
 40
0.7645266053
 40
0.8826989099
 40
1.0
 40
1.0
 40
1.0
 40
1.0
 10
31.9867434088
 20
60.0268616808
 30
0.0
 10
31.9867434088
 20
59.9491862176
 30
0.0
 10
32.0029855422
 20
59.7980137103
 30
0.0
 10
32.0680247774
 20
59.6218506335
 30
0.0
 10
32.1436207874
 20
59.500755831
 30
0.0
 10
32.2102180418
 20
59.4210160004
 30
0.0
 10
32.2862319962
 20
59.3521929925
 30
0.0
 10
32.3426016015
 20
59.3140941723
 30
0.0
 10
32.3718379944
 20
59.2972149487
 30
0.0
  0
SPLINE
  5
3EF
100
AcDbEntity
  8
0
100
AcDbSpline
 62
7
  6
BYLAYER
 70
0
 71
3
 72
21
 73
17
 74
0
 42
0.0000001
 43
0.0000001
 44
0.0000000001
 40
0.0
 40
0.0
 40
0.0
 40
0.0
 40
0.0601526318
 40
0.1245798979
 40
0.1920893318
 40
0.2616264839
 40
0.4026768372
 40
0.4724879888
 40
0.5408200262
 40
0.6706724408
 40
0.7317067096
 40
0.7899260732
 40
0.8454676649
 40
0.8986700198
 40
0.9500002605
 40
1.0
 40
1.0
 40
1.0
 40
1.0
 10
33.7761248799
 20
61.4432297053
 30
0.0
 10
33.7761248799
 20
61.3857399934
 30
0.0
 10
33.771284324
 20
61.2666447928
 30
0.0
 10
33.7511871511
 20
61.0840379406
 30
0.0
 10
33.7175952068
 20
60.8942851235
 30
0.0
 10
33.6548476988
 20
60.6359046469
 30
0.0
 10
33.5664508367
 20
60.3817932309
 30
0.0
 10
33.4499670739
 20
60.1413828757
 30
0.0
 10
33.3186148574
 20
59.9213012096
 30
0.0
 10
33.1607984755
 20
59.7270857892
 30
0.0
 10
32.9776655613
 20
59.5739440925
 30
0.0
 10
32.8351178762
 20
59.4856293597
 30
0.0
 10
32.6874142611
 20
59.4234099335
 30
0.0
 10
32.5376448786
 20
59.3884973121
 30
0.0
 10
32.3893416899
 20
59.381211912
 30
0.0
 10
32.2927413711
 20
59.3945864204
 30
0.0
 10
32.2462485282
 20
59.4056292593
 30
0.0
  0
SPLINE
  5
3F0
100
AcDbEntity
  8
0
100
AcDbSpline
 62
7
  6
BYLAYER
 70
0
 71
3
 72
26
 73
22
 74
0
 42
0.0000001
 43
0.0000001
 44
0.0000000001
 40
0.0
 40
0.0
 40
0.0
 40
0.0
 40
0.0213307724
 40
0.0428900331
 40
0.0648941022
 40
0.0875374249
 40
0.1353098132
 40
0.1607320508
 40
0.1872559018
 40
0.2436909309
 40
0.3046358958
 40
0.3697204394
 40
0.4383144264
 40
0.5095977053
 40
0.5826189294
 40
0.6563473877
 40
0.7297208404
 40
0.801695184
 40
0.8712811533
 40
0.9376237565
 40
1.0
 40
1.0
 40
1.0
 40
1.0
 10
34.8057121072
 20
72.1483876107
 30
0.0
 10
34.8057122047
 20
72.0703643886
 30
0.0
 10
34.7956640408
 20
71.9132989236
 30
0.0
 10
34.7505168544
 20
71.6796683998
 30
0.0
 10
34.6756663709
 20
71.4487228948
 30
0.0
 10
34.5344696508
 20
71.1408797707
 30
0.0
 10
34.3358347685
 20
70.8485396373
 30
0.0
 10
34.0912818787
 20
70.5775456018
 30
0.0
 10
33.8011975912
 20
70.3066588892
 30
0.0
 10
33.3745302276
 20
69.9949227014
 30
0.0
 10
32.7868154474
 20
69.6752759579
 30
0.0
 10
32.1251889944
 20
69.4087250365
 30
0.0
 10
31.4036705872
 20
69.2007820015
 30
0.0
 10
30.6374755467
 20
69.0557638967
 30
0.0
 10
29.8428905522
 20
68.9767446779
 30
0.0
 10
29.0368485663
 20
68.9654077247
 30
0.0
 10
28.236536141
 20
69.0219792363
 30
0.0
 10
27.4590494212
 20
69.1452761905
 30
0.0
 10
26.7208281476
 20
69.332653545
 30
0.0
 10
26.0377294842
 20
69.5801856464
 30
0.0
 10
25.6142472071
 20
69.7889674862
 30
0.0
 10
25.4166550952
 20
69.9030447644
 30
0.0
  0
SPLINE
  5
3F1
100
AcDbEntity
  8
0
100
AcDbSpline
 62
7
  6
BYLAYER
 70
0
 71
3
 72
11
 73
7
 74
0
 42
0.0000001
 43
0.0000001
 44
0.0000000001
 40
0.0
 40
0.0
 40
0.0
 40
0.0
 40
0.2412952609
 40
0.4862219459
 40
0.7381531485
 40
1.0
 40
1.0
 40
1.0
 40
1.0
 10
23.8057410805
 20
73.1281905372
 30
0.0
 10
23.8057451744
 20
73.0353713994
 30
0.0
 10
23.8200362058
 20
72.8480344167
 30
0.0
 10
23.8840766501
 20
72.5703922981
 30
0.0
 10
23.989951057
 20
72.2974370751
 30
0.0
 10
24.0857417345
 20
72.1238440865
 30
0.0
 10
24.1395968951
 20
72.0387259798
 30
0.0
  0
SPLINE
  5
3F2
100
AcDbEntity
  8
0
100
AcDbSpline
 62
7
  6
BYLAYER
 70
0
 71
3
 72
9
 73
5
 74
0
 42
0.0000001
 43
0.0000001
 44
0.0000000001
 40
0.0
 40
0.0
 40
0.0
 40
0.0
 40
0.4797157553
 40
1.0
 40
1.0
 40
1.0
 40
1.0
 10
24.1395968951
 20
72.0387259798
 30
0.0
 10
24.2319659551
 20
71.8927366369
 30
0.0
 10
24.4561075341
 20
71.6078506619
 30
0.0
 10
24.7243932454
 20
71.365312507
 30
0.0
 10
24.8716627436
 20
71.2494768178
 30
0.0
  0
SPLINE
  5
3F3
100
AcDbEntity
  8
0
100
AcDbSpline
 62
7
  6
BYLAYER
 70
0
 71
3
 72
9
 73
5
 74
0
 42
0.0000001
 43
0.0000001
 44
0.0000000001
 40
0.0
 40
0.0
 40
0.0
 40
0.0
 40
0.2425579492
 40
1.0
 40
1.0
 40
1.0
 40
1.0
 10
24.8716627436
 20
71.2494768178
 30
0.0
 10
24.9134249332
 20
71.2166285222
 30
0.0
 10
25.0882500254
 20
71.0845894508
 30
0.0
 10
25.2729641417
 20
70.9658057989
 30
0.0
 10
25.4166550952
 20
70.882847665
 30
0.0
  0
SPLINE
  5
3F4
100
AcDbEntity
  8
0
100
AcDbSpline
 62
7
  6
BYLAYER
 70
0
 71
3
 72
15
 73
11
 74
0
 42
0.0000001
 43
0.0000001
 44
0.0000000001
 40
0.0
 40
0.0
 40
0.0
 40
0.0
 40
0.1080115581
 40
0.2180601975
 40
0.3319989174
 40
0.4513595871
 40
0.577266964
 40
0.7104902994
 40
0.8514448002
 40
1.0
 40
1.0
 40
1.0
 40
1.0
 10
23.3057415737
 20
71.7401364022
 30
0.0
 10
23.3057417156
 20
71.6265486639
 30
0.0
 10
23.3254437306
 20
71.3967670493
 30
0.0
 10
23.413515955
 20
71.0573802181
 30
0.0
 10
23.5588377367
 20
70.7252912178
 30
0.0
 10
23.7596283533
 20
70.4039028777
 30
0.0
 10
24.0135714461
 20
70.0960786687
 30
0.0
 10
24.3181376182
 20
69.8045414757
 30
0.0
 10
24.6702736714
 20
69.5320471226
 30
0.0
 10
24.9278080458
 20
69.368782392
 30
0.0
 10
25.0631031766
 20
69.2906714789
 30
0.0
  0
SPLINE
  5
3F5
100
AcDbEntity
  8
0
100
AcDbSpline
 62
7
  6
BYLAYER
 70
0
 71
3
 72
19
 73
15
 74
0
 42
0.0000001
 43
0.0000001
 44
0.0000000001
 40
0.0
 40
0.0
 40
0.0
 40
0.0
 40
0.0558509596
 40
0.1142038691
 40
0.1748212748
 40
0.2374051429
 40
0.3670148838
 40
0.4999985074
 40
0.6329818047
 40
0.7625938588
 40
0.825173501
 40
0.8857916979
 40
0.9441660859
 40
1.0
 40
1.0
 40
1.0
 40
1.0
 10
33.5484578624
 20
64.5550201827
 30
0.0
 10
33.4063131663
 20
64.4729505505
 30
0.0
 10
33.1082544417
 20
64.317709276
 30
0.0
 10
32.6352662721
 20
64.1160049384
 30
0.0
 10
32.1304220885
 20
63.941987412
 30
0.0
 10
31.4130851155
 20
63.7468339013
 30
0.0
 10
30.468904412
 20
63.5837276743
 30
0.0
 10
29.3058036532
 20
63.518432246
 30
0.0
 10
28.1426934877
 20
63.5837051575
 30
0.0
 10
27.1985205568
 20
63.7468129456
 30
0.0
 10
26.4811785421
 20
63.9419330427
 30
0.0
 10
25.976278597
 20
64.1159552069
 30
0.0
 10
25.5032885491
 20
64.3176931652
 30
0.0
 10
25.2052063132
 20
64.4729160314
 30
0.0
 10
25.0631031766
 20
64.5549574596
 30
0.0
  0
SPLINE
  5
3F6
100
AcDbEntity
  8
0
100
AcDbSpline
 62
7
  6
BYLAYER
 70
0
 71
3
 72
15
 73
11
 74
0
 42
0.0000001
 43
0.0000001
 44
0.0000000001
 40
0.0
 40
0.0
 40
0.0
 40
0.0
 40
0.0954991221
 40
0.194806966
 40
0.30132774
 40
0.4176575562
 40
0.5453301203
 40
0.6850384539
 40
0.8368322838
 40
1.0
 40
1.0
 40
1.0
 40
1.0
 10
24.73966451
 20
61.8952805787
 30
0.0
 10
24.7199455615
 20
61.8838958074
 30
0.0
 10
24.6821003132
 20
61.8562749934
 30
0.0
 10
24.6336559121
 20
61.8026442472
 30
0.0
 10
24.5929928859
 20
61.7370665677
 30
0.0
 10
24.5599378495
 20
61.6600343583
 30
0.0
 10
24.5343248115
 20
61.5720123504
 30
0.0
 10
24.5162048505
 20
61.4735825695
 30
0.0
 10
24.5055806171
 20
61.3655976925
 30
0.0
 10
24.5034198034
 20
61.2904745197
 30
0.0
 10
24.5034198034
 20
61.2515710557
 30
0.0
  0
SPLINE
  5
3F7
100
AcDbEntity
  8
0
100
AcDbSpline
 62
7
  6
BYLAYER
 70
0
 71
3
 72
11
 73
7
 74
0
 42
0.0000001
 43
0.0000001
 44
0.0000000001
 40
0.0
 40
0.0
 40
0.0
 40
0.0
 40
0.2704119022
 40
0.5236152697
 40
0.764752272
 40
1.0
 40
1.0
 40
1.0
 40
1.0
 10
25.416690461
 20
59.3293178688
 30
0.0
 10
25.4839016318
 20
59.2905177659
 30
0.0
 10
25.6226994162
 20
59.2289383725
 30
0.0
 10
25.841308889
 20
59.1909194939
 30
0.0
 10
26.052277294
 20
59.2117683865
 30
0.0
 10
26.1811863951
 20
59.2634447519
 30
0.0
 10
26.2396558595
 20
59.2972021104
 30
0.0
  0
SPLINE
  5
3F8
100
AcDbEntity
  8
0
100
AcDbSpline
 62
7
  6
BYLAYER
 70
0
 71
3
 72
14
 73
10
 74
0
 42
0.0000001
 43
0.0000001
 44
0.0000000001
 40
0.0
 40
0.0
 40
0.0
 40
0.0
 40
0.1148747069
 40
0.2396494126
 40
0.3704248016
 40
0.5034566042
 40
0.6354221139
 40
0.7635771715
 40
1.0
 40
1.0
 40
1.0
 40
1.0
 10
24.5034198034
 20
61.2515710557
 30
0.0
 10
24.5034198034
 20
61.1699993894
 30
0.0
 10
24.5137497298
 20
60.9997604993
 30
0.0
 10
24.5546896059
 20
60.7395965093
 30
0.0
 10
24.6221207907
 20
60.471616711
 30
0.0
 10
24.716018355
 20
60.2063059145
 30
0.0
 10
24.8364239461
 20
59.9535893024
 30
0.0
 10
25.0251386069
 20
59.6555785808
 30
0.0
 10
25.2099740459
 20
59.4650845179
 30
0.0
 10
25.3492922772
 20
59.3714105019
 30
0.0
  0
SPLINE
  5
3F9
100
AcDbEntity
  8
0
100
AcDbSpline
 62
7
  6
BYLAYER
 70
0
 71
3
 72
19
 73
15
 74
0
 42
0.0000001
 43
0.0000001
 44
0.0000000001
 40
0.0
 40
0.0
 40
0.0
 40
0.0
 40
0.0558339141
 40
0.1142083021
 40
0.174826499
 40
0.2374061412
 40
0.3670181953
 40
0.5000014926
 40
0.6329851162
 40
0.7625948571
 40
0.8251787252
 40
0.8857961309
 40
0.9441490404
 40
1.0
 40
1.0
 40
1.0
 40
1.0
 10
25.4166550952
 20
64.3508283279
 30
0.0
 10
25.5469163037
 20
64.2756236855
 30
0.0
 10
25.8201583533
 20
64.1333360581
 30
0.0
 10
26.2537325639
 20
63.9484095963
 30
0.0
 10
26.7165575136
 20
63.7888892792
 30
0.0
 10
27.374121027
 20
63.6100291902
 30
0.0
 10
28.2396128804
 20
63.4605137177
 30
0.0
 10
29.3057971988
 20
63.4006802155
 30
0.0
 10
30.3719728943
 20
63.4605343581
 30
0.0
 10
31.2374718725
 20
63.6100483996
 30
0.0
 10
31.8950307644
 20
63.7889391177
 30
0.0
 10
32.3578045994
 20
63.9484551835
 30
0.0
 10
32.7913770882
 20
64.1333508264
 30
0.0
 10
33.0645975858
 20
64.275655328
 30
0.0
 10
33.1948968905
 20
64.3508858241
 30
0.0
  0
SPLINE
  5
3FA
100
AcDbEntity
  8
0
100
AcDbSpline
 62
7
  6
BYLAYER
 70
0
 71
3
 72
26
 73
22
 74
0
 42
0.0000001
 43
0.0000001
 44
0.0000000001
 40
0.0
 40
0.0
 40
0.0
 40
0.0
 40
0.0623762435
 40
0.1287188467
 40
0.198304816
 40
0.2702791596
 40
0.3436526123
 40
0.4173810706
 40
0.4904022947
 40
0.5616855736
 40
0.6302795606
 40
0.6953641042
 40
0.7563090691
 40
0.8127440982
 40
0.8392679492
 40
0.8646901868
 40
0.9124625751
 40
0.9351058978
 40
0.9571099669
 40
0.9786692276
 40
1.0
 40
1.0
 40
1.0
 40
1.0
 10
25.0631031766
 20
69.2906714789
 30
0.0
 10
25.2786582077
 20
69.166223539
 30
0.0
 10
25.7406388737
 20
68.938461532
 30
0.0
 10
26.4858374156
 20
68.6684265123
 30
0.0
 10
27.2911697141
 20
68.4640148528
 30
0.0
 10
28.1393370447
 20
68.3295090846
 30
0.0
 10
29.0124051451
 20
68.2677947083
 30
0.0
 10
29.8917236752
 20
68.2801622937
 30
0.0
 10
30.7585436692
 20
68.3663650777
 30
0.0
 10
31.5943928043
 20
68.5245666466
 30
0.0
 10
32.3815037939
 20
68.7514135939
 30
0.0
 10
33.1032781063
 20
69.0421964172
 30
0.0
 10
33.7444215028
 20
69.3909019557
 30
0.0
 10
34.2098768086
 20
69.7309777968
 30
0.0
 10
34.526332395
 20
70.0264905742
 30
0.0
 10
34.7931173656
 20
70.3221204311
 30
0.0
 10
35.0098099645
 20
70.6410369403
 30
0.0
 10
35.1638427501
 20
70.976865803
 30
0.0
 10
35.245497823
 20
71.2288063539
 30
0.0
 10
35.294749299
 20
71.4836760162
 30
0.0
 10
35.3057109324
 20
71.6550201599
 30
0.0
 10
35.305710826
 20
71.7401364021
 30
0.0
  0
SPLINE
  5
3FB
100
AcDbEntity
  8
0
100
AcDbSpline
 62
7
  6
BYLAYER
 70
0
 71
3
 72
15
 73
11
 74
0
 42
0.0000001
 43
0.0000001
 44
0.0000000001
 40
0.0
 40
0.0
 40
0.0
 40
0.0
 40
0.1485551998
 40
0.2895097006
 40
0.422733036
 40
0.5486404129
 40
0.6680010826
 40
0.7819398025
 40
0.8919884419
 40
1.0
 40
1.0
 40
1.0
 40
1.0
 10
25.4166550952
 20
69.9030447644
 30
0.0
 10
25.2926345586
 20
69.9746464347
 30
0.0
 10
25.0565613821
 20
70.1243057711
 30
0.0
 10
24.73377
 20
70.3740922615
 30
0.0
 10
24.4545843422
 20
70.6413346884
 30
0.0
 10
24.2218031739
 20
70.9235068799
 30
0.0
 10
24.0377451086
 20
71.2181128584
 30
0.0
 10
23.9045334754
 20
71.5225277754
 30
0.0
 10
23.823800603
 20
71.8336323706
 30
0.0
 10
23.8057404226
 20
72.0442655173
 30
0.0
 10
23.8057402925
 20
72.1483876107
 30
0.0
  0
SPLINE
  5
3FC
100
AcDbEntity
  8
0
100
AcDbSpline
 62
7
  6
BYLAYER
 70
0
 71
3
 72
20
 73
16
 74
0
 42
0.0000001
 43
0.0000001
 44
0.0000000001
 40
0.0
 40
0.0
 40
0.0
 40
0.0
 40
0.064806394
 40
0.1316275659
 40
0.2691538777
 40
0.40852185
 40
0.4775693457
 40
0.5454629898
 40
0.6117006556
 40
0.6758259451
 40
0.7374388239
 40
0.7962133451
 40
0.8519202423
 40
0.9044427017
 40
1.0
 40
1.0
 40
1.0
 40
1.0
 10
26.5474219161
 20
70.3810034581
 30
0.0
 10
26.7223528281
 20
70.3224588597
 30
0.0
 10
27.0823225678
 20
70.2170969981
 30
0.0
 10
27.8313133063
 20
70.0536568705
 30
0.0
 10
28.806136325
 20
69.9414089698
 30
0.0
 10
29.7934797985
 20
69.9507442235
 30
0.0
 10
30.5761916399
 20
70.0323322756
 30
0.0
 10
31.1467622014
 20
70.1294140094
 30
0.0
 10
31.6958806901
 20
70.2614678229
 30
0.0
 10
32.2171994066
 20
70.4269096813
 30
0.0
 10
32.7046844891
 20
70.6238892392
 30
0.0
 10
33.1526374584
 20
70.8501097604
 30
0.0
 10
33.5561278982
 20
71.1032084244
 30
0.0
 10
34.0133800014
 20
71.46071766
 30
0.0
 10
34.3011564482
 20
71.7775273477
 30
0.0
 10
34.4501942746
 20
72.0050592551
 30
0.0
  0
SPLINE
  5
3FD
100
AcDbEntity
  8
0
100
AcDbSpline
 62
7
  6
BYLAYER
 70
0
 71
3
 72
11
 73
7
 74
0
 42
0.0000001
 43
0.0000001
 44
0.0000000001
 40
0.0
 40
0.0
 40
0.0
 40
0.0
 40
0.2625147064
 40
0.5145810206
 40
0.7592179457
 40
1.0
 40
1.0
 40
1.0
 40
1.0
 10
34.4501942746
 20
72.0050592551
 30
0.0
 10
34.5074409904
 20
72.0924562251
 30
0.0
 10
34.6092923608
 20
72.2709152677
 30
0.0
 10
34.7221921298
 20
72.5522688326
 30
0.0
 10
34.7904281859
 20
72.8388470459
 30
0.0
 10
34.8057254459
 20
73.0323629032
 30
0.0
 10
34.8057229321
 20
73.1281905094
 30
0.0
  0
SPLINE
  5
3FE
100
AcDbEntity
  8
0
100
AcDbSpline
 62
7
  6
BYLAYER
 70
0
 71
3
 72
9
 73
5
 74
0
 42
0.0000001
 43
0.0000001
 44
0.0000000001
 40
0.0
 40
0.0
 40
0.0
 40
0.0
 40
0.4860973248
 40
1.0
 40
1.0
 40
1.0
 40
1.0
 10
25.4166550952
 20
70.882847665
 30
0.0
 10
25.5904715107
 20
70.782496981
 30
0.0
 10
25.9601536991
 20
70.5966211913
 30
0.0
 10
26.3462062358
 20
70.4483448505
 30
0.0
 10
26.5474219161
 20
70.3810034581
 30
0.0
  0
SPLINE
  5
3FF
100
AcDbEntity
  8
0
100
AcDbSpline
 62
7
  6
BYLAYER
 70
0
 71
3
 72
10
 73
6
 74
0
 42
0.0000001
 43
0.0000001
 44
0.0000000001
 40
0.0
 40
0.0
 40
0.0
 40
0.0
 40
0.2654680236
 40
0.5206986506
 40
1.0
 40
1.0
 40
1.0
 40
1.0
 10
25.3520999604
 20
59.3682059108
 30
0.0
 10
25.2600410904
 20
59.4232069498
 30
0.0
 10
25.0826959967
 20
59.5366986291
 30
0.0
 10
24.7580920695
 20
59.7773855986
 30
0.0
 10
24.5399149216
 20
59.9811635892
 30
0.0
 10
24.4114019271
 20
60.1259811022
 30
0.0
  0
SPLINE
  5
400
100
AcDbEntity
  8
0
100
AcDbSpline
 62
7
  6
BYLAYER
 70
0
 71
3
 72
11
 73
7
 74
0
 42
0.0000001
 43
0.0000001
 44
0.0000000001
 40
0.0
 40
0.0
 40
0.0
 40
0.0
 40
0.26930552
 40
0.5230246964
 40
0.7649449043
 40
1.0
 40
1.0
 40
1.0
 40
1.0
 10
24.4114019271
 20
60.1259811022
 30
0.0
 10
24.3199640852
 20
60.2290197163
 30
0.0
 10
24.1554211431
 20
60.441392258
 30
0.0
 10
23.965950234
 20
60.7857775545
 30
0.0
 10
23.8451165687
 20
61.1416115376
 30
0.0
 10
23.8115942655
 20
61.385120566
 30
0.0
 10
23.8070515012
 20
61.5052743827
 30
0.0
  0
SPLINE
  5
401
100
AcDbEntity
  8
0
100
AcDbSpline
 62
7
  6
BYLAYER
 70
0
 71
3
 72
19
 73
15
 74
0
 42
0.0000001
 43
0.0000001
 44
0.0000000001
 40
0.0
 40
0.0
 40
0.0
 40
0.0
 40
0.0558332457
 40
0.1142071695
 40
0.1748248285
 40
0.2374039572
 40
0.3670152214
 40
0.4999982035
 40
0.6329814331
 40
0.7625934098
 40
0.8251730643
 40
0.8857913424
 40
0.9441659323
 40
1.0
 40
1.0
 40
1.0
 40
1.0
 10
33.1948660602
 20
59.3293781585
 30
0.0
 10
33.0646096691
 20
59.2541718442
 30
0.0
 10
32.79137508
 20
59.1118830185
 30
0.0
 10
32.357811406
 20
58.9269557277
 30
0.0
 10
31.8949975266
 20
58.7674312356
 30
0.0
 10
31.2374481286
 20
58.5885646972
 30
0.0
 10
30.3719714636
 20
58.4390385791
 30
0.0
 10
29.3058032881
 20
58.3791931601
 30
0.0
 10
28.2396322178
 20
58.4390213667
 30
0.0
 10
27.3741491467
 20
58.5885336219
 30
0.0
 10
26.7165915824
 20
58.7673891028
 30
0.0
 10
26.2537698539
 20
58.9269058197
 30
0.0
 10
25.8201974926
 20
59.111827249
 30
0.0
 10
25.5469561538
 20
59.2541115962
 30
0.0
 10
25.4166955777
 20
59.3293150908
 30
0.0
  0
SPLINE
  5
402
100
AcDbEntity
  8
0
100
AcDbSpline
 62
7
  6
BYLAYER
 70
0
 71
3
 72
12
 73
8
 74
0
 42
0.0000001
 43
0.0000001
 44
0.0000000001
 40
0.0
 40
0.0
 40
0.0
 40
0.0
 40
0.1172208028
 40
0.2352536892
 40
0.4766335906
 40
0.7301231139
 40
1.0
 40
1.0
 40
1.0
 40
1.0
 10
34.9057029811
 20
61.4974915012
 30
0.0
 10
34.9058549755
 20
61.4329893753
 30
0.0
 10
34.899432599
 20
61.303414171
 30
0.0
 10
34.859506968
 20
61.0438170198
 30
0.0
 10
34.7572156361
 20
60.7199199875
 30
0.0
 10
34.5568175535
 20
60.3475532039
 30
0.0
 10
34.3794018034
 20
60.1189655509
 30
0.0
 10
34.2803349215
 20
60.0083355545
 30
0.0
  0
SPLINE
  5
403
100
AcDbEntity
  8
0
100
AcDbSpline
 62
7
  6
BYLAYER
 70
0
 71
3
 72
9
 73
5
 74
0
 42
0.0000001
 43
0.0000001
 44
0.0000000001
 40
0.0
 40
0.0
 40
0.0
 40
0.0
 40
0.2379558103
 40
1.0
 40
1.0
 40
1.0
 40
1.0
 10
34.2803349215
 20
60.0083355545
 30
0.0
 10
34.229840188
 20
59.9519470613
 30
0.0
 10
34.009149424
 20
59.7226014276
 30
0.0
 10
33.7577857621
 20
59.5237653087
 30
0.0
 10
33.5567076163
 20
59.3883891434
 30
0.0
  0
SPLINE
  5
404
100
AcDbEntity
  8
0
100
AcDbSpline
 62
7
  6
BYLAYER
 70
0
 71
3
 72
9
 73
5
 74
0
 42
0.0000001
 43
0.0000001
 44
0.0000000001
 40
0.0
 40
0.0
 40
0.0
 40
0.0
 40
0.243355196
 40
1.0
 40
1.0
 40
1.0
 40
1.0
 10
33.5567076163
 20
59.3883891434
 30
0.0
 10
33.5133155317
 20
59.359175357
 30
0.0
 10
33.3330079496
 20
59.2421129687
 30
0.0
 10
33.1451500735
 20
59.1367982478
 30
0.0
 10
33.0000730177
 20
59.063277395
 30
0.0
  0
SPLINE
  5
405
100
AcDbEntity
  8
0
100
AcDbSpline
 62
7
  6
BYLAYER
 70
0
 71
3
 72
13
 73
9
 74
0
 42
0.0000001
 43
0.0000001
 44
0.0000000001
 40
0.0
 40
0.0
 40
0.0
 40
0.0
 40
0.2325956038
 40
0.3552309281
 40
0.4810987333
 40
0.609394068
 40
0.7392587252
 40
1.0
 40
1.0
 40
1.0
 40
1.0
 10
32.867069206
 20
58.9979639767
 30
0.0
 10
32.5604902705
 20
58.8521026921
 30
0.0
 10
32.0730716674
 20
58.6680476105
 30
0.0
 10
31.3942789127
 20
58.4871607568
 30
0.0
 10
30.8543633085
 20
58.3801751456
 30
0.0
 10
30.2984564155
 20
58.3054464817
 30
0.0
 10
29.542791926
 20
58.2497245008
 30
0.0
 10
28.9709495656
 20
58.2581419631
 30
0.0
 10
28.5914033485
 20
58.2863311473
 30
0.0
  0
SPLINE
  5
406
100
AcDbEntity
  8
0
100
AcDbSpline
 62
7
  6
BYLAYER
 70
0
 71
3
 72
9
 73
5
 74
0
 42
0.0000001
 43
0.0000001
 44
0.0000000001
 40
0.0
 40
0.0
 40
0.0
 40
0.0
 40
0.253708134
 40
1.0
 40
1.0
 40
1.0
 40
1.0
 10
28.5914033485
 20
58.2863311473
 30
0.0
 10
28.4762894969
 20
58.29488074
 30
0.0
 10
28.0232285893
 20
58.3368010841
 30
0.0
 10
27.5730903433
 20
58.4117133456
 30
0.0
 10
27.2421015822
 20
58.4874547623
 30
0.0
  0
SPLINE
  5
407
100
AcDbEntity
  8
0
100
AcDbSpline
 62
7
  6
BYLAYER
 70
0
 71
3
 72
11
 73
7
 74
0
 42
0.0000001
 43
0.0000001
 44
0.0000000001
 40
0.0
 40
0.0
 40
0.0
 40
0.0
 40
0.2639137233
 40
0.5194206025
 40
0.7652286324
 40
1.0
 40
1.0
 40
1.0
 40
1.0
 10
27.2421015822
 20
58.4874547623
 30
0.0
 10
27.0675907722
 20
58.5273887345
 30
0.0
 10
26.7265133624
 20
58.6169582191
 30
0.0
 10
26.2342316982
 20
58.782926917
 30
0.0
 10
25.7736651054
 20
58.9769569249
 30
0.0
 10
25.4838630668
 20
59.1272385217
 30
0.0
 10
25.3459448105
 20
59.2068638627
 30
0.0
  0
SPLINE
  5
408
100
AcDbEntity
  8
0
100
AcDbSpline
 62
7
  6
BYLAYER
 70
0
 71
3
 72
9
 73
5
 74
0
 42
0.0000001
 43
0.0000001
 44
0.0000000001
 40
0.0
 40
0.0
 40
0.0
 40
0.0
 40
0.2596765052
 40
1.0
 40
1.0
 40
1.0
 40
1.0
 10
24.8557645533
 20
59.5302775619
 30
0.0
 10
24.8067901444
 20
59.5672839419
 30
0.0
 10
24.6212954072
 20
59.7138024776
 30
0.0
 10
24.4487272199
 20
59.8770785916
 30
0.0
 10
24.3319375475
 20
60.0074080653
 30
0.0
  0
SPLINE
  5
409
100
AcDbEntity
  8
0
100
AcDbSpline
 62
7
  6
BYLAYER
 70
0
 71
3
 72
12
 73
8
 74
0
 42
0.0000001
 43
0.0000001
 44
0.0000000001
 40
0.0
 40
0.0
 40
0.0
 40
0.0
 40
0.2699695772
 40
0.5234216815
 40
0.7647111142
 40
0.8827362502
 40
1.0
 40
1.0
 40
1.0
 40
1.0
 10
24.3319375475
 20
60.0074080653
 30
0.0
 10
24.2317820023
 20
60.1191749641
 30
0.0
 10
24.0525893484
 20
60.3502116454
 30
0.0
 10
23.8509588895
 20
60.7268762632
 30
0.0
 10
23.7492044628
 20
61.0545732484
 30
0.0
 10
23.7105960157
 20
61.3170681597
 30
0.0
 10
23.7051470969
 20
61.4480453743
 30
0.0
 10
23.7058541619
 20
61.5132286617
 30
0.0
  0
SPLINE
  5
40A
100
AcDbEntity
  8
0
100
AcDbSpline
 62
7
  6
BYLAYER
 70
0
 71
3
 72
15
 73
11
 74
0
 42
0.0000001
 43
0.0000001
 44
0.0000000001
 40
0.0
 40
0.0
 40
0.0
 40
0.0
 40
0.1130207942
 40
0.2338977258
 40
0.3613560197
 40
0.4933188729
 40
0.6269228423
 40
0.7586278255
 40
0.8843874667
 40
1.0
 40
1.0
 40
1.0
 40
1.0
 10
33.1948660546
 20
59.329378156
 30
0.0
 10
33.2670078596
 20
59.3710326331
 30
0.0
 10
33.4066847672
 20
59.4744583691
 30
0.0
 10
33.5891982787
 20
59.6700054851
 30
0.0
 10
33.7469771657
 20
59.9028700406
 30
0.0
 10
33.8773531932
 20
60.1623183454
 30
0.0
 10
33.9792153708
 20
60.4374095559
 30
0.0
 10
34.0523725522
 20
60.7166651368
 30
0.0
 10
34.0970766391
 20
60.9883826762
 30
0.0
 10
34.1080549204
 20
61.1663799831
 30
0.0
 10
34.1080549204
 20
61.2515941424
 30
0.0
  0
SPLINE
  5
40B
100
AcDbEntity
  8
0
100
AcDbSpline
 62
7
  6
BYLAYER
 70
0
 71
3
 72
15
 73
11
 74
0
 42
0.0000001
 43
0.0000001
 44
0.0000000001
 40
0.0
 40
0.0
 40
0.0
 40
0.0
 40
0.1631290304
 40
0.3149378428
 40
0.454667868
 40
0.5823112317
 40
0.6986636592
 40
0.8052041175
 40
0.9045076217
 40
1.0
 40
1.0
 40
1.0
 40
1.0
 10
34.1080549204
 20
61.2515941424
 30
0.0
 10
34.1080549204
 20
61.290488163
 30
0.0
 10
34.1058817154
 20
61.365605474
 30
0.0
 10
34.095240544
 20
61.4735861818
 30
0.0
 10
34.0771645784
 20
61.5720246153
 30
0.0
 10
34.0515696793
 20
61.6600561992
 30
0.0
 10
34.0185088784
 20
61.7370901684
 30
0.0
 10
33.9778195644
 20
61.8026623123
 30
0.0
 10
33.9293701871
 20
61.856287251
 30
0.0
 10
33.8915354
 20
61.883918537
 30
0.0
 10
33.8718164762
 20
61.8952998778
 30
0.0
  0
SPLINE
  5
40C
100
AcDbEntity
  8
0
100
AcDbSpline
 62
7
  6
BYLAYER
 70
0
 71
3
 72
11
 73
7
 74
0
 42
0.0000001
 43
0.0000001
 44
0.0000000001
 40
0.0
 40
0.0
 40
0.0
 40
0.0
 40
0.2352487467
 40
0.4763936264
 40
0.7295831549
 40
1.0
 40
1.0
 40
1.0
 40
1.0
 10
32.3718379944
 20
59.2972149487
 30
0.0
 10
32.4303131377
 20
59.2634551406
 30
0.0
 10
32.5592366169
 20
59.2117767946
 30
0.0
 10
32.7702237259
 20
59.1909260286
 30
0.0
 10
32.9888467754
 20
59.228979642
 30
0.0
 10
33.1276510526
 20
59.2905684011
 30
0.0
 10
33.1948660546
 20
59.329378156
 30
0.0
  0
SPLINE
  5
40D
100
AcDbEntity
  8
0
100
AcDbSpline
 62
7
  6
BYLAYER
 70
0
 71
3
 72
11
 73
7
 74
0
 42
0.0000001
 43
0.0000001
 44
0.0000000001
 40
0.0
 40
0.0
 40
0.0
 40
0.0
 40
0.2349727757
 40
0.4768594789
 40
0.7306316434
 40
1.0
 40
1.0
 40
1.0
 40
1.0
 10
34.8043983608
 20
61.5052740324
 30
0.0
 10
34.7998354341
 20
61.3846876591
 30
0.0
 10
34.7661131314
 20
61.1402720135
 30
0.0
 10
34.6444233859
 20
60.7831827107
 30
0.0
 10
34.4537020747
 20
60.4376528751
 30
0.0
 10
34.288019399
 20
60.2247318171
 30
0.0
 10
34.1959607655
 20
60.1214734094
 30
0.0
  0
SPLINE
  5
40E
100
AcDbEntity
  8
0
100
AcDbSpline
 62
7
  6
BYLAYER
 70
0
 71
3
 72
10
 73
6
 74
0
 42
0.0000001
 43
0.0000001
 44
0.0000000001
 40
0.0
 40
0.0
 40
0.0
 40
0.0
 40
0.4781824326
 40
0.7337990294
 40
1.0
 40
1.0
 40
1.0
 40
1.0
 10
34.1959607655
 20
60.1214734094
 30
0.0
 10
34.0600807906
 20
59.9690623936
 30
0.0
 10
33.8281592885
 20
59.7553206422
 30
0.0
 10
33.4827078618
 20
59.5040628411
 30
0.0
 10
33.2933060435
 20
59.3862145889
 30
0.0
 10
33.1948660517
 20
59.3293781536
 30
0.0
  0
SPLINE
  5
40F
100
AcDbEntity
  8
0
100
AcDbSpline
 62
7
  6
BYLAYER
 70
0
 71
3
 72
9
 73
5
 74
0
 42
0.0000001
 43
0.0000001
 44
0.0000000001
 40
0.0
 40
0.0
 40
0.0
 40
0.0
 40
0.4920208595
 40
1.0
 40
1.0
 40
1.0
 40
1.0
 10
49.5035602597
 20
37.0114924342
 30
0.0
 10
49.4113390498
 20
37.2894911363
 30
0.0
 10
49.1900648155
 20
37.8437326803
 30
0.0
 10
48.9088041035
 20
38.3698161468
 30
0.0
 10
48.7528876625
 20
38.6289170243
 30
0.0
  0
SPLINE
  5
410
100
AcDbEntity
  8
0
100
AcDbSpline
 62
7
  6
BYLAYER
 70
0
 71
3
 72
9
 73
5
 74
0
 42
0.0000001
 43
0.0000001
 44
0.0000000001
 40
0.0
 40
0.0
 40
0.0
 40
0.0
 40
0.4880618251
 40
1.0
 40
1.0
 40
1.0
 40
1.0
 10
12.0129823796
 20
36.9543428845
 30
0.0
 10
11.7044887991
 20
36.2639769816
 30
0.0
 10
11.0919092254
 20
34.8407224938
 30
0.0
 10
10.509829178
 20
33.4048232552
 30
0.0
 10
10.21759759
 20
32.6674728494
 30
0.0
  0
SPLINE
  5
411
100
AcDbEntity
  8
0
100
AcDbSpline
 62
7
  6
BYLAYER
 70
0
 71
3
 72
11
 73
7
 74
0
 42
0.0000001
 43
0.0000001
 44
0.0000000001
 40
0.0
 40
0.0
 40
0.0
 40
0.0
 40
0.2443529355
 40
0.4922448511
 40
0.7440510366
 40
1.0
 40
1.0
 40
1.0
 40
1.0
 10
23.2971495228
 20
21.5412424696
 30
0.0
 10
22.7822457905
 20
21.7690729553
 30
0.0
 10
21.7502029705
 20
22.2399655465
 30
0.0
 10
20.2088154121
 20
22.9911699976
 30
0.0
 10
18.664994555
 20
23.796922237
 30
0.0
 10
17.6434745285
 20
24.3677570796
 30
0.0
 10
17.132709855
 20
24.6626405302
 30
0.0
  0
SPLINE
  5
412
100
AcDbEntity
  8
0
100
AcDbSpline
 62
7
  6
BYLAYER
 70
0
 71
3
 72
9
 73
5
 74
0
 42
0.0000001
 43
0.0000001
 44
0.0000000001
 40
0.0
 40
0.0
 40
0.0
 40
0.0
 40
0.2522963733
 40
1.0
 40
1.0
 40
1.0
 40
1.0
 10
26.0986573908
 20
21.1078611073
 30
0.0
 10
25.8616531452
 20
21.1340665154
 30
0.0
 10
24.9234103415
 20
21.247985027
 30
0.0
 10
23.990014277
 20
21.4022708365
 30
0.0
 10
23.2971495228
 20
21.5412424696
 30
0.0
  0
SPLINE
  5
413
100
AcDbEntity
  8
0
100
AcDbSpline
 62
7
  6
BYLAYER
 70
0
 71
3
 72
10
 73
6
 74
0
 42
0.0000001
 43
0.0000001
 44
0.0000000001
 40
0.0
 40
0.0
 40
0.0
 40
0.0
 40
0.2516400991
 40
0.5021811717
 40
1.0
 40
1.0
 40
1.0
 40
1.0
 10
34.5193941255
 20
21.9729943583
 30
0.0
 10
33.8174474471
 20
21.8644025732
 30
0.0
 10
32.4136237888
 20
21.6665101402
 30
0.0
 10
29.6088786057
 20
21.346795625
 30
0.0
 10
27.5016390576
 20
21.1863890772
 30
0.0
 10
26.0986573908
 20
21.1078611073
 30
0.0
  0
SPLINE
  5
414
100
AcDbEntity
  8
0
100
AcDbSpline
 62
7
  6
BYLAYER
 70
0
 71
3
 72
10
 73
6
 74
0
 42
0.0000001
 43
0.0000001
 44
0.0000000001
 40
0.0
 40
0.0
 40
0.0
 40
0.0
 40
0.5015550537
 40
0.7512387658
 40
1.0
 40
1.0
 40
1.0
 40
1.0
 10
42.9401308576
 20
23.713252262
 30
0.0
 10
41.5461577098
 20
23.3599781955
 30
0.0
 10
39.4478200608
 20
22.8698154764
 30
0.0
 10
36.6337037573
 20
22.319593857
 30
0.0
 10
35.2242493312
 20
22.0820360952
 30
0.0
 10
34.5193941255
 20
21.9729943583
 30
0.0
  0
SPLINE
  5
415
100
AcDbEntity
  8
0
100
AcDbSpline
 62
7
  6
BYLAYER
 70
0
 71
3
 72
9
 73
5
 74
0
 42
0.0000001
 43
0.0000001
 44
0.0000000001
 40
0.0
 40
0.0
 40
0.0
 40
0.0
 40
0.2432208961
 40
1.0
 40
1.0
 40
1.0
 40
1.0
 10
44.9909661285
 20
24.8972954899
 30
0.0
 10
44.8312493528
 20
24.7906248115
 30
0.0
 10
44.1670970223
 20
24.3632962497
 30
0.0
 10
43.4748358345
 20
23.9801183202
 30
0.0
 10
42.9401308576
 20
23.713252262
 30
0.0
  0
SPLINE
  5
416
100
AcDbEntity
  8
0
100
AcDbSpline
 62
7
  6
BYLAYER
 70
0
 71
3
 72
9
 73
5
 74
0
 42
0.0000001
 43
0.0000001
 44
0.0000000001
 40
0.0
 40
0.0
 40
0.0
 40
0.0
 40
0.5197142537
 40
1.0
 40
1.0
 40
1.0
 40
1.0
 10
47.2472631934
 20
29.3213891263
 30
0.0
 10
46.8850159329
 20
28.5408529188
 30
0.0
 10
46.1613852808
 20
27.0511170688
 30
0.0
 10
45.3794249624
 20
25.5911761068
 30
0.0
 10
44.9909661285
 20
24.8972954899
 30
0.0
  0
SPLINE
  5
417
100
AcDbEntity
  8
0
100
AcDbSpline
 62
7
  6
BYLAYER
 70
0
 71
3
 72
9
 73
5
 74
0
 42
0.0000001
 43
0.0000001
 44
0.0000000001
 40
0.0
 40
0.0
 40
0.0
 40
0.0
 40
0.5158706738
 40
1.0
 40
1.0
 40
1.0
 40
1.0
 10
49.5035602597
 20
34.6206074188
 30
0.0
 10
49.1386163563
 20
33.6997913734
 30
0.0
 10
48.4138960285
 20
31.9215672275
 30
0.0
 10
47.6385799962
 20
30.1645616399
 30
0.0
 10
47.2472631934
 20
29.3213891263
 30
0.0
  0
SPLINE
  5
418
100
AcDbEntity
  8
0
100
AcDbSpline
 62
7
  6
BYLAYER
 70
0
 71
3
 72
9
 73
5
 74
0
 42
0.0000001
 43
0.0000001
 44
0.0000000001
 40
0.0
 40
0.0
 40
0.0
 40
0.0
 40
0.5079791405
 40
1.0
 40
1.0
 40
1.0
 40
1.0
 10
10.9682701871
 20
28.6591632439
 30
0.0
 10
10.8123537461
 20
28.9182641214
 30
0.0
 10
10.5310930341
 20
29.444347588
 30
0.0
 10
10.3098187998
 20
29.998589132
 30
0.0
 10
10.21759759
 20
30.2765878341
 30
0.0
  0
SPLINE
  5
419
100
AcDbEntity
  8
0
100
AcDbSpline
 62
7
  6
BYLAYER
 70
0
 71
3
 72
10
 73
6
 74
0
 42
0.0000001
 43
0.0000001
 44
0.0000000001
 40
0.0
 40
0.0
 40
0.0
 40
0.0
 40
0.2446862466
 40
0.4931473437
 40
1.0
 40
1.0
 40
1.0
 40
1.0
 10
17.132709855
 20
24.6626405302
 30
0.0
 10
16.6136093825
 20
24.9623365476
 30
0.0
 10
15.575938204
 20
25.5812749894
 30
0.0
 10
13.5062102735
 20
26.8920666098
 30
0.0
 10
11.9796177008
 20
27.9388791041
 30
0.0
 10
10.9682701871
 20
28.6591632439
 30
0.0
  0
SPLINE
  5
41A
100
AcDbEntity
  8
0
100
AcDbSpline
 62
7
  6
BYLAYER
 70
0
 71
3
 72
23
 73
19
 74
0
 42
0.0000001
 43
0.0000001
 44
0.0000000001
 40
0.0
 40
0.0
 40
0.0
 40
0.0
 40
0.0558313263
 40
0.1141823784
 40
0.1747828347
 40
0.2373534005
 40
0.3015493667
 40
0.3669928694
 40
0.4332833986
 40
0.5000011628
 40
0.5667187731
 40
0.6330090832
 40
0.698452757
 40
0.7626479551
 40
0.825218213
 40
0.8858214796
 40
0.9441619285
 40
1.0
 40
1.0
 40
1.0
 40
1.0
 10
40.6440022333
 20
29.051373462
 30
0.0
 10
40.2827585317
 20
28.8428105585
 30
0.0
 10
39.5251611797
 20
28.4482262049
 30
0.0
 10
38.3229565768
 20
27.9355664486
 30
0.0
 10
37.0397694253
 20
27.4932683475
 30
0.0
 10
35.6880828085
 20
27.1255289764
 30
0.0
 10
34.2806569194
 20
26.8357979066
 30
0.0
 10
32.8309595643
 20
26.6268431632
 30
0.0
 10
31.3528452587
 20
26.5006755819
 30
0.0
 10
29.860448808
 20
26.45850021
 30
0.0
 10
28.3680545095
 20
26.5006913
 30
0.0
 10
26.8899427887
 20
26.6268725452
 30
0.0
 10
25.4402545049
 20
26.8358476599
 30
0.0
 10
24.0328375168
 20
27.1255861782
 30
0.0
 10
22.6811401998
 20
27.4933399054
 30
0.0
 10
21.3980284118
 20
27.9356674191
 30
0.0
 10
20.1958154147
 20
28.4482870826
 30
0.0
 10
19.4382594451
 20
28.8428908936
 30
0.0
 10
19.0769752838
 20
29.0514845078
 30
0.0
  0
SPLINE
  5
41B
100
AcDbEntity
  8
0
100
AcDbSpline
 62
7
  6
BYLAYER
 70
0
 71
3
 72
15
 73
11
 74
0
 42
0.0000001
 43
0.0000001
 44
0.0000000001
 40
0.0
 40
0.0
 40
0.0
 40
0.0
 40
0.1108404742
 40
0.2280569066
 40
0.3507083478
 40
0.4776249447
 40
0.6074729148
 40
0.7388125607
 40
0.8701521652
 40
1.0
 40
1.0
 40
1.0
 40
1.0
 10
17.132709855
 20
27.9286501987
 30
0.0
 10
17.705499626
 20
27.5979573515
 30
0.0
 10
18.9243067687
 20
26.985770187
 30
0.0
 10
20.8812895359
 20
26.2362741846
 30
0.0
 10
22.9899839822
 20
25.6398128016
 30
0.0
 10
25.2146366657
 20
25.2064960481
 30
0.0
 10
27.5178301423
 20
24.9435392543
 30
0.0
 10
29.8606797639
 20
24.8553997998
 30
0.0
 10
32.2033757074
 20
24.9435356219
 30
0.0
 10
33.7536866863
 20
25.1205483944
 30
0.0
 10
34.5193941255
 20
25.2390040268
 30
0.0
  0
SPLINE
  5
41C
100
AcDbEntity
  8
0
100
AcDbSpline
 62
7
  6
BYLAYER
 70
0
 71
3
 72
15
 73
11
 74
0
 42
0.0000001
 43
0.0000001
 44
0.0000000001
 40
0.0
 40
0.0
 40
0.0
 40
0.0
 40
0.1282655108
 40
0.2535883929
 40
0.3768539717
 40
0.4991260664
 40
0.6215197428
 40
0.7451218415
 40
0.870967395
 40
1.0
 40
1.0
 40
1.0
 40
1.0
 10
47.2472631934
 20
32.587398795
 30
0.0
 10
47.3501192586
 20
32.8090233364
 30
0.0
 10
47.5313832117
 20
33.2579145233
 30
0.0
 10
47.7269919632
 20
33.950077206
 30
0.0
 10
47.8413090227
 20
34.6487979778
 30
0.0
 10
47.8737682472
 20
35.35049738
 30
0.0
 10
47.8241188367
 20
36.0518273162
 30
0.0
 10
47.6927671607
 20
36.7494320437
 30
0.0
 10
47.4803340076
 20
37.4398410919
 30
0.0
 10
47.2882482923
 20
37.8868649519
 30
0.0
 10
47.1800385812
 20
38.1075539568
 30
0.0
  0
SPLINE
  5
41D
100
AcDbEntity
  8
0
100
AcDbSpline
 62
7
  6
BYLAYER
 70
0
 71
3
 72
18
 73
14
 74
0
 42
0.0000001
 43
0.0000001
 44
0.0000000001
 40
0.0
 40
0.0
 40
0.0
 40
0.0
 40
0.1491053345
 40
0.2931996891
 40
0.4309087345
 40
0.5611270901
 40
0.6232027859
 40
0.6831629481
 40
0.7409860041
 40
0.7966879502
 40
0.8503234458
 40
0.9020023751
 40
1.0
 40
1.0
 40
1.0
 40
1.0
 10
34.5193941255
 20
25.2390040268
 30
0.0
 10
35.2678146466
 20
25.3547853573
 30
0.0
 10
36.7314055091
 20
25.6398595772
 30
0.0
 10
38.8399594467
 20
26.2362996946
 30
0.0
 10
40.7970259015
 20
26.9858731647
 30
0.0
 10
42.2979996954
 20
27.7397250369
 30
0.0
 10
43.3898829961
 20
28.4112997923
 30
0.0
 10
44.1381422609
 20
28.9364194657
 30
0.0
 10
44.8254853494
 20
29.4888444452
 30
0.0
 10
45.4490322692
 20
30.0661183329
 30
0.0
 10
46.0061419131
 20
30.6661537251
 30
0.0
 10
46.6454131858
 20
31.4779183116
 30
0.0
 10
47.0377274849
 20
32.1359110268
 30
0.0
 10
47.2472631934
 20
32.587398795
 30
0.0
  0
SPLINE
  5
41E
100
AcDbEntity
  8
0
100
AcDbSpline
 62
7
  6
BYLAYER
 70
0
 71
3
 72
10
 73
6
 74
0
 42
0.0000001
 43
0.0000001
 44
0.0000000001
 40
0.0
 40
0.0
 40
0.0
 40
0.0
 40
0.5015550537
 40
0.7512387659
 40
1.0
 40
1.0
 40
1.0
 40
1.0
 10
26.0986573908
 20
23.4987461227
 30
0.0
 10
27.4926305391
 20
23.8520201893
 30
0.0
 10
29.5909681886
 20
24.3421829085
 30
0.0
 10
32.405084493
 20
24.8924045281
 30
0.0
 10
33.8145389195
 20
25.1299622899
 30
0.0
 10
34.5193941255
 20
25.2390040268
 30
0.0
  0
SPLINE
  5
41F
100
AcDbEntity
  8
0
100
AcDbSpline
 62
7
  6
BYLAYER
 70
0
 71
3
 72
9
 73
5
 74
0
 42
0.0000001
 43
0.0000001
 44
0.0000000001
 40
0.0
 40
0.0
 40
0.0
 40
0.0
 40
0.2475499932
 40
1.0
 40
1.0
 40
1.0
 40
1.0
 10
23.2971495228
 20
23.9321274849
 30
0.0
 10
23.5265439663
 20
23.8861166001
 30
0.0
 10
24.4552852278
 20
23.7107557932
 30
0.0
 10
25.3918130884
 20
23.5769014457
 30
0.0
 10
26.0986573908
 20
23.4987461227
 30
0.0
  0
SPLINE
  5
420
100
AcDbEntity
  8
0
100
AcDbSpline
 62
7
  6
BYLAYER
 70
0
 71
3
 72
10
 73
6
 74
0
 42
0.0000001
 43
0.0000001
 44
0.0000000001
 40
0.0
 40
0.0
 40
0.0
 40
0.0
 40
0.2446862466
 40
0.4931473437
 40
1.0
 40
1.0
 40
1.0
 40
1.0
 10
17.132709855
 20
27.9286501987
 30
0.0
 10
17.6518103274
 20
27.6289541812
 30
0.0
 10
18.6894815059
 20
27.0100157395
 30
0.0
 10
20.7592094364
 20
25.699224119
 30
0.0
 10
22.2858020091
 20
24.6524116248
 30
0.0
 10
23.2971495228
 20
23.9321274849
 30
0.0
  0
SPLINE
  5
421
100
AcDbEntity
  8
0
100
AcDbSpline
 62
7
  6
BYLAYER
 70
0
 71
3
 72
9
 73
5
 74
0
 42
0.0000001
 43
0.0000001
 44
0.0000000001
 40
0.0
 40
0.0
 40
0.0
 40
0.0
 40
0.5158706738
 40
1.0
 40
1.0
 40
1.0
 40
1.0
 10
44.9909661285
 20
27.2881805052
 30
0.0
 10
45.3559100316
 20
28.2089965501
 30
0.0
 10
46.080630359
 20
29.9872206949
 30
0.0
 10
46.8559463908
 20
31.7442262816
 30
0.0
 10
47.2472631934
 20
32.5873987948
 30
0.0
  0
SPLINE
  5
422
100
AcDbEntity
  8
0
100
AcDbSpline
 62
7
  6
BYLAYER
 70
0
 71
3
 72
9
 73
5
 74
0
 42
0.0000001
 43
0.0000001
 44
0.0000000001
 40
0.0
 40
0.0
 40
0.0
 40
0.0
 40
0.2568158794
 40
1.0
 40
1.0
 40
1.0
 40
1.0
 10
42.9401308576
 20
26.1041372773
 30
0.0
 10
43.1215825929
 20
26.1946980752
 30
0.0
 10
43.8229358481
 20
26.5575601836
 30
0.0
 10
44.502943197
 20
26.9622426884
 30
0.0
 10
44.9909661285
 20
27.2881805052
 30
0.0
  0
SPLINE
  5
423
100
AcDbEntity
  8
0
100
AcDbSpline
 62
7
  6
BYLAYER
 70
0
 71
3
 72
10
 73
6
 74
0
 42
0.0000001
 43
0.0000001
 44
0.0000000001
 40
0.0
 40
0.0
 40
0.0
 40
0.0
 40
0.2516400991
 40
0.5021811717
 40
1.0
 40
1.0
 40
1.0
 40
1.0
 10
34.5193941255
 20
25.2390040268
 30
0.0
 10
35.2213408037
 20
25.3475958118
 30
0.0
 10
36.6251644615
 20
25.5454882447
 30
0.0
 10
39.4299096438
 20
25.8652027598
 30
0.0
 10
41.5371491912
 20
26.0256093075
 30
0.0
 10
42.9401308576
 20
26.1041372773
 30
0.0
  0
SPLINE
  5
424
100
AcDbEntity
  8
0
100
AcDbSpline
 62
7
  6
BYLAYER
 70
0
 71
3
 72
9
 73
5
 74
0
 42
0.0000001
 43
0.0000001
 44
0.0000000001
 40
0.0
 40
0.0
 40
0.0
 40
0.0
 40
0.5197142537
 40
1.0
 40
1.0
 40
1.0
 40
1.0
 10
47.2472631934
 20
32.5873987948
 30
0.0
 10
47.609510454
 20
33.3679350028
 30
0.0
 10
48.3331411066
 20
34.8576708538
 30
0.0
 10
49.1151014254
 20
36.3176118168
 30
0.0
 10
49.5035602597
 20
37.0114924342
 30
0.0
  0
SPLINE
  5
425
100
AcDbEntity
  8
0
100
AcDbSpline
 62
7
  6
BYLAYER
 70
0
 71
3
 72
10
 73
6
 74
0
 42
0.0000001
 43
0.0000001
 44
0.0000000001
 40
0.0
 40
0.0
 40
0.0
 40
0.0
 40
0.4925686484
 40
0.7443007695
 40
1.0
 40
1.0
 40
1.0
 40
1.0
 10
10.9682701871
 20
31.0500482593
 30
0.0
 10
11.963044144
 20
30.6098886341
 30
0.0
 10
13.4517544433
 20
29.9110078197
 30
0.0
 10
15.412619043
 20
28.8946244307
 30
0.0
 10
16.3932283295
 20
28.351851225
 30
0.0
 10
16.8835525903
 20
28.0717420718
 30
0.0
  0
SPLINE
  5
426
100
AcDbEntity
  8
0
100
AcDbSpline
 62
7
  6
BYLAYER
 70
0
 71
3
 72
9
 73
5
 74
0
 42
0.0000001
 43
0.0000001
 44
0.0000000001
 40
0.0
 40
0.0
 40
0.0
 40
0.0
 40
0.4920208595
 40
1.0
 40
1.0
 40
1.0
 40
1.0
 10
10.21759759
 20
32.6674728494
 30
0.0
 10
10.3098187998
 20
32.3894741474
 30
0.0
 10
10.5310930341
 20
31.8352326033
 30
0.0
 10
10.8123537461
 20
31.3091491368
 30
0.0
 10
10.9682701871
 20
31.0500482593
 30
0.0
  0
SPLINE
  5
427
100
AcDbEntity
  8
0
100
AcDbSpline
 62
7
  6
BYLAYER
 70
0
 71
3
 72
9
 73
5
 74
0
 42
0.0000001
 43
0.0000001
 44
0.0000000001
 40
0.0
 40
0.0
 40
0.0
 40
0.0
 40
0.5128911043
 40
1.0
 40
1.0
 40
1.0
 40
1.0
 10
19.0769752838
 20
29.0514845078
 30
0.0
 10
18.7430993842
 20
29.2442534915
 30
0.0
 10
18.1068619611
 20
29.6464277115
 30
0.0
 10
17.5094358507
 20
30.1048079719
 30
0.0
 10
17.2308853267
 20
30.3424528817
 30
0.0
  0
SPLINE
  5
428
100
AcDbEntity
  8
0
100
AcDbSpline
 62
7
  6
BYLAYER
 70
0
 71
3
 72
9
 73
5
 74
0
 42
0.0000001
 43
0.0000001
 44
0.0000000001
 40
0.0
 40
0.0
 40
0.0
 40
0.0
 40
0.2525818979
 40
1.0
 40
1.0
 40
1.0
 40
1.0
 10
46.1077348494
 20
33.0589973903
 30
0.0
 10
46.1313870061
 20
33.1167447259
 30
0.0
 10
46.2217220592
 20
33.346709809
 30
0.0
 10
46.2985819344
 20
33.5819952789
 30
0.0
 10
46.3477147177
 20
33.759997358
 30
0.0
  0
SPLINE
  5
429
100
AcDbEntity
  8
0
100
AcDbSpline
 62
7
  6
BYLAYER
 70
0
 71
3
 72
11
 73
7
 74
0
 42
0.0000001
 43
0.0000001
 44
0.0000000001
 40
0.0
 40
0.0
 40
0.0
 40
0.0
 40
0.2516365819
 40
0.5006473611
 40
0.7493310835
 40
1.0
 40
1.0
 40
1.0
 40
1.0
 10
46.3768201069
 20
33.8694895015
 30
0.0
 10
46.4319612927
 20
34.0851883456
 30
0.0
 10
46.5175092453
 20
34.5209808457
 30
0.0
 10
46.5681287588
 20
35.1835257891
 30
0.0
 10
46.5397631471
 20
35.8465416503
 30
0.0
 10
46.4687857313
 20
36.2838003769
 30
0.0
 10
46.4207933396
 20
36.5003247172
 30
0.0
  0
SPLINE
  5
42A
100
AcDbEntity
  8
0
100
AcDbSpline
 62
7
  6
BYLAYER
 70
0
 71
3
 72
9
 73
5
 74
0
 42
0.0000001
 43
0.0000001
 44
0.0000000001
 40
0.0
 40
0.0
 40
0.0
 40
0.0
 40
0.2476148203
 40
1.0
 40
1.0
 40
1.0
 40
1.0
 10
13.3688787996
 20
33.7766653335
 30
0.0
 10
13.3854370751
 20
33.7160033998
 30
0.0
 10
13.4561668371
 20
33.4720841076
 30
0.0
 10
13.5421868336
 20
33.2326296978
 30
0.0
 10
13.6146931356
 20
33.0558551674
 30
0.0
  0
SPLINE
  5
42B
100
AcDbEntity
  8
0
100
AcDbSpline
 62
7
  6
BYLAYER
 70
0
 71
3
 72
9
 73
5
 74
0
 42
0.0000001
 43
0.0000001
 44
0.0000000001
 40
0.0
 40
0.0
 40
0.0
 40
0.0
 40
0.5079791405
 40
1.0
 40
1.0
 40
1.0
 40
1.0
 10
10.9682701871
 20
37.6406898324
 30
0.0
 10
10.8123537461
 20
37.8997907099
 30
0.0
 10
10.5310930341
 20
38.4258741764
 30
0.0
 10
10.3098187998
 20
38.9801157204
 30
0.0
 10
10.21759759
 20
39.2581144225
 30
0.0
  0
SPLINE
  5
42C
100
AcDbEntity
  8
0
100
AcDbSpline
 62
7
  6
BYLAYER
 70
0
 71
3
 72
10
 73
6
 74
0
 42
0.0000001
 43
0.0000001
 44
0.0000000001
 40
0.0
 40
0.0
 40
0.0
 40
0.0
 40
0.2446862466
 40
0.4931473437
 40
1.0
 40
1.0
 40
1.0
 40
1.0
 10
17.132709855
 20
33.6441671186
 30
0.0
 10
16.6136093825
 20
33.9438631361
 30
0.0
 10
15.575938204
 20
34.5628015778
 30
0.0
 10
13.5062102735
 20
35.8735931983
 30
0.0
 10
11.9796177008
 20
36.9204056925
 30
0.0
 10
10.9682701871
 20
37.6406898324
 30
0.0
  0
SPLINE
  5
42D
100
AcDbEntity
  8
0
100
AcDbSpline
 62
7
  6
BYLAYER
 70
0
 71
3
 72
9
 73
5
 74
0
 42
0.0000001
 43
0.0000001
 44
0.0000000001
 40
0.0
 40
0.0
 40
0.0
 40
0.0
 40
0.5158706739
 40
1.0
 40
1.0
 40
1.0
 40
1.0
 10
49.5035602597
 20
43.6021340073
 30
0.0
 10
49.1386163562
 20
42.6813179617
 30
0.0
 10
48.4138960283
 20
40.9030938155
 30
0.0
 10
47.6385799958
 20
39.1460882275
 30
0.0
 10
47.2472631929
 20
38.3029157138
 30
0.0
  0
SPLINE
  5
42E
100
AcDbEntity
  8
0
100
AcDbSpline
 62
7
  6
BYLAYER
 70
0
 71
3
 72
9
 73
5
 74
0
 42
0.0000001
 43
0.0000001
 44
0.0000000001
 40
0.0
 40
0.0
 40
0.0
 40
0.0
 40
0.501075925
 40
1.0
 40
1.0
 40
1.0
 40
1.0
 10
42.9401308576
 20
32.6947788504
 30
0.0
 10
41.8922683333
 20
32.4292194631
 30
0.0
 10
39.7934497161
 20
31.9285442537
 30
0.0
 10
37.6783943356
 20
31.5005823824
 30
0.0
 10
36.6194155591
 20
31.3080033459
 30
0.0
  0
SPLINE
  5
42F
100
AcDbEntity
  8
0
100
AcDbSpline
 62
7
  6
BYLAYER
 70
0
 71
3
 72
9
 73
5
 74
0
 42
0.0000001
 43
0.0000001
 44
0.0000000001
 40
0.0
 40
0.0
 40
0.0
 40
0.0
 40
0.2432208961
 40
1.0
 40
1.0
 40
1.0
 40
1.0
 10
44.9909661285
 20
33.8788220783
 30
0.0
 10
44.8312493528
 20
33.7721513999
 30
0.0
 10
44.1670970223
 20
33.3448228382
 30
0.0
 10
43.4748358345
 20
32.9616449086
 30
0.0
 10
42.9401308576
 20
32.6947788504
 30
0.0
  0
SPLINE
  5
430
100
AcDbEntity
  8
0
100
AcDbSpline
 62
7
  6
BYLAYER
 70
0
 71
3
 72
9
 73
5
 74
0
 42
0.0000001
 43
0.0000001
 44
0.0000000001
 40
0.0
 40
0.0
 40
0.0
 40
0.0
 40
0.5197142537
 40
1.0
 40
1.0
 40
1.0
 40
1.0
 10
47.2472631929
 20
38.3029157138
 30
0.0
 10
46.8850159325
 20
37.5223795065
 30
0.0
 10
46.1613852806
 20
36.0326436568
 30
0.0
 10
45.3794249623
 20
34.5727026951
 30
0.0
 10
44.9909661285
 20
33.8788220783
 30
0.0
  0
SPLINE
  5
431
100
AcDbEntity
  8
0
100
AcDbSpline
 62
7
  6
BYLAYER
 70
0
 71
3
 72
11
 73
7
 74
0
 42
0.0000001
 43
0.0000001
 44
0.0000000001
 40
0.0
 40
0.0
 40
0.0
 40
0.0
 40
0.2443529355
 40
0.4922448511
 40
0.7440510366
 40
1.0
 40
1.0
 40
1.0
 40
1.0
 10
23.2971495228
 20
30.522769058
 30
0.0
 10
22.7822457905
 20
30.7505995437
 30
0.0
 10
21.7502029705
 20
31.2214921349
 30
0.0
 10
20.2088154121
 20
31.972696586
 30
0.0
 10
18.664994555
 20
32.7784488254
 30
0.0
 10
17.6434745285
 20
33.349283668
 30
0.0
 10
17.132709855
 20
33.6441671186
 30
0.0
  0
SPLINE
  5
432
100
AcDbEntity
  8
0
100
AcDbSpline
 62
7
  6
BYLAYER
 70
0
 71
3
 72
9
 73
5
 74
0
 42
0.0000001
 43
0.0000001
 44
0.0000000001
 40
0.0
 40
0.0
 40
0.0
 40
0.0
 40
0.2522963733
 40
1.0
 40
1.0
 40
1.0
 40
1.0
 10
26.0986573908
 20
30.0893876958
 30
0.0
 10
25.8616531452
 20
30.1155931038
 30
0.0
 10
24.9234103415
 20
30.2295116154
 30
0.0
 10
23.990014277
 20
30.3837974249
 30
0.0
 10
23.2971495228
 20
30.522769058
 30
0.0
  0
SPLINE
  5
433
100
AcDbEntity
  8
0
100
AcDbSpline
 62
7
  6
BYLAYER
 70
0
 71
3
 72
10
 73
6
 74
0
 42
0.0000001
 43
0.0000001
 44
0.0000000001
 40
0.0
 40
0.0
 40
0.0
 40
0.0
 40
0.2516400991
 40
0.5021811717
 40
1.0
 40
1.0
 40
1.0
 40
1.0
 10
34.5193941268
 20
30.9545209469
 30
0.0
 10
33.8174474483
 20
30.8459291618
 30
0.0
 10
32.4136237898
 20
30.6480367288
 30
0.0
 10
29.6088786063
 20
30.3283222135
 30
0.0
 10
27.5016390579
 20
30.1679156656
 30
0.0
 10
26.0986573908
 20
30.0893876958
 30
0.0
  0
SPLINE
  5
434
100
AcDbEntity
  8
0
100
AcDbSpline
 62
7
  6
BYLAYER
 70
0
 71
3
 72
9
 73
5
 74
0
 42
0.0000001
 43
0.0000001
 44
0.0000000001
 40
0.0
 40
0.0
 40
0.0
 40
0.0
 40
0.484129327
 40
1.0
 40
1.0
 40
1.0
 40
1.0
 10
12.4738946559
 20
46.9482177296
 30
0.0
 10
12.0825778524
 20
46.1050452146
 30
0.0
 10
11.3072617743
 20
44.3480396469
 30
0.0
 10
10.5825414928
 20
42.5698154817
 30
0.0
 10
10.21759759
 20
41.6489994379
 30
0.0
  0
SPLINE
  5
435
100
AcDbEntity
  8
0
100
AcDbSpline
 62
7
  6
BYLAYER
 70
0
 71
3
 72
23
 73
19
 74
0
 42
0.0000001
 43
0.0000001
 44
0.0000000001
 40
0.0
 40
0.0
 40
0.0
 40
0.0
 40
0.0558313263
 40
0.1141823784
 40
0.1747828347
 40
0.2373534005
 40
0.3015493667
 40
0.3669928694
 40
0.4332833986
 40
0.5000011628
 40
0.5667187731
 40
0.6330090832
 40
0.698452757
 40
0.7626479551
 40
0.825218213
 40
0.8858214796
 40
0.9441619285
 40
1.0
 40
1.0
 40
1.0
 40
1.0
 10
40.6440022333
 20
38.0329000504
 30
0.0
 10
40.2827585317
 20
37.824337147
 30
0.0
 10
39.5251611797
 20
37.4297527933
 30
0.0
 10
38.3229565768
 20
36.9170930371
 30
0.0
 10
37.0397694253
 20
36.4747949359
 30
0.0
 10
35.6880828085
 20
36.1070555649
 30
0.0
 10
34.2806569194
 20
35.8173244951
 30
0.0
 10
32.8309595643
 20
35.6083697517
 30
0.0
 10
31.3528452587
 20
35.4822021703
 30
0.0
 10
29.860448808
 20
35.4400267985
 30
0.0
 10
28.3680545095
 20
35.4822178884
 30
0.0
 10
26.8899427887
 20
35.6083991336
 30
0.0
 10
25.4402545049
 20
35.8173742483
 30
0.0
 10
24.0328375168
 20
36.1071127666
 30
0.0
 10
22.6811401998
 20
36.4748664938
 30
0.0
 10
21.3980284118
 20
36.9171940075
 30
0.0
 10
20.1958154147
 20
37.4298136711
 30
0.0
 10
19.4382594451
 20
37.824417482
 30
0.0
 10
19.0769752838
 20
38.0330110962
 30
0.0
  0
SPLINE
  5
436
100
AcDbEntity
  8
0
100
AcDbSpline
 62
7
  6
BYLAYER
 70
0
 71
3
 72
9
 73
5
 74
0
 42
0.0000001
 43
0.0000001
 44
0.0000000001
 40
0.0
 40
0.0
 40
0.0
 40
0.0
 40
0.4802857688
 40
1.0
 40
1.0
 40
1.0
 40
1.0
 10
14.7301917212
 20
51.3723113668
 30
0.0
 10
14.3417328691
 20
50.6784307175
 30
0.0
 10
13.5597726037
 20
49.2184897278
 30
0.0
 10
12.8361419007
 20
47.7287539033
 30
0.0
 10
12.4738946559
 20
46.9482177296
 30
0.0
  0
SPLINE
  5
437
100
AcDbEntity
  8
0
100
AcDbSpline
 62
7
  6
BYLAYER
 70
0
 71
3
 72
9
 73
5
 74
0
 42
0.0000001
 43
0.0000001
 44
0.0000000001
 40
0.0
 40
0.0
 40
0.0
 40
0.0
 40
0.2528866562
 40
1.0
 40
1.0
 40
1.0
 40
1.0
 10
48.7528876625
 20
47.6104436127
 30
0.0
 10
48.4306819432
 20
47.8399193036
 30
0.0
 10
47.1514425798
 20
48.7400801772
 30
0.0
 10
45.8494489048
 20
49.608238187
 30
0.0
 10
44.8614371591
 20
50.2323953601
 30
0.0
  0
SPLINE
  5
438
100
AcDbEntity
  8
0
100
AcDbSpline
 62
7
  6
BYLAYER
 70
0
 71
3
 72
9
 73
5
 74
0
 42
0.0000001
 43
0.0000001
 44
0.0000000001
 40
0.0
 40
0.0
 40
0.0
 40
0.0
 40
0.4920208595
 40
1.0
 40
1.0
 40
1.0
 40
1.0
 10
49.5035602597
 20
45.9930190226
 30
0.0
 10
49.4113390498
 20
46.2710177247
 30
0.0
 10
49.1900648155
 20
46.8252592687
 30
0.0
 10
48.9088041035
 20
47.3513427352
 30
0.0
 10
48.7528876625
 20
47.6104436127
 30
0.0
  0
SPLINE
  5
439
100
AcDbEntity
  8
0
100
AcDbSpline
 62
7
  6
BYLAYER
 70
0
 71
3
 72
10
 73
6
 74
0
 42
0.0000001
 43
0.0000001
 44
0.0000000001
 40
0.0
 40
0.0
 40
0.0
 40
0.0
 40
0.5015550537
 40
0.7512387659
 40
1.0
 40
1.0
 40
1.0
 40
1.0
 10
26.0986573908
 20
32.4802727111
 30
0.0
 10
27.4926305393
 20
32.8335467778
 30
0.0
 10
29.5909681892
 20
33.3237094971
 30
0.0
 10
32.405084494
 20
33.8739311167
 30
0.0
 10
33.8145389207
 20
34.1114888785
 30
0.0
 10
34.5193941268
 20
34.2205306154
 30
0.0
  0
SPLINE
  5
43A
100
AcDbEntity
  8
0
100
AcDbSpline
 62
7
  6
BYLAYER
 70
0
 71
3
 72
9
 73
5
 74
0
 42
0.0000001
 43
0.0000001
 44
0.0000000001
 40
0.0
 40
0.0
 40
0.0
 40
0.0
 40
0.2475499932
 40
1.0
 40
1.0
 40
1.0
 40
1.0
 10
23.2971495228
 20
32.9136540734
 30
0.0
 10
23.5265439663
 20
32.8676431885
 30
0.0
 10
24.4552852278
 20
32.6922823817
 30
0.0
 10
25.3918130884
 20
32.5584280341
 30
0.0
 10
26.0986573908
 20
32.4802727111
 30
0.0
  0
SPLINE
  5
43B
100
AcDbEntity
  8
0
100
AcDbSpline
 62
7
  6
BYLAYER
 70
0
 71
3
 72
10
 73
6
 74
0
 42
0.0000001
 43
0.0000001
 44
0.0000000001
 40
0.0
 40
0.0
 40
0.0
 40
0.0
 40
0.2446862466
 40
0.4931473437
 40
1.0
 40
1.0
 40
1.0
 40
1.0
 10
17.132709855
 20
36.9101767871
 30
0.0
 10
17.6518103274
 20
36.6104807697
 30
0.0
 10
18.6894815059
 20
35.991542328
 30
0.0
 10
20.7592094364
 20
34.6807507075
 30
0.0
 10
22.2858020091
 20
33.6339382132
 30
0.0
 10
23.2971495228
 20
32.9136540734
 30
0.0
  0
SPLINE
  5
43C
100
AcDbEntity
  8
0
100
AcDbSpline
 62
7
  6
BYLAYER
 70
0
 71
3
 72
11
 73
7
 74
0
 42
0.0000001
 43
0.0000001
 44
0.0000000001
 40
0.0
 40
0.0
 40
0.0
 40
0.0
 40
0.2443529355
 40
0.4922448511
 40
0.7440510366
 40
1.0
 40
1.0
 40
1.0
 40
1.0
 10
10.9682701871
 20
40.0315748477
 30
0.0
 10
11.4831739194
 20
39.803744362
 30
0.0
 10
12.5152167395
 20
39.3328517709
 30
0.0
 10
14.0566042978
 20
38.5816473197
 30
0.0
 10
15.6004251549
 20
37.7758950803
 30
0.0
 10
16.6219451814
 20
37.2050602377
 30
0.0
 10
17.132709855
 20
36.9101767871
 30
0.0
  0
SPLINE
  5
43D
100
AcDbEntity
  8
0
100
AcDbSpline
 62
7
  6
BYLAYER
 70
0
 71
3
 72
9
 73
5
 74
0
 42
0.0000001
 43
0.0000001
 44
0.0000000001
 40
0.0
 40
0.0
 40
0.0
 40
0.0
 40
0.4920208595
 40
1.0
 40
1.0
 40
1.0
 40
1.0
 10
10.21759759
 20
41.6489994379
 30
0.0
 10
10.3098187998
 20
41.3710007358
 30
0.0
 10
10.5310930341
 20
40.8167591918
 30
0.0
 10
10.8123537461
 20
40.2906757252
 30
0.0
 10
10.9682701871
 20
40.0315748477
 30
0.0
  0
SPLINE
  5
43E
100
AcDbEntity
  8
0
100
AcDbSpline
 62
7
  6
BYLAYER
 70
0
 71
3
 72
18
 73
14
 74
0
 42
0.0000001
 43
0.0000001
 44
0.0000000001
 40
0.0
 40
0.0
 40
0.0
 40
0.0
 40
0.1491053345
 40
0.2931996891
 40
0.4309087345
 40
0.5611270901
 40
0.6232027859
 40
0.6831629481
 40
0.7409860041
 40
0.7966879502
 40
0.8503234459
 40
0.9020023751
 40
1.0
 40
1.0
 40
1.0
 40
1.0
 10
34.5193941265
 20
34.2205306154
 30
0.0
 10
35.2678146476
 20
34.336311946
 30
0.0
 10
36.7314055101
 20
34.6213861659
 30
0.0
 10
38.8399594477
 20
35.2178262833
 30
0.0
 10
40.7970259024
 20
35.9673997535
 30
0.0
 10
42.2979996962
 20
36.7212516258
 30
0.0
 10
43.3898829968
 20
37.3928263812
 30
0.0
 10
44.1381422616
 20
37.9179460546
 30
0.0
 10
44.82548535
 20
38.4703710342
 30
0.0
 10
45.4490322697
 20
39.0476449219
 30
0.0
 10
46.0061419136
 20
39.6476803141
 30
0.0
 10
46.6454131862
 20
40.4594449006
 30
0.0
 10
47.0377274853
 20
41.1174376158
 30
0.0
 10
47.2472631937
 20
41.568925384
 30
0.0
  0
SPLINE
  5
43F
100
AcDbEntity
  8
0
100
AcDbSpline
 62
7
  6
BYLAYER
 70
0
 71
3
 72
15
 73
11
 74
0
 42
0.0000001
 43
0.0000001
 44
0.0000000001
 40
0.0
 40
0.0
 40
0.0
 40
0.0
 40
0.1108404742
 40
0.2280569066
 40
0.3507083478
 40
0.4776249447
 40
0.6074729148
 40
0.7388125607
 40
0.8701521652
 40
1.0
 40
1.0
 40
1.0
 40
1.0
 10
17.132709855
 20
36.9101767871
 30
0.0
 10
17.705499626
 20
36.5794839399
 30
0.0
 10
18.9243067688
 20
35.9672967754
 30
0.0
 10
20.8812895361
 20
35.2178007729
 30
0.0
 10
22.9899839826
 20
34.6213393899
 30
0.0
 10
25.2146366662
 20
34.1880226364
 30
0.0
 10
27.517830143
 20
33.9250658427
 30
0.0
 10
29.8606797647
 20
33.8369263883
 30
0.0
 10
32.2033757083
 20
33.9250622104
 30
0.0
 10
33.7536866873
 20
34.102074983
 30
0.0
 10
34.5193941265
 20
34.2205306154
 30
0.0
  0
SPLINE
  5
440
100
AcDbEntity
  8
0
100
AcDbSpline
 62
7
  6
BYLAYER
 70
0
 71
3
 72
20
 73
16
 74
0
 42
0.0000001
 43
0.0000001
 44
0.0000000001
 40
0.0
 40
0.0
 40
0.0
 40
0.0
 40
0.0544980514
 40
0.1089402625
 40
0.1636311955
 40
0.2188690746
 40
0.2749359469
 40
0.3320944536
 40
0.4505080793
 40
0.5122331126
 40
0.5758026616
 40
0.6413243542
 40
0.708880694
 40
0.8502518267
 40
1.0
 40
1.0
 40
1.0
 40
1.0
 10
45.0805855887
 20
44.8104390021
 30
0.0
 10
45.0974257999
 20
44.6556007269
 30
0.0
 10
45.1169979724
 20
44.3443574889
 30
0.0
 10
45.1033651637
 20
43.8762831754
 30
0.0
 10
45.0466607606
 20
43.4092915555
 30
0.0
 10
44.9470711719
 20
42.9448236602
 30
0.0
 10
44.8049778476
 20
42.4841584448
 30
0.0
 10
44.5565364641
 20
41.8698451246
 30
0.0
 10
44.2250489922
 20
41.274463587
 30
0.0
 10
43.8218599449
 20
40.7060712938
 30
0.0
 10
43.4760819888
 20
40.2837832972
 30
0.0
 10
43.0921677386
 20
39.8728387869
 30
0.0
 10
42.5222298278
 20
39.3333450215
 30
0.0
 10
41.7171652885
 20
38.6952857199
 30
0.0
 10
41.0146348787
 20
38.2468836306
 30
0.0
 10
40.6440022333
 20
38.0329000504
 30
0.0
  0
SPLINE
  5
441
100
AcDbEntity
  8
0
100
AcDbSpline
 62
7
  6
BYLAYER
 70
0
 71
3
 72
9
 73
5
 74
0
 42
0.0000001
 43
0.0000001
 44
0.0000000001
 40
0.0
 40
0.0
 40
0.0
 40
0.0
 40
0.5197142537
 40
1.0
 40
1.0
 40
1.0
 40
1.0
 10
47.2472631937
 20
41.568925384
 30
0.0
 10
47.6095104544
 20
42.3494615918
 30
0.0
 10
48.3331411067
 20
43.8391974426
 30
0.0
 10
49.1151014255
 20
45.2991384054
 30
0.0
 10
49.5035602597
 20
45.9930190226
 30
0.0
  0
SPLINE
  5
442
100
AcDbEntity
  8
0
100
AcDbSpline
 62
7
  6
BYLAYER
 70
0
 71
3
 72
9
 73
5
 74
0
 42
0.0000001
 43
0.0000001
 44
0.0000000001
 40
0.0
 40
0.0
 40
0.0
 40
0.0
 40
0.5158706738
 40
1.0
 40
1.0
 40
1.0
 40
1.0
 10
44.9909661285
 20
36.2697070937
 30
0.0
 10
45.3559100317
 20
37.1905231386
 30
0.0
 10
46.0806303592
 20
38.9687472838
 30
0.0
 10
46.8559463911
 20
40.7257528707
 30
0.0
 10
47.2472631937
 20
41.568925384
 30
0.0
  0
SPLINE
  5
443
100
AcDbEntity
  8
0
100
AcDbSpline
 62
7
  6
BYLAYER
 70
0
 71
3
 72
9
 73
5
 74
0
 42
0.0000001
 43
0.0000001
 44
0.0000000001
 40
0.0
 40
0.0
 40
0.0
 40
0.0
 40
0.2568158794
 40
1.0
 40
1.0
 40
1.0
 40
1.0
 10
42.9401308576
 20
35.0856638658
 30
0.0
 10
43.1215825929
 20
35.1762246637
 30
0.0
 10
43.8229358481
 20
35.5390867721
 30
0.0
 10
44.502943197
 20
35.9437692768
 30
0.0
 10
44.9909661285
 20
36.2697070937
 30
0.0
  0
SPLINE
  5
444
100
AcDbEntity
  8
0
100
AcDbSpline
 62
7
  6
BYLAYER
 70
0
 71
3
 72
10
 73
6
 74
0
 42
0.0000001
 43
0.0000001
 44
0.0000000001
 40
0.0
 40
0.0
 40
0.0
 40
0.0
 40
0.2516400991
 40
0.5021811717
 40
1.0
 40
1.0
 40
1.0
 40
1.0
 10
34.5193941268
 20
34.2205306154
 30
0.0
 10
35.2213408049
 20
34.3291224004
 30
0.0
 10
36.6251644625
 20
34.5270148332
 30
0.0
 10
39.4299096443
 20
34.8467293483
 30
0.0
 10
41.5371491914
 20
35.007135896
 30
0.0
 10
42.9401308576
 20
35.0856638658
 30
0.0
  0
SPLINE
  5
445
100
AcDbEntity
  8
0
100
AcDbSpline
 62
7
  6
BYLAYER
 70
0
 71
3
 72
23
 73
19
 74
0
 42
0.0000001
 43
0.0000001
 44
0.0000000001
 40
0.0
 40
0.0
 40
0.0
 40
0.0
 40
0.0561647628
 40
0.1147830144
 40
0.1755877677
 40
0.2383002267
 40
0.3025778013
 40
0.3680468208
 40
0.4343132061
 40
0.5009648567
 40
0.567583037
 40
0.6337493336
 40
0.6990544635
 40
0.7631059216
 40
0.8255357849
 40
0.8860117211
 40
0.9442445443
 40
1.0
 40
1.0
 40
1.0
 40
1.0
 10
39.7448126258
 20
19.0213562055
 30
0.0
 10
39.4067985534
 20
18.832174493
 30
0.0
 10
38.6994115859
 20
18.4746247173
 30
0.0
 10
37.5796441863
 20
18.010947367
 30
0.0
 10
36.3874933701
 20
17.6120729775
 30
0.0
 10
35.1342716375
 20
17.2817217452
 30
0.0
 10
33.8315880067
 20
17.0229067998
 30
0.0
 10
32.4916647216
 20
16.8380694657
 30
0.0
 10
31.1270595702
 20
16.7289769675
 30
0.0
 10
29.7505694625
 20
16.6965982711
 30
0.0
 10
28.3751112444
 20
16.7412491803
 30
0.0
 10
27.0135939104
 20
16.8625559827
 30
0.0
 10
25.6787815635
 20
17.0593181829
 30
0.0
 10
24.3831825051
 20
17.3297209836
 30
0.0
 10
23.1389422278
 20
17.6712680349
 30
0.0
 10
21.9576465189
 20
18.0807355207
 30
0.0
 10
20.8504334954
 20
18.5543154266
 30
0.0
 10
20.1524787035
 20
18.9182875703
 30
0.0
 10
19.81946717
 20
19.1105571888
 30
0.0
  0
SPLINE
  5
446
100
AcDbEntity
  8
0
100
AcDbSpline
 62
7
  6
BYLAYER
 70
0
 71
3
 72
15
 73
11
 74
0
 42
0.0000001
 43
0.0000001
 44
0.0000000001
 40
0.0
 40
0.0
 40
0.0
 40
0.0
 40
0.1486060706
 40
0.2895003447
 40
0.4227223435
 40
0.5486428051
 40
0.6680007445
 40
0.7819380015
 40
0.8919872984
 40
1.0
 40
1.0
 40
1.0
 40
1.0
 10
19.2537636818
 20
19.4371687366
 30
0.0
 10
18.9154270305
 20
19.6325130689
 30
0.0
 10
18.2715777842
 20
20.0405613597
 30
0.0
 10
17.3914111728
 20
20.721912635
 30
0.0
 10
16.6301242241
 20
21.4506359175
 30
0.0
 10
15.9952262674
 20
22.2201511491
 30
0.0
 10
15.4933094686
 20
23.0236460761
 30
0.0
 10
15.1300236272
 20
23.8538283971
 30
0.0
 10
14.9098810789
 20
24.7022717729
 30
0.0
 10
14.8606024823
 20
25.2767044891
 30
0.0
 10
14.8605896731
 20
25.5606662047
 30
0.0
  0
SPLINE
  5
447
100
AcDbEntity
  8
0
100
AcDbSpline
 62
7
  6
BYLAYER
 70
0
 71
3
 72
15
 73
11
 74
0
 42
0.0000001
 43
0.0000001
 44
0.0000000001
 40
0.0
 40
0.0
 40
0.0
 40
0.0
 40
0.1077594174
 40
0.2186618755
 40
0.3339183891
 40
0.4544901225
 40
0.581055912
 40
0.7140682776
 40
0.8537606575
 40
1.0
 40
1.0
 40
1.0
 40
1.0
 10
44.790513915
 20
24.7247209536
 30
0.0
 10
44.7485614458
 20
24.4750101805
 30
0.0
 10
44.6256906307
 20
23.9739416863
 30
0.0
 10
44.3329661358
 20
23.2434948101
 30
0.0
 10
43.9327828109
 20
22.5313135495
 30
0.0
 10
43.4284955206
 20
21.8428497579
 30
0.0
 10
42.8242668732
 20
21.1827782982
 30
0.0
 10
42.1245597077
 20
20.5556928867
 30
0.0
 10
41.3347243581
 20
19.9661970831
 30
0.0
 10
40.7648171223
 20
19.6088688674
 30
0.0
 10
40.467224802
 20
19.4370548867
 30
0.0
  0
SPLINE
  5
448
100
AcDbEntity
  8
0
100
AcDbSpline
 62
7
  6
BYLAYER
 70
0
 71
3
 72
11
 73
7
 74
0
 42
0.0000001
 43
0.0000001
 44
0.0000000001
 40
0.0
 40
0.0
 40
0.0
 40
0.0
 40
0.2390371154
 40
0.4827065642
 40
0.7352083174
 40
1.0
 40
1.0
 40
1.0
 40
1.0
 10
44.8605681765
 20
55.4854797922
 30
0.0
 10
44.8605551858
 20
55.7734655204
 30
0.0
 10
44.8098465051
 20
56.3562156338
 30
0.0
 10
44.5833447661
 20
57.2165690185
 30
0.0
 10
44.2097973745
 20
58.0576988894
 30
0.0
 10
43.874674905
 20
58.5859467215
 30
0.0
 10
43.6868055506
 20
58.84377446
 30
0.0
  0
SPLINE
  5
449
100
AcDbEntity
  8
0
100
AcDbSpline
 62
7
  6
BYLAYER
 70
0
 71
3
 72
13
 73
9
 74
0
 42
0.0000001
 43
0.0000001
 44
0.0000000001
 40
0.0
 40
0.0
 40
0.0
 40
0.0
 40
0.1187053332
 40
0.2380632633
 40
0.358706256
 40
0.4812349285
 40
0.7339031882
 40
1.0
 40
1.0
 40
1.0
 40
1.0
 10
43.6105690722
 20
59.0970374321
 30
0.0
 10
43.6105753503
 20
58.9578617423
 30
0.0
 10
43.5978343023
 20
58.6785776631
 30
0.0
 10
43.540548156
 20
58.2613909225
 30
0.0
 10
43.4453421117
 20
57.8465579567
 30
0.0
 10
43.2664109259
 20
57.2927675235
 30
0.0
 10
42.9448681038
 20
56.6092569028
 30
0.0
 10
42.6036313789
 20
56.1029014893
 30
0.0
 10
42.4125845822
 20
55.8562532334
 30
0.0
  0
SPLINE
  5
44A
100
AcDbEntity
  8
0
100
AcDbSpline
 62
7
  6
BYLAYER
 70
0
 71
3
 72
11
 73
7
 74
0
 42
0.0000001
 43
0.0000001
 44
0.0000000001
 40
0.0
 40
0.0
 40
0.0
 40
0.0
 40
0.2662162928
 40
0.5190055096
 40
0.7620669359
 40
1.0
 40
1.0
 40
1.0
 40
1.0
 10
17.3085506822
 20
55.8562474022
 30
0.0
 10
17.1175019159
 20
56.1028837839
 30
0.0
 10
16.7763010558
 20
56.6093523548
 30
0.0
 10
16.3944403038
 20
57.4208257444
 30
0.0
 10
16.16257844
 20
58.2532460231
 30
0.0
 10
16.1106013551
 20
58.8182060837
 30
0.0
 10
16.1105887774
 20
59.0970374324
 30
0.0
  0
SPLINE
  5
44B
100
AcDbEntity
  8
0
100
AcDbSpline
 62
7
  6
BYLAYER
 70
0
 71
3
 72
23
 73
19
 74
0
 42
0.0000001
 43
0.0000001
 44
0.0000000001
 40
0.0
 40
0.0
 40
0.0
 40
0.0
 40
0.0584304254
 40
0.1200152711
 40
0.1843233852
 40
0.2508568937
 40
0.3190255752
 40
0.3881940964
 40
0.4576954217
 40
0.5268529967
 40
0.5950006507
 40
0.6615024493
 40
0.7257738333
 40
0.7873048741
 40
0.8456862649
 40
0.9006386396
 40
0.9520469918
 40
1.0
 40
1.0
 40
1.0
 40
1.0
 10
39.5833376456
 20
53.4837270576
 30
0.0
 10
39.1798727867
 20
53.2507879031
 30
0.0
 10
38.3250310145
 20
52.8166301145
 30
0.0
 10
36.9569024815
 20
52.2750179232
 30
0.0
 10
35.4860990656
 20
51.8323059977
 30
0.0
 10
33.9341061489
 20
51.4947889241
 30
0.0
 10
32.3231480496
 20
51.2673588831
 30
0.0
 10
30.676563494
 20
51.1532811916
 30
0.0
 10
29.0181653781
 20
51.1542078165
 30
0.0
 10
27.3719628809
 20
51.2701159972
 30
0.0
 10
25.7617729328
 20
51.4993273611
 30
0.0
 10
24.2108652065
 20
51.8385402489
 30
0.0
 10
22.7416142851
 20
52.2828940969
 30
0.0
 10
21.3751446246
 20
52.8260687152
 30
0.0
 10
20.1310530592
 20
53.4603815473
 30
0.0
 10
19.0270466483
 20
54.1771777829
 30
0.0
 10
18.0792080207
 20
54.9664451617
 30
0.0
 10
17.5426898375
 20
55.553983037
 30
0.0
 10
17.3085506822
 20
55.8562474022
 30
0.0
  0
SPLINE
  5
44C
100
AcDbEntity
  8
0
100
AcDbSpline
 62
7
  6
BYLAYER
 70
0
 71
3
 72
23
 73
19
 74
0
 42
0.0000001
 43
0.0000001
 44
0.0000000001
 40
0.0
 40
0.0
 40
0.0
 40
0.0
 40
0.0584304254
 40
0.1200152711
 40
0.1843233852
 40
0.2508568937
 40
0.3190255752
 40
0.3881940964
 40
0.4576954217
 40
0.5268529967
 40
0.5950006507
 40
0.6615024493
 40
0.7257738333
 40
0.7873048741
 40
0.8456862649
 40
0.9006386396
 40
0.9520469918
 40
1.0
 40
1.0
 40
1.0
 40
1.0
 10
39.5126266731
 20
53.3831287659
 30
0.0
 10
39.112096104
 20
53.1518837144
 30
0.0
 10
38.2634713629
 20
52.720883437
 30
0.0
 10
36.9052928557
 20
52.1832102434
 30
0.0
 10
35.4451861919
 20
51.7437180411
 30
0.0
 10
33.9044804964
 20
51.4086556371
 30
0.0
 10
32.305238456
 20
51.1828796327
 30
0.0
 10
30.6706290608
 20
51.0696315972
 30
0.0
 10
29.024292022
 20
51.0705514829
 30
0.0
 10
27.3900619067
 20
51.185616695
 30
0.0
 10
25.791582431
 20
51.4131610672
 30
0.0
 10
24.2519540335
 20
51.7499069522
 30
0.0
 10
22.7933885734
 20
52.1910291359
 30
0.0
 10
21.4368568741
 20
52.7302533933
 30
0.0
 10
20.2018132473
 20
53.3599530412
 30
0.0
 10
19.105835974
 20
54.0715362132
 30
0.0
 10
18.1648907182
 20
54.8550634656
 30
0.0
 10
17.6322744854
 20
55.4383283383
 30
0.0
 10
17.3998381603
 20
55.7383944172
 30
0.0
  0
SPLINE
  5
44D
100
AcDbEntity
  8
0
100
AcDbSpline
 62
7
  6
BYLAYER
 70
0
 71
3
 72
30
 73
26
 74
0
 42
0.0000001
 43
0.0000001
 44
0.0000000001
 40
0.0
 40
0.0
 40
0.0
 40
0.0
 40
0.0213274919
 40
0.0428832839
 40
0.0648840009
 40
0.0875238703
 40
0.1109685346
 40
0.1353502299
 40
0.1607681931
 40
0.1872881701
 40
0.2149466105
 40
0.2437514165
 40
0.2736873545
 40
0.30471644
 40
0.3697911094
 40
0.4383747361
 40
0.5096470961
 40
0.5826569182
 40
0.656373822
 40
0.7297362773
 40
0.8016984322
 40
0.8712767791
 40
0.937602094
 40
0.9693387946
 40
1.0
 40
1.0
 40
1.0
 40
1.0
 10
14.8605896731
 20
55.4854797925
 30
0.0
 10
14.8605992719
 20
55.2726879687
 30
0.0
 10
14.8880507057
 20
54.8443344713
 30
0.0
 10
15.0111211573
 20
54.2071361304
 30
0.0
 10
15.2152683063
 20
53.5773288696
 30
0.0
 10
15.4991072589
 20
52.9585738426
 30
0.0
 10
15.8608700635
 20
52.3542070103
 30
0.0
 10
16.2983567565
 20
51.767407002
 30
0.0
 10
16.8090977996
 20
51.2012603563
 30
0.0
 10
17.390210803
 20
50.6586600075
 30
0.0
 10
18.0385608907
 20
50.1424719911
 30
0.0
 10
18.7505966787
 20
49.6553375693
 30
0.0
 10
19.5225360152
 20
49.1998572992
 30
0.0
 10
20.6437648584
 20
48.628939135
 30
0.0
 10
22.1712652564
 20
48.0136168105
 30
0.0
 10
24.1389349384
 20
47.4465390474
 30
0.0
 10
26.2286097855
 20
47.0510407552
 30
0.0
 10
28.3956576655
 20
46.8355439229
 30
0.0
 10
30.5939733416
 20
46.8046145488
 30
0.0
 10
32.7766257401
 20
46.9589114018
 30
0.0
 10
34.89714714
 20
47.2951644983
 30
0.0
 10
36.9102025426
 20
47.806201034
 30
0.0
 10
38.4860175473
 20
48.3771330956
 30
0.0
 10
39.6528907382
 20
48.9150676333
 30
0.0
 10
40.202292047
 20
49.2089103902
 30
0.0
 10
40.467224802
 20
49.3618684745
 30
0.0
  0
SPLINE
  5
44E
100
AcDbEntity
  8
0
100
AcDbSpline
 62
7
  6
BYLAYER
 70
0
 71
3
 72
27
 73
23
 74
0
 42
0.0000001
 43
0.0000001
 44
0.0000000001
 40
0.0
 40
0.0
 40
0.0
 40
0.0
 40
0.0623762978
 40
0.1287078602
 40
0.198292761
 40
0.2702616943
 40
0.34363106
 40
0.4173549075
 40
0.4903716067
 40
0.5616506802
 40
0.6302407672
 40
0.6953215662
 40
0.756262809
 40
0.8126941884
 40
0.8392166634
 40
0.8646370208
 40
0.8890210128
 40
0.9124678854
 40
0.9351098874
 40
0.9571126767
 40
0.9786704992
 40
1.0
 40
1.0
 40
1.0
 40
1.0
 10
39.5833376456
 20
50.8927974391
 30
0.0
 10
39.0893267141
 20
50.6075817974
 30
0.0
 10
38.0306593663
 20
50.0855987263
 30
0.0
 10
36.322887807
 20
49.4668151804
 30
0.0
 10
34.4773894442
 20
48.9983056913
 30
0.0
 10
32.5336340917
 20
48.6900903986
 30
0.0
 10
30.5328533234
 20
48.5486471331
 30
0.0
 10
28.5177372734
 20
48.5769997676
 30
0.0
 10
26.5312664859
 20
48.7745401948
 30
0.0
 10
24.615764295
 20
49.1370732111
 30
0.0
 10
22.8119516278
 20
49.656919698
 30
0.0
 10
21.1578695898
 20
50.3233061123
 30
0.0
 10
19.6885850405
 20
51.1223988432
 30
0.0
 10
18.6218967557
 20
51.9018398302
 30
0.0
 10
17.8967271864
 20
52.578892713
 30
0.0
 10
17.428540438
 20
53.0978779321
 30
0.0
 10
17.0275128469
 20
53.6357735449
 30
0.0
 10
16.6958964684
 20
54.1897775844
 30
0.0
 10
16.4357108824
 20
54.7569694104
 30
0.0
 10
16.2485759649
 20
55.3342928053
 30
0.0
 10
16.1357613924
 20
55.9183912653
 30
0.0
 10
16.1105975763
 20
56.3110486421
 30
0.0
 10
16.1105887774
 20
56.5061078139
 30
0.0
  0
SPLINE
  5
44F
100
AcDbEntity
  8
0
100
AcDbSpline
 62
7
  6
BYLAYER
 70
0
 71
3
 72
11
 73
7
 74
0
 42
0.0000001
 43
0.0000001
 44
0.0000000001
 40
0.0
 40
0.0
 40
0.0
 40
0.0
 40
0.2393950918
 40
0.4832628813
 40
0.7356727775
 40
1.0
 40
1.0
 40
1.0
 40
1.0
 10
16.1105887774
 20
58.8141926982
 30
0.0
 10
16.1106004641
 20
58.5551141555
 30
0.0
 10
16.1553382292
 20
58.0310772385
 30
0.0
 10
16.3552506088
 20
57.2569173931
 30
0.0
 10
16.685087681
 20
56.4993642909
 30
0.0
 10
16.9813873631
 20
56.0226503472
 30
0.0
 10
17.1475606181
 20
55.7898046139
 30
0.0
  0
SPLINE
  5
450
100
AcDbEntity
  8
0
100
AcDbSpline
 62
7
  6
BYLAYER
 70
0
 71
3
 72
23
 73
19
 74
0
 42
0.0000001
 43
0.0000001
 44
0.0000000001
 40
0.0
 40
0.0
 40
0.0
 40
0.0
 40
0.097957848
 40
0.1247443781
 40
0.1524330573
 40
0.210419339
 40
0.2716804132
 40
0.3358137766
 40
0.4023063151
 40
0.4705627939
 40
0.5399306515
 40
0.6097227558
 40
0.679238842
 40
0.7477867206
 40
0.8147059369
 40
0.8793824232
 40
0.9412960363
 40
1.0
 40
1.0
 40
1.0
 40
1.0
 10
17.1475606181
 20
55.7898046139
 30
0.0
 10
17.606270607
 20
55.147049775
 30
0.0
 10
18.3367324636
 20
54.4282223396
 30
0.0
 10
19.3280307673
 20
53.7033218752
 30
0.0
 10
20.0902549849
 20
53.2112435943
 30
0.0
 10
21.1370348196
 20
52.652315399
 30
0.0
 10
22.5038808089
 20
52.0840425546
 30
0.0
 10
23.9802137159
 20
51.6163682759
 30
0.0
 10
25.5440934003
 20
51.2561523571
 30
0.0
 10
27.172307226
 20
51.0087071403
 30
0.0
 10
28.8406081318
 20
50.8777085151
 30
0.0
 10
30.5241266047
 20
50.8651107286
 30
0.0
 10
32.1977435416
 20
50.971114319
 30
0.0
 10
33.8365155694
 20
51.1941258585
 30
0.0
 10
35.4159780164
 20
51.5308503924
 30
0.0
 10
36.912811594
 20
51.9762622336
 30
0.0
 10
38.3044980095
 20
52.5238272046
 30
0.0
 10
39.1735162418
 20
52.9642732379
 30
0.0
 10
39.5833376456
 20
53.2008823234
 30
0.0
  0
SPLINE
  5
451
100
AcDbEntity
  8
0
100
AcDbSpline
 62
7
  6
BYLAYER
 70
0
 71
3
 72
15
 73
11
 74
0
 42
0.0000001
 43
0.0000001
 44
0.0000000001
 40
0.0
 40
0.0
 40
0.0
 40
0.0
 40
0.1485801254
 40
0.289509359
 40
0.4227246153
 40
0.5486415202
 40
0.668001922
 40
0.7819395159
 40
0.8919876913
 40
1.0
 40
1.0
 40
1.0
 40
1.0
 10
40.467224802
 20
49.3618684745
 30
0.0
 10
40.8055139614
 20
49.5571786459
 30
0.0
 10
41.4493702122
 20
49.9652938511
 30
0.0
 10
42.3296206884
 20
50.6465891691
 30
0.0
 10
43.0909935749
 20
51.3753621504
 30
0.0
 10
43.725854066
 20
52.1449138503
 30
0.0
 10
44.2278148864
 20
52.9484013112
 30
0.0
 10
44.5911621741
 20
53.7785953393
 30
0.0
 10
44.8112239324
 20
54.6270741017
 30
0.0
 10
44.860580986
 20
55.2015118403
 30
0.0
 10
44.8605681765
 20
55.4854797922
 30
0.0
  0
SPLINE
  5
452
100
AcDbEntity
  8
0
100
AcDbSpline
 62
7
  6
BYLAYER
 70
0
 71
3
 72
9
 73
5
 74
0
 42
0.0000001
 43
0.0000001
 44
0.0000000001
 40
0.0
 40
0.0
 40
0.0
 40
0.0
 40
0.497728848
 40
1.0
 40
1.0
 40
1.0
 40
1.0
 10
16.1105939208
 20
61.4051223353
 30
0.0
 10
16.1106022524
 20
61.2251861872
 30
0.0
 10
16.1319797161
 20
60.8633612489
 30
0.0
 10
16.1954609748
 20
60.5065491149
 30
0.0
 10
16.2373080239
 20
60.3298587423
 30
0.0
  0
SPLINE
  5
453
100
AcDbEntity
  8
0
100
AcDbSpline
 62
7
  6
BYLAYER
 70
0
 71
3
 72
9
 73
5
 74
0
 42
0.0000001
 43
0.0000001
 44
0.0000000001
 40
0.0
 40
0.0
 40
0.0
 40
0.0
 40
0.2458707055
 40
1.0
 40
1.0
 40
1.0
 40
1.0
 10
17.0490173972
 20
58.5226948865
 30
0.0
 10
17.082818646
 20
58.4726136555
 30
0.0
 10
17.223122751
 20
58.2708423516
 30
0.0
 10
17.3744826592
 20
58.0768024677
 30
0.0
 10
17.4938352797
 20
57.9350322919
 30
0.0
  0
SPLINE
  5
454
100
AcDbEntity
  8
0
100
AcDbSpline
 62
7
  6
BYLAYER
 70
0
 71
3
 72
15
 73
11
 74
0
 42
0.0000001
 43
0.0000001
 44
0.0000000001
 40
0.0
 40
0.0
 40
0.0
 40
0.0
 40
0.1080123087
 40
0.2180604841
 40
0.331998078
 40
0.4513584798
 40
0.5772753847
 40
0.710490641
 40
0.8514198746
 40
1.0
 40
1.0
 40
1.0
 40
1.0
 10
43.6105690722
 20
56.5061078136
 30
0.0
 10
43.6105808142
 20
56.2458038577
 30
0.0
 10
43.5653368484
 20
55.7192359307
 30
0.0
 10
43.36361357
 20
54.9414637318
 30
0.0
 10
43.030545223
 20
54.1804525394
 30
0.0
 10
42.5704144709
 20
53.4439223669
 30
0.0
 10
41.9884590207
 20
52.7384999753
 30
0.0
 10
41.2905338747
 20
52.0704580758
 30
0.0
 10
40.4836376049
 20
51.4459373676
 30
0.0
 10
39.8934360416
 20
51.0718317629
 30
0.0
 10
39.5833376456
 20
50.8927974391
 30
0.0
  0
SPLINE
  5
455
100
AcDbEntity
  8
0
100
AcDbSpline
 62
7
  6
BYLAYER
 70
0
 71
3
 72
10
 73
6
 74
0
 42
0.0000001
 43
0.0000001
 44
0.0000000001
 40
0.0
 40
0.0
 40
0.0
 40
0.0
 40
0.4739842361
 40
0.7305775776
 40
1.0
 40
1.0
 40
1.0
 40
1.0
 10
42.3212972684
 20
55.7384002059
 30
0.0
 10
41.9648346085
 20
55.2781941469
 30
0.0
 10
41.3259251329
 20
54.6355643504
 30
0.0
 10
40.3466584579
 20
53.893474771
 30
0.0
 10
39.7991818271
 20
53.5485704737
 30
0.0
 10
39.5126266731
 20
53.3831287659
 30
0.0
  0
SPLINE
  5
456
100
AcDbEntity
  8
0
100
AcDbSpline
 62
7
  6
BYLAYER
 70
0
 71
3
 72
10
 73
6
 74
0
 42
0.0000001
 43
0.0000001
 44
0.0000000001
 40
0.0
 40
0.0
 40
0.0
 40
0.0
 40
0.4739842361
 40
0.7305775776
 40
1.0
 40
1.0
 40
1.0
 40
1.0
 10
42.4125845822
 20
55.8562532334
 30
0.0
 10
42.0535104743
 20
55.3926757014
 30
0.0
 10
41.4099203432
 20
54.7453379944
 30
0.0
 10
40.4234795534
 20
53.9978118612
 30
0.0
 10
39.8719921048
 20
53.6503807925
 30
0.0
 10
39.5833376456
 20
53.4837270576
 30
0.0
  0
SPLINE
  5
457
100
AcDbEntity
  8
0
100
AcDbSpline
 62
7
  6
BYLAYER
 70
0
 71
3
 72
21
 73
17
 74
0
 42
0.0000001
 43
0.0000001
 44
0.0000000001
 40
0.0
 40
0.0
 40
0.0
 40
0.0
 40
0.0565999995
 40
0.1154253942
 40
0.1762452768
 40
0.2388014441
 40
0.3027838807
 40
0.3678590466
 40
0.4336766215
 40
0.4998714486
 40
0.6318620395
 40
0.7609430962
 40
0.8235524536
 40
0.8844402788
 40
0.9433327105
 40
1.0
 40
1.0
 40
1.0
 40
1.0
 10
39.9327416865
 20
19.1433191728
 30
0.0
 10
39.5852609328
 20
18.9615494402
 30
0.0
 10
38.862137366
 20
18.6180512914
 30
0.0
 10
37.7245500508
 20
18.171842334
 30
0.0
 10
36.5211853301
 20
17.7876012003
 30
0.0
 10
35.2621223416
 20
17.4685235193
 30
0.0
 10
33.9577968138
 20
17.2172635539
 30
0.0
 10
32.6191707294
 20
17.0358945458
 30
0.0
 10
31.2573987547
 20
16.9259915634
 30
0.0
 10
29.4282300677
 20
16.8759751681
 30
0.0
 10
27.1593321098
 20
16.9932563898
 30
0.0
 10
24.9400439262
 20
17.3489996029
 30
0.0
 10
23.2419484838
 20
17.7756555975
 30
0.0
 10
22.0365023162
 20
18.157730363
 30
0.0
 10
20.8966250593
 20
18.6018968494
 30
0.0
 10
20.1717821288
 20
18.9439346627
 30
0.0
 10
19.8234284222
 20
19.1250387167
 30
0.0
  0
ELLIPSE
  5
458
100
AcDbEntity
  8
0
100
AcDbEllipse
 62
7
  6
BYLAYER
 10
24.8860495973
 20
44.056435161
 30
0.0
 11
-13.6674550399
 21
23.6724841838
 31
0.0
 40
0.5377471078
 41
-4.3674936047
 42
-4.3398657884
  0
ELLIPSE
  5
459
100
AcDbEntity
  8
0
100
AcDbEllipse
 62
7
  6
BYLAYER
 10
25.3385343714
 20
44.2958181171
 30
0.0
 11
-12.659283969
 21
24.2118536396
 31
0.0
 40
0.560694398
 41
-4.3846687966
 42
-4.3578573419
  0
ELLIPSE
  5
45A
100
AcDbEntity
  8
0
100
AcDbEllipse
 62
7
  6
BYLAYER
 10
25.8254346351
 20
44.5115217159
 30
0.0
 11
-11.528543566
 21
24.7306154491
 31
0.0
 40
0.5824377977
 41
-4.3978175141
 42
-4.371827127
  0
ELLIPSE
  5
45B
100
AcDbEntity
  8
0
100
AcDbEllipse
 62
7
  6
BYLAYER
 10
26.3430447834
 20
44.7019043225
 30
0.0
 11
-10.2660357063
 21
25.2234780837
 31
0.0
 40
0.6026692452
 41
-4.406565445
 42
-4.3811775708
  0
ELLIPSE
  5
45C
100
AcDbEntity
  8
0
100
AcDbEllipse
 62
7
  6
BYLAYER
 10
26.8874254904
 20
44.8655170106
 30
0.0
 11
-8.8644594687
 21
25.6820063661
 31
0.0
 40
0.6210085023
 41
-4.4106129604
 42
-4.3863185498
  0
ELLIPSE
  5
45D
100
AcDbEntity
  8
0
100
AcDbEllipse
 62
7
  6
BYLAYER
 10
27.4544336902
 20
45.0011145886
 30
0.0
 11
-7.32088786
 21
26.0940057401
 31
0.0
 40
0.6370099501
 41
1.8733598538
 42
1.8970696794
  0
ELLIPSE
  5
45E
100
AcDbEntity
  8
0
100
AcDbEllipse
 62
7
  6
BYLAYER
 10
31.0822257471
 20
37.1845510124
 30
0.0
 11
18.0318080022
 21
2.8251338045
 31
0.0
 40
0.2368573122
 41
-3.0208881632
 42
-2.9932603468
  0
ELLIPSE
  5
45F
100
AcDbEntity
  8
0
100
AcDbEllipse
 62
7
  6
BYLAYER
 10
30.4737502829
 20
37.138300206
 30
0.0
 11
18.0096666856
 21
1.42901884
 31
0.0
 40
0.2516589343
 41
-2.9103203373
 42
-2.882692521
  0
ELLIPSE
  5
460
100
AcDbEntity
  8
0
100
AcDbEllipse
 62
7
  6
BYLAYER
 10
29.8606082144
 20
37.1228430753
 30
0.0
 11
18.0028177075
 21
0.0000684496
 31
0.0
 40
0.2567722622
 41
-2.7966989504
 42
-2.769071134
  0
ELLIPSE
  5
461
100
AcDbEntity
  8
0
100
AcDbEllipse
 62
7
  6
BYLAYER
 10
30.4737502829
 20
37.138300206
 30
0.0
 11
18.0096666856
 21
1.42901884
 31
0.0
 40
0.2516589343
 41
-0.4861537991
 42
-0.4585259827
  0
ELLIPSE
  5
462
100
AcDbEntity
  8
0
100
AcDbEllipse
 62
7
  6
BYLAYER
 10
29.8606082144
 20
37.1228430753
 30
0.0
 11
18.0028177075
 21
0.0000684496
 31
0.0
 40
0.2567722622
 41
-0.3725324121
 42
-0.3449045958
  0
ELLIPSE
  5
463
100
AcDbEntity
  8
0
100
AcDbEllipse
 62
7
  6
BYLAYER
 10
29.2474659229
 20
37.1382972584
 30
0.0
 11
18.0096653509
 21
-1.4288835797
 31
0.0
 40
0.2516599011
 41
-0.2589108734
 42
-0.231283057
  0
ELLIPSE
  5
464
100
AcDbEntity
  8
0
100
AcDbEllipse
 62
7
  6
BYLAYER
 10
28.6389897917
 20
37.1845451396
 30
0.0
 11
18.031805051
 21
-2.825003036
 31
0.0
 40
0.2368591464
 41
-0.1483426281
 42
-0.1207148117
  0
ELLIPSE
  5
465
100
AcDbEntity
  8
0
100
AcDbEllipse
 62
7
  6
BYLAYER
 10
32.266669113
 20
45.0011261557
 30
0.0
 11
7.3207338731
 21
26.0940423521
 31
0.0
 40
0.63701135
 41
4.3861153649
 42
4.4098251494
  0
ELLIPSE
  5
466
100
AcDbEntity
  8
0
100
AcDbEllipse
 62
7
  6
BYLAYER
 10
32.8336792685
 20
44.8655313036
 30
0.0
 11
8.8643189549
 21
25.6820481231
 31
0.0
 40
0.6210101482
 41
-1.8968649314
 42
-1.8725721909
  0
ELLIPSE
  5
467
100
AcDbEntity
  8
0
100
AcDbEllipse
 62
7
  6
BYLAYER
 10
33.3780623352
 20
44.7019212326
 30
0.0
 11
10.2659086956
 21
25.2235236362
 31
0.0
 40
0.6026710919
 41
-1.902007014
 42
-1.8766192479
  0
ELLIPSE
  5
468
100
AcDbEntity
  8
0
100
AcDbEllipse
 62
7
  6
BYLAYER
 10
33.8956752293
 20
44.5115411144
 30
0.0
 11
11.5284295234
 21
24.7306638192
 31
0.0
 40
0.5824398058
 41
-1.9113567472
 42
-1.8853667428
  0
ELLIPSE
  5
469
100
AcDbEntity
  8
0
100
AcDbEllipse
 62
7
  6
BYLAYER
 10
34.382578604
 20
44.2958398564
 30
0.0
 11
12.6591820757
 21
24.2119041849
 31
0.0
 40
0.5606965345
 41
-1.9253264345
 42
-1.8985150577
  0
ELLIPSE
  5
46A
100
AcDbEntity
  8
0
100
AcDbEllipse
 62
7
  6
BYLAYER
 10
34.8350668306
 20
44.0564590755
 30
0.0
 11
13.667364384
 21
23.6725365236
 31
0.0
 40
0.5377493467
 41
-1.9433177004
 42
-1.915689884
  0
ELLIPSE
  5
46B
100
AcDbEntity
  8
0
100
AcDbEllipse
 62
7
  6
BYLAYER
 10
35.2496962007
 20
43.795220604
 30
0.0
 11
14.5625049619
 21
23.1155206692
 31
0.0
 40
0.5138367546
 41
-1.96413079
 42
-1.9365029736
  0
ELLIPSE
  5
46C
100
AcDbEntity
  8
0
100
AcDbEllipse
 62
7
  6
BYLAYER
 10
24.4714616489
 20
38.573687971
 30
0.0
 11
18.7870579391
 21
-11.7053460367
 31
0.0
 40
0.037285972
 41
-0.5392791425
 42
-0.5116513261
  0
ELLIPSE
  5
46D
100
AcDbEntity
  8
0
100
AcDbEllipse
 62
7
  6
BYLAYER
 10
35.6233111342
 20
43.5141126244
 30
0.0
 11
15.3536172618
 21
22.5422340672
 31
0.0
 40
0.489134948
 41
-1.988215882
 42
-1.9605880657
  0
ELLIPSE
  5
46E
100
AcDbEntity
  8
0
100
AcDbEllipse
 62
7
  6
BYLAYER
 10
24.0978467154
 20
38.8547959506
 30
0.0
 11
18.8798923112
 21
-12.592102958
 31
0.0
 40
0.0736546211
 41
-0.5989013077
 42
-0.5712734914
  0
ELLIPSE
  5
46F
100
AcDbEntity
  8
0
100
AcDbEllipse
 62
7
  6
BYLAYER
 10
35.953068196
 20
43.2152745382
 30
0.0
 11
16.0488369944
 21
21.9530613013
 31
0.0
 40
0.463766542
 41
-2.0152471489
 42
-1.9876193325
  0
ELLIPSE
  5
470
100
AcDbEntity
  8
0
100
AcDbEllipse
 62
7
  6
BYLAYER
 10
23.7680896536
 20
39.1536340368
 30
0.0
 11
18.9492021897
 21
-13.4477835904
 31
0.0
 40
0.1089749616
 41
-0.6553202292
 42
-0.6276924128
  0
ELLIPSE
  5
471
100
AcDbEntity
  8
0
100
AcDbEllipse
 62
7
  6
BYLAYER
 10
36.2364577357
 20
42.9009806836
 30
0.0
 11
16.6553458195
 21
21.3478140886
 31
0.0
 40
0.4378091494
 41
-2.0449467141
 42
-2.0173188977
  0
ELLIPSE
  5
472
100
AcDbEntity
  8
0
100
AcDbEllipse
 62
7
  6
BYLAYER
 10
23.4847001139
 20
39.4679278914
 30
0.0
 11
18.9887786108
 21
-14.2754996372
 31
0.0
 40
0.1432102539
 41
-0.7089013678
 42
-0.6812735515
  0
ELLIPSE
  5
473
100
AcDbEntity
  8
0
100
AcDbEllipse
 62
7
  6
BYLAYER
 10
36.4713229878
 20
42.5736230268
 30
0.0
 11
17.1794465584
 21
20.7260084119
 31
0.0
 40
0.4113030266
 41
-2.0770860304
 42
-2.0494582141
  0
ELLIPSE
  5
474
100
AcDbEntity
  8
0
100
AcDbEllipse
 62
7
  6
BYLAYER
 10
23.2498348618
 20
39.7952855483
 30
0.0
 11
18.9929244001
 21
-15.0776254619
 31
0.0
 40
0.1763780253
 41
-0.7599321082
 42
-0.7323042918
  0
ELLIPSE
  5
475
100
AcDbEntity
  8
0
100
AcDbEllipse
 62
7
  6
BYLAYER
 10
36.6558764859
 20
42.2356929569
 30
0.0
 11
17.6267071712
 21
20.0870335061
 31
0.0
 40
0.3842575854
 41
-2.1114842546
 42
-2.0838564382
  0
ELLIPSE
  5
476
100
AcDbEntity
  8
0
100
AcDbEllipse
 62
7
  6
BYLAYER
 10
23.0652813638
 20
40.1332156181
 30
0.0
 11
18.9563973225
 21
-15.8559649435
 31
0.0
 40
0.2085294329
 41
-0.8086327315
 42
-0.7810049152
  0
ELLIPSE
  5
477
100
AcDbEntity
  8
0
100
AcDbEllipse
 62
7
  6
BYLAYER
 10
36.7887136664
 20
41.8897623261
 30
0.0
 11
18.0021269546
 21
19.4302435813
 31
0.0
 40
0.3566568465
 41
-2.1480055342
 42
-2.1203777179
  0
ELLIPSE
  5
478
100
AcDbEntity
  8
0
100
AcDbEllipse
 62
7
  6
BYLAYER
 10
22.9324441832
 20
40.4791462489
 30
0.0
 11
18.8743374572
 21
-16.611894363
 31
0.0
 40
0.239734653
 41
-0.8551657961
 42
-0.8275379797
  0
ELLIPSE
  5
479
100
AcDbEntity
  8
0
100
AcDbEllipse
 62
7
  6
BYLAYER
 10
36.8688235582
 20
41.5384638752
 30
0.0
 11
18.3103010898
 21
18.7549958991
 31
0.0
 40
0.3284640491
 41
-2.1865563268
 42
-2.1589285104
  0
ELLIPSE
  5
47A
100
AcDbEntity
  8
0
100
AcDbEllipse
 62
7
  6
BYLAYER
 10
22.8523342914
 20
40.8304446998
 30
0.0
 11
18.7421854568
 21
-17.3464816313
 31
0.0
 40
0.2700724984
 41
-0.8996435148
 42
-0.8720156985
  0
ELLIPSE
  5
47B
100
AcDbEntity
  8
0
100
AcDbEllipse
 62
7
  6
BYLAYER
 10
36.8955964767
 20
41.1844711976
 30
0.0
 11
18.5555728824
 21
18.0606517088
 31
0.0
 40
0.2996256957
 41
-2.227083388
 42
-2.1994555716
  0
ELLIPSE
  5
47C
100
AcDbEntity
  8
0
100
AcDbEllipse
 62
7
  6
BYLAYER
 10
22.8255613729
 20
41.1844373774
 30
0.0
 11
18.5555934192
 21
-18.060584524
 31
0.0
 40
0.2996229112
 41
-0.9421331215
 42
-0.9145053051
  0
ELLIPSE
  5
47D
100
AcDbEntity
  8
0
100
AcDbEllipse
 62
7
  6
BYLAYER
 10
36.8688286637
 20
40.8304783913
 30
0.0
 11
18.7421703175
 21
17.3465507344
 31
0.0
 40
0.2700753544
 41
-2.2695728067
 42
-2.2419449904
  0
ELLIPSE
  5
47E
100
AcDbEntity
  8
0
100
AcDbEllipse
 62
7
  6
BYLAYER
 10
22.8523291859
 20
41.5384301837
 30
0.0
 11
18.3103274262
 21
-18.7549305673
 31
0.0
 40
0.3284613292
 41
-0.9826603699
 42
-0.9550325535
  0
ELLIPSE
  5
47F
100
AcDbEntity
  8
0
100
AcDbEllipse
 62
7
  6
BYLAYER
 10
36.7887238385
 20
40.4791795553
 30
0.0
 11
18.8743273077
 21
16.6119654589
 31
0.0
 40
0.2397375878
 41
-2.3140503332
 42
-2.2864225169
  0
ELLIPSE
  5
480
100
AcDbEntity
  8
0
100
AcDbEllipse
 62
7
  6
BYLAYER
 10
22.9324340111
 20
41.8897290197
 30
0.0
 11
-18.0021594973
 21
19.4301800411
 31
0.0
 40
0.3566541853
 41
-4.1628040065
 42
-4.1351761902
  0
ELLIPSE
  5
481
100
AcDbEntity
  8
0
100
AcDbEllipse
 62
7
  6
BYLAYER
 10
36.6558916473
 20
40.1332482859
 30
0.0
 11
18.9563917393
 21
15.8560381228
 31
0.0
 40
0.2085324543
 41
-2.3605831971
 42
-2.3329553807
  0
ELLIPSE
  5
482
100
AcDbEntity
  8
0
100
AcDbEllipse
 62
7
  6
BYLAYER
 10
23.0652662024
 20
42.2356602891
 30
0.0
 11
-17.6267463443
 21
20.0869716966
 31
0.0
 40
0.3842549787
 41
-4.1993254837
 42
-4.1716976673
  0
ELLIPSE
  5
483
100
AcDbEntity
  8
0
100
AcDbEllipse
 62
7
  6
BYLAYER
 10
36.471343023
 20
39.7953173289
 30
0.0
 11
18.9929229351
 21
15.0777008394
 31
0.0
 40
0.1763811406
 41
-2.4092836067
 42
-2.3816557903
  0
ELLIPSE
  5
484
100
AcDbEntity
  8
0
100
AcDbEllipse
 62
7
  6
BYLAYER
 10
23.2498148266
 20
42.5735912462
 30
0.0
 11
-17.1794928173
 21
20.7259482714
 31
0.0
 40
0.4113004718
 41
-4.2337239162
 42
-4.2060960998
  0
ELLIPSE
  5
485
100
AcDbEntity
  8
0
100
AcDbEllipse
 62
7
  6
BYLAYER
 10
36.2364824923
 20
39.4679585429
 30
0.0
 11
18.9887807834
 21
14.2755773625
 31
0.0
 40
0.1432134691
 41
-2.4603141152
 42
-2.4326862989
  0
ELLIPSE
  5
486
100
AcDbEntity
  8
0
100
AcDbEllipse
 62
7
  6
BYLAYER
 10
23.4846753573
 20
42.9009500321
 30
0.0
 11
-16.6553996655
 21
21.3477555561
 31
0.0
 40
0.437806646
 41
-4.265863456
 42
-4.2382356396
  0
ELLIPSE
  5
487
100
AcDbEntity
  8
0
100
AcDbEllipse
 62
7
  6
BYLAYER
 10
35.9530974856
 20
39.153663326
 30
0.0
 11
18.9492074789
 21
13.4478638604
 31
0.0
 40
0.1089782801
 41
-2.5138949979
 42
-2.4862671816
  0
ELLIPSE
  5
488
100
AcDbEntity
  8
0
100
AcDbEllipse
 62
7
  6
BYLAYER
 10
23.768060364
 20
43.215245249
 30
0.0
 11
-16.0488989914
 21
21.9530043226
 31
0.0
 40
0.4637640924
 41
-4.2955632641
 42
-4.2679354477
  0
ELLIPSE
  5
489
100
AcDbEntity
  8
0
100
AcDbEllipse
 62
7
  6
BYLAYER
 10
35.6233447338
 20
38.8548236545
 30
0.0
 11
18.8799001499
 21
12.5921860316
 31
0.0
 40
0.0736580424
 41
-2.5703136325
 42
-2.5426858162
  0
ELLIPSE
  5
48A
100
AcDbEntity
  8
0
100
AcDbEllipse
 62
7
  6
BYLAYER
 10
24.0978131158
 20
43.5140849205
 30
0.0
 11
-15.353688051
 21
22.5421786069
 31
0.0
 40
0.4891325577
 41
-4.322594798
 42
-4.2949669816
  0
ELLIPSE
  5
48B
100
AcDbEntity
  8
0
100
AcDbEllipse
 62
7
  6
BYLAYER
 10
35.2497338546
 20
38.5737138788
 30
0.0
 11
18.787067709
 21
11.7054322518
 31
0.0
 40
0.0372894893
 41
-2.629935472
 42
-2.6023076556
  0
ELLIPSE
  5
48C
100
AcDbEntity
  8
0
100
AcDbEllipse
 62
7
  6
BYLAYER
 10
24.471423995
 20
43.7951946962
 30
0.0
 11
-14.562585274
 21
23.1154667311
 31
0.0
 40
0.5138344329
 41
-4.346680186
 42
-4.3190523696
  0
ELLIPSE
  5
48D
100
AcDbEntity
  8
0
100
AcDbEllipse
 62
7
  6
BYLAYER
 10
26.8051584656
 20
33.320214944
 30
0.0
 11
18.7235029487
 21
6.8086693444
 31
0.0
 40
0.1505962336
 41
2.2230146346
 42
2.2501878722
  0
ELLIPSE
  5
48E
100
AcDbEntity
  8
0
100
AcDbEllipse
 62
7
  6
BYLAYER
 10
28.6051291886
 20
33.6478778001
 30
0.0
 11
18.5307473365
 21
2.9033051326
 31
0.0
 40
0.2368573122
 41
0.1483323068
 42
0.1729056924
  0
ELLIPSE
  5
48F
100
AcDbEntity
  8
0
100
AcDbEllipse
 62
7
  6
BYLAYER
 10
29.2304411422
 20
33.6954083643
 30
0.0
 11
18.5079933706
 21
1.4685597284
 31
0.0
 40
0.2516589343
 41
0.2589001326
 42
0.2860733702
  0
ELLIPSE
  5
490
100
AcDbEntity
  8
0
100
AcDbEllipse
 62
7
  6
BYLAYER
 10
30.4906567365
 20
33.6954113935
 30
0.0
 11
18.507991999
 21
-1.4684207255
 31
0.0
 40
0.2516599011
 41
2.8624342622
 42
2.8826817802
  0
ELLIPSE
  5
491
100
AcDbEntity
  8
0
100
AcDbEllipse
 62
7
  6
BYLAYER
 10
29.8605488248
 20
33.7112931931
 30
0.0
 11
18.5009548816
 21
0.0000703436
 31
0.0
 40
0.2567722622
 41
0.3725215196
 42
0.3996947572
  0
ELLIPSE
  5
492
100
AcDbEntity
  8
0
100
AcDbEllipse
 62
7
  6
BYLAYER
 10
29.8605488248
 20
33.7112931931
 30
0.0
 11
18.5009548816
 21
0.0000703436
 31
0.0
 40
0.2567722622
 41
2.7418870038
 42
2.7690602415
  0
ELLIPSE
  5
493
100
AcDbEntity
  8
0
100
AcDbEllipse
 62
7
  6
BYLAYER
 10
29.2304411422
 20
33.6954083643
 30
0.0
 11
18.5079933706
 21
1.4685597284
 31
0.0
 40
0.2516589343
 41
2.6282656169
 42
2.6554388545
  0
ELLIPSE
  5
494
100
AcDbEntity
  8
0
100
AcDbEllipse
 62
7
  6
BYLAYER
 10
28.6051291886
 20
33.6478778001
 30
0.0
 11
18.5307473365
 21
2.9033051326
 31
0.0
 40
0.2368573122
 41
2.517697791
 42
2.5448710286
  0
ELLIPSE
  5
495
100
AcDbEntity
  8
0
100
AcDbEllipse
 62
7
  6
BYLAYER
 10
27.9893719656
 20
33.5690632369
 30
0.0
 11
18.5728261791
 21
4.2787887189
 31
0.0
 40
0.2138008299
 41
2.4125555223
 42
2.43972876
  0
ELLIPSE
  5
496
100
AcDbEntity
  8
0
100
AcDbEllipse
 62
7
  6
BYLAYER
 10
27.3878557574
 20
33.459564501
 30
0.0
 11
18.6370708481
 21
5.5814961593
 31
0.0
 40
0.1843975232
 41
2.3141931039
 42
2.3413663416
  0
ELLIPSE
  5
497
100
AcDbEntity
  8
0
100
AcDbEllipse
 62
7
  6
BYLAYER
 10
30.4906567365
 20
33.6954113935
 30
0.0
 11
18.507991999
 21
-1.4684207255
 31
0.0
 40
0.2516599011
 41
0.4861430583
 42
0.5133162959
  0
ELLIPSE
  5
498
100
AcDbEntity
  8
0
100
AcDbEllipse
 62
7
  6
BYLAYER
 10
26.2457147684
 20
33.1520751001
 30
0.0
 11
18.8288810659
 21
7.9645458479
 31
0.0
 40
0.1140984205
 41
2.1387630324
 42
2.1659362701
  0
ELLIPSE
  5
499
100
AcDbEntity
  8
0
100
AcDbEllipse
 62
7
  6
BYLAYER
 10
25.7137823701
 20
32.9564246151
 30
0.0
 11
18.9474139173
 21
9.0566450658
 31
0.0
 40
0.0762398657
 41
2.0608289001
 42
2.0880021377
  0
ELLIPSE
  5
49A
100
AcDbEntity
  8
0
100
AcDbEllipse
 62
7
  6
BYLAYER
 10
25.2134095975
 20
32.7347525072
 30
0.0
 11
19.0718244199
 21
10.0932285554
 31
0.0
 40
0.0379900006
 41
1.9884785299
 42
2.0156517675
  0
ELLIPSE
  5
49B
100
AcDbEntity
  8
0
100
AcDbEllipse
 62
7
  6
BYLAYER
 10
31.1159693755
 20
33.6478838354
 30
0.0
 11
18.5307443036
 21
-2.9031707458
 31
0.0
 40
0.2368591464
 41
0.5967113036
 42
0.6238845412
  0
ELLIPSE
  5
49C
100
AcDbEntity
  8
0
100
AcDbEllipse
 62
7
  6
BYLAYER
 10
34.5077021362
 20
32.734774848
 30
0.0
 11
19.071812517
 21
-10.0931320432
 31
0.0
 40
0.0379936459
 41
1.1259342254
 42
1.153107463
  0
ELLIPSE
  5
49D
100
AcDbEntity
  8
0
100
AcDbEllipse
 62
7
  6
BYLAYER
 10
34.0073261665
 20
32.9564445503
 30
0.0
 11
18.947402204
 21
-9.0565436374
 31
0.0
 40
0.0762435095
 41
1.0535833578
 42
1.0807565954
  0
ELLIPSE
  5
49E
100
AcDbEntity
  8
0
100
AcDbEllipse
 62
7
  6
BYLAYER
 10
33.4753909465
 20
33.1520924781
 30
0.0
 11
18.8288702761
 21
-7.9644387304
 31
0.0
 40
0.1141019862
 41
0.975648657
 42
1.0028218946
  0
ELLIPSE
  5
49F
100
AcDbEntity
  8
0
100
AcDbEllipse
 62
7
  6
BYLAYER
 10
32.9159448243
 20
33.3202296325
 30
0.0
 11
18.7234937225
 21
-6.8085557548
 31
0.0
 40
0.1505996117
 41
0.8913964195
 42
0.9185696571
  0
ELLIPSE
  5
4A0
100
AcDbEntity
  8
0
100
AcDbEllipse
 62
7
  6
BYLAYER
 10
32.3332455227
 20
33.4595763882
 30
0.0
 11
18.6370636329
 21
-5.5813754858
 31
0.0
 40
0.1844005682
 41
0.8002172691
 42
0.8273905067
  0
ELLIPSE
  5
4A1
100
AcDbEntity
  8
0
100
AcDbEllipse
 62
7
  6
BYLAYER
 10
31.7317277352
 20
33.5690722324
 30
0.0
 11
18.5728211333
 21
-4.2786608254
 31
0.0
 40
0.2138033646
 41
0.7018541713
 42
0.729027409
  0
ELLIPSE
  5
4A2
100
AcDbEntity
  8
0
100
AcDbEllipse
 62
7
  6
BYLAYER
 10
23.3082798277
 20
27.7732747713
 30
0.0
 11
17.1161985057
 21
21.9385071654
 31
0.0
 40
0.4378091494
 41
-1.2998927824
 42
-1.2727195447
  0
ELLIPSE
  5
4A3
100
AcDbEntity
  8
0
100
AcDbEllipse
 62
7
  6
BYLAYER
 10
28.0397541082
 20
45.1076650771
 30
0.0
 11
-5.6400801825
 21
26.4435694741
 31
0.0
 40
0.6501847774
 41
1.8788368573
 42
1.9022533918
  0
ELLIPSE
  5
4A4
100
AcDbEntity
  8
0
100
AcDbEllipse
 62
7
  6
BYLAYER
 10
29.2474075667
 20
45.230608369
 30
0.0
 11
-1.9439688703
 21
26.8826042442
 31
0.0
 40
0.6661577189
 41
-1.9577916419
 42
-1.9301638255
  0
ELLIPSE
  5
4A5
100
AcDbEntity
  8
0
100
AcDbEllipse
 62
7
  6
BYLAYER
 10
28.6389321025
 20
45.1843575626
 30
0.0
 11
-3.8379787265
 21
26.7123776565
 31
0.0
 40
0.6600434409
 41
1.8884616917
 42
1.916089508
  0
ELLIPSE
  5
4A6
100
AcDbEntity
  8
0
100
AcDbEllipse
 62
7
  6
BYLAYER
 10
29.8605496352
 20
45.2460654997
 30
0.0
 11
-0.0000931506
 21
26.940994413
 31
0.0
 40
0.6682313738
 41
-1.9433239969
 42
-1.9156961805
  0
ELLIPSE
  5
4A7
100
AcDbEntity
  8
0
100
AcDbEllipse
 62
7
  6
BYLAYER
 10
31.116028661
 20
25.4267169545
 30
0.0
 11
-3.944175429
 21
27.4515079713
 31
0.0
 40
0.6600434409
 41
5.0576821616
 42
5.063849206
  0
ELLIPSE
  5
4A8
100
AcDbEntity
  8
0
100
AcDbEllipse
 62
7
  6
BYLAYER
 10
30.4736919267
 20
45.2306113167
 30
0.0
 11
1.9437850158
 21
26.882615305
 31
0.0
 40
0.6661581128
 41
-1.9288562684
 42
-1.901228452
  0
ELLIPSE
  5
4A9
100
AcDbEntity
  8
0
100
AcDbEllipse
 62
7
  6
BYLAYER
 10
31.0821680579
 20
45.1843634354
 30
0.0
 11
3.8378018114
 21
26.7123988629
 31
0.0
 40
0.6600442089
 41
4.3670947111
 42
4.3947225275
  0
ELLIPSE
  5
4AA
100
AcDbEntity
  8
0
100
AcDbEllipse
 62
7
  6
BYLAYER
 10
29.2474075667
 20
45.230608369
 30
0.0
 11
-1.9439688703
 21
26.8826042442
 31
0.0
 40
0.6661577189
 41
-4.3819581801
 42
-4.3543303638
  0
ELLIPSE
  5
4AB
100
AcDbEntity
  8
0
100
AcDbEllipse
 62
7
  6
BYLAYER
 10
30.4907167074
 20
25.3791863903
 30
0.0
 11
-1.9977584034
 21
27.6264447212
 31
0.0
 40
0.6661577189
 41
-1.2127377102
 42
-1.1855644726
  0
ELLIPSE
  5
4AC
100
AcDbEntity
  8
0
100
AcDbEllipse
 62
7
  6
BYLAYER
 10
29.8605496352
 20
45.2460654997
 30
0.0
 11
-0.0000931506
 21
26.940994413
 31
0.0
 40
0.6682313738
 41
-4.3674905351
 42
-4.3398627188
  0
ELLIPSE
  5
4AD
100
AcDbEntity
  8
0
100
AcDbEllipse
 62
7
  6
BYLAYER
 10
29.8606090248
 20
25.3633015615
 30
0.0
 11
-0.0000957281
 21
27.6864505434
 31
0.0
 40
0.6682313738
 41
-1.1982700652
 42
-1.1710968275
  0
ELLIPSE
  5
4AE
100
AcDbEntity
  8
0
100
AcDbEllipse
 62
7
  6
BYLAYER
 10
29.2305011132
 20
25.3791833611
 30
0.0
 11
1.9975694617
 21
27.6264560881
 31
0.0
 40
0.6661581128
 41
1.2077212792
 42
1.2127363852
  0
ELLIPSE
  5
4AF
100
AcDbEntity
  8
0
100
AcDbEllipse
 62
7
  6
BYLAYER
 10
31.6813471583
 20
45.1076738304
 30
0.0
 11
5.6399136589
 21
26.4435992748
 31
0.0
 40
0.6501858838
 41
4.3809312613
 42
4.4043477171
  0
ELLIPSE
  5
4B0
100
AcDbEntity
  8
0
100
AcDbEllipse
 62
7
  6
BYLAYER
 10
29.8606090248
 20
25.3633015615
 30
0.0
 11
-0.0000957281
 21
27.6864505434
 31
0.0
 40
0.6682313738
 41
1.1710954191
 42
1.1982686567
  0
ELLIPSE
  5
4B1
100
AcDbEntity
  8
0
100
AcDbEllipse
 62
7
  6
BYLAYER
 10
30.4907167074
 20
25.3791863903
 30
0.0
 11
-1.9977584034
 21
27.6264447212
 31
0.0
 40
0.6661577189
 41
1.1566277741
 42
1.1838010117
  0
ELLIPSE
  5
4B2
100
AcDbEntity
  8
0
100
AcDbEllipse
 62
7
  6
BYLAYER
 10
31.116028661
 20
25.4267169545
 30
0.0
 11
-3.944175429
 21
27.4515079713
 31
0.0
 40
0.6600434409
 41
1.1438623387
 42
1.1710355763
  0
ELLIPSE
  5
4B3
100
AcDbEntity
  8
0
100
AcDbEllipse
 62
7
  6
BYLAYER
 10
31.731785884
 20
25.5055315177
 30
0.0
 11
-5.7961409531
 21
27.1752618783
 31
0.0
 40
0.6501847774
 41
1.1342375043
 42
1.161410742
  0
ELLIPSE
  5
4B4
100
AcDbEntity
  8
0
100
AcDbEllipse
 62
7
  6
BYLAYER
 10
29.2305011132
 20
25.3791833611
 30
0.0
 11
1.9975694617
 21
27.6264560881
 31
0.0
 40
0.6661581128
 41
-1.1838023367
 42
-1.156629099
  0
ELLIPSE
  5
4B5
100
AcDbEntity
  8
0
100
AcDbEllipse
 62
7
  6
BYLAYER
 10
32.3333020922
 20
25.6150302536
 30
0.0
 11
-7.5234565051
 21
26.8160257312
 31
0.0
 40
0.6370099501
 41
1.1287605008
 42
1.1559337384
  0
ELLIPSE
  5
4B6
100
AcDbEntity
  8
0
100
AcDbEllipse
 62
7
  6
BYLAYER
 10
32.915999384
 20
25.7543798106
 30
0.0
 11
-9.1097386723
 21
26.3926263526
 31
0.0
 40
0.6210085023
 41
1.1279729938
 42
1.1551462314
  0
ELLIPSE
  5
4B7
100
AcDbEntity
  8
0
100
AcDbEllipse
 62
7
  6
BYLAYER
 10
33.4754430812
 20
25.9225196545
 30
0.0
 11
-10.5500964627
 21
25.9214106128
 31
0.0
 40
0.6026692452
 41
1.1320205092
 42
1.1591937468
  0
ELLIPSE
  5
4B8
100
AcDbEntity
  8
0
100
AcDbEllipse
 62
7
  6
BYLAYER
 10
34.0073754795
 20
26.1181701395
 30
0.0
 11
-11.8475378594
 21
25.4149104908
 31
0.0
 40
0.5824377977
 41
1.1407684401
 42
1.1679416777
  0
ELLIPSE
  5
4B9
100
AcDbEntity
  8
0
100
AcDbEllipse
 62
7
  6
BYLAYER
 10
34.5077482521
 20
26.3398422473
 30
0.0
 11
-13.0095657996
 21
24.8817945648
 31
0.0
 40
0.560694398
 41
1.1539171577
 42
1.1810903953
  0
ELLIPSE
  5
4BA
100
AcDbEntity
  8
0
100
AcDbEllipse
 62
7
  6
BYLAYER
 10
34.97275326
 20
26.5858489194
 30
0.0
 11
-14.0456329197
 21
24.3275007799
 31
0.0
 40
0.5377471078
 41
1.1710923495
 42
1.1982655871
  0
ELLIPSE
  5
4BB
100
AcDbEntity
  8
0
100
AcDbEllipse
 62
7
  6
BYLAYER
 10
35.3988515345
 20
26.8543178963
 30
0.0
 11
-14.965531368
 21
23.7550706788
 31
0.0
 40
0.5138344329
 41
1.1919057683
 42
1.2190790059
  0
ELLIPSE
  5
4BC
100
AcDbEntity
  8
0
100
AcDbEllipse
 62
7
  6
BYLAYER
 10
24.3223063151
 20
32.2202768583
 30
0.0
 11
19.3069050462
 21
12.0293210474
 31
0.0
 40
0.0372894893
 41
-1.8848815402
 42
-1.8577083026
  0
ELLIPSE
  5
4BD
100
AcDbEntity
  8
0
100
AcDbEllipse
 62
7
  6
BYLAYER
 10
35.7828002103
 20
27.1432059671
 30
0.0
 11
-15.7785239241
 21
23.1659196974
 31
0.0
 40
0.4891325577
 41
1.2159911562
 42
1.2431643939
  0
ELLIPSE
  5
4BE
100
AcDbEntity
  8
0
100
AcDbEllipse
 62
7
  6
BYLAYER
 10
23.9383576393
 20
31.9313887874
 30
0.0
 11
19.4023061566
 21
12.9406112652
 31
0.0
 40
0.0736580424
 41
-1.8252597008
 42
-1.7980864632
  0
ELLIPSE
  5
4BF
100
AcDbEntity
  8
0
100
AcDbEllipse
 62
7
  6
BYLAYER
 10
36.1216772062
 20
27.4503145192
 30
0.0
 11
-16.4929713206
 21
22.5604429866
 31
0.0
 40
0.4637640924
 41
1.2430226901
 42
1.2701959278
  0
ELLIPSE
  5
4C0
100
AcDbEntity
  8
0
100
AcDbEllipse
 62
7
  6
BYLAYER
 10
23.5994806434
 20
31.6242802354
 30
0.0
 11
19.4735312164
 21
13.8199656619
 31
0.0
 40
0.1089782801
 41
-1.7688410662
 42
-1.7416678286
  0
ELLIPSE
  5
4C1
100
AcDbEntity
  8
0
100
AcDbEllipse
 62
7
  6
BYLAYER
 10
36.4129034636
 20
27.7733062709
 30
0.0
 11
-17.1162538417
 21
21.9384470133
 31
0.0
 40
0.437806646
 41
1.2727224983
 42
1.2998957359
  0
ELLIPSE
  5
4C2
100
AcDbEntity
  8
0
100
AcDbEllipse
 62
7
  6
BYLAYER
 10
23.308254386
 20
31.3012884837
 30
0.0
 11
19.5141995124
 21
14.6705819602
 31
0.0
 40
0.1432134691
 41
-1.7152601835
 42
-1.6880869459
  0
ELLIPSE
  5
4C3
100
AcDbEntity
  8
0
100
AcDbEllipse
 62
7
  6
BYLAYER
 10
36.6542625748
 20
28.1097230601
 30
0.0
 11
-17.6548486279
 21
21.2994343484
 31
0.0
 40
0.4113004718
 41
1.304862038
 42
1.3320352757
  0
ELLIPSE
  5
4C4
100
AcDbEntity
  8
0
100
AcDbEllipse
 62
7
  6
BYLAYER
 10
23.0668952748
 20
30.9648716945
 30
0.0
 11
19.5184562773
 21
15.4949001584
 31
0.0
 40
0.1763811406
 41
-1.664229675
 42
-1.6370564374
  0
ELLIPSE
  5
4C5
100
AcDbEntity
  8
0
100
AcDbEllipse
 62
7
  6
BYLAYER
 10
36.8439176514
 20
28.4570045518
 30
0.0
 11
-18.1144776404
 21
20.6427773199
 31
0.0
 40
0.3842549787
 41
1.3392604705
 42
1.3664337082
  0
ELLIPSE
  5
4C6
100
AcDbEntity
  8
0
100
AcDbEllipse
 62
7
  6
BYLAYER
 10
22.8772401982
 20
30.6175902027
 30
0.0
 11
19.4809142649
 21
16.2947740002
 31
0.0
 40
0.2085324543
 41
-1.6155292654
 42
-1.5883560277
  0
ELLIPSE
  5
4C7
100
AcDbEntity
  8
0
100
AcDbEllipse
 62
7
  6
BYLAYER
 10
36.9804253036
 20
28.8125077243
 30
0.0
 11
-18.5002784588
 21
19.9678122682
 31
0.0
 40
0.3566541853
 41
1.3757819477
 42
1.4029551853
  0
ELLIPSE
  5
4C8
100
AcDbEntity
  8
0
100
AcDbEllipse
 62
7
  6
BYLAYER
 10
22.740732546
 20
30.2620870303
 30
0.0
 11
19.3965791141
 21
17.0716178125
 31
0.0
 40
0.2397375878
 41
-1.5689964015
 42
-1.5418231639
  0
ELLIPSE
  5
4C9
100
AcDbEntity
  8
0
100
AcDbEllipse
 62
7
  6
BYLAYER
 10
37.0627466257
 20
29.1735269836
 30
0.0
 11
18.8169733806
 21
-19.2738786712
 31
0.0
 40
0.3284613292
 41
-1.7272597229
 42
-1.7000864852
  0
ELLIPSE
  5
4CA
100
AcDbEntity
  8
0
100
AcDbEllipse
 62
7
  6
BYLAYER
 10
22.6584112239
 20
29.901067771
 30
0.0
 11
19.2607653458
 21
17.8265290302
 31
0.0
 40
0.2700753544
 41
-1.524518875
 42
-1.4973456374
  0
ELLIPSE
  5
4CB
100
AcDbEntity
  8
0
100
AcDbEllipse
 62
7
  6
BYLAYER
 10
37.0902551029
 20
29.5373147553
 30
0.0
 11
19.069025873
 21
-18.5603201034
 31
0.0
 40
0.2996229112
 41
-1.6867324744
 42
-1.6595592368
  0
ELLIPSE
  5
4CC
100
AcDbEntity
  8
0
100
AcDbEllipse
 62
7
  6
BYLAYER
 10
22.6309027467
 20
29.5372799993
 30
0.0
 11
19.0690047679
 21
18.5603891472
 31
0.0
 40
0.2996256957
 41
-1.4820294562
 42
-1.4548562186
  0
ELLIPSE
  5
4CD
100
AcDbEntity
  8
0
100
AcDbEllipse
 62
7
  6
BYLAYER
 10
37.0627413789
 20
29.9011023947
 30
0.0
 11
19.260780904
 21
-17.826458015
 31
0.0
 40
0.2700724984
 41
-1.6442428678
 42
-1.6170696302
  0
ELLIPSE
  5
4CE
100
AcDbEntity
  8
0
100
AcDbEllipse
 62
7
  6
BYLAYER
 10
22.6584164707
 20
29.1734923599
 30
0.0
 11
18.8169463156
 21
19.2739458107
 31
0.0
 40
0.3284640491
 41
-1.4415023951
 42
-1.4143291575
  0
ELLIPSE
  5
4CF
100
AcDbEntity
  8
0
100
AcDbEllipse
 62
7
  6
BYLAYER
 10
36.9804148499
 20
30.2621212583
 30
0.0
 11
19.3965895444
 21
-17.0715447493
 31
0.0
 40
0.239734653
 41
-1.5997651491
 42
-1.5725919115
  0
ELLIPSE
  5
4D0
100
AcDbEntity
  8
0
100
AcDbEllipse
 62
7
  6
BYLAYER
 10
22.7407429997
 20
28.8124734963
 30
0.0
 11
18.5002450156
 21
19.9678775665
 31
0.0
 40
0.3566568465
 41
-1.4029516025
 42
-1.3757783649
  0
ELLIPSE
  5
4D1
100
AcDbEntity
  8
0
100
AcDbEllipse
 62
7
  6
BYLAYER
 10
36.8439020705
 20
30.6176237745
 30
0.0
 11
19.4809200026
 21
-16.2946987961
 31
0.0
 40
0.2085294329
 41
-1.5532320845
 42
-1.5260588469
  0
ELLIPSE
  5
4D2
100
AcDbEntity
  8
0
100
AcDbEllipse
 62
7
  6
BYLAYER
 10
22.8772557791
 20
28.4569709801
 30
0.0
 11
18.1144373833
 21
20.6428408397
 31
0.0
 40
0.3842575854
 41
-1.3664303228
 42
-1.3392570852
  0
ELLIPSE
  5
4D3
100
AcDbEntity
  8
0
100
AcDbEllipse
 62
7
  6
BYLAYER
 10
36.6542419852
 20
30.9649043544
 30
0.0
 11
19.5184577828
 21
-15.4948226953
 31
0.0
 40
0.1763780253
 41
-1.5045314612
 42
-1.4773582235
  0
ELLIPSE
  5
4D4
100
AcDbEntity
  8
0
100
AcDbEllipse
 62
7
  6
BYLAYER
 10
23.0669158644
 20
28.1096904001
 30
0.0
 11
17.6548010891
 21
21.299496153
 31
0.0
 40
0.4113030266
 41
-1.3320320987
 42
-1.3048588611
  0
ELLIPSE
  5
4D5
100
AcDbEntity
  8
0
100
AcDbEllipse
 62
7
  6
BYLAYER
 10
36.4128780219
 20
31.3013199833
 30
0.0
 11
19.5141972798
 21
-14.6705020842
 31
0.0
 40
0.1432102539
 41
-1.4535007208
 42
-1.4263274832
  0
ELLIPSE
  5
4D6
100
AcDbEntity
  8
0
100
AcDbEllipse
 62
7
  6
BYLAYER
 10
36.1216471062
 20
31.624310335
 30
0.0
 11
19.4735257808
 21
-13.8198831708
 31
0.0
 40
0.1089749616
 41
-1.3999195822
 42
-1.3727463445
  0
ELLIPSE
  5
4D7
100
AcDbEntity
  8
0
100
AcDbEllipse
 62
7
  6
BYLAYER
 10
23.5995107435
 20
27.4502844196
 30
0.0
 11
16.4929076082
 21
22.5605015419
 31
0.0
 40
0.463766542
 41
-1.2701932172
 42
-1.2430199795
  0
ELLIPSE
  5
4D8
100
AcDbEntity
  8
0
100
AcDbEllipse
 62
7
  6
BYLAYER
 10
35.782765681
 20
31.9314172579
 30
0.0
 11
19.4022981011
 21
-12.9405258929
 31
0.0
 40
0.0736546211
 41
-1.3435006607
 42
-1.3163274231
  0
ELLIPSE
  5
4D9
100
AcDbEntity
  8
0
100
AcDbEllipse
 62
7
  6
BYLAYER
 10
23.9383921686
 20
27.1431774967
 30
0.0
 11
15.7784511761
 21
23.1659766923
 31
0.0
 40
0.489134948
 41
-1.2431619503
 42
-1.2159887127
  0
ELLIPSE
  5
4DA
100
AcDbEntity
  8
0
100
AcDbEllipse
 62
7
  6
BYLAYER
 10
35.3988128387
 20
32.2203034829
 30
0.0
 11
19.3068950059
 21
-12.0292324467
 31
0.0
 40
0.037285972
 41
-1.2838784954
 42
-1.2567052578
  0
ELLIPSE
  5
4DB
100
AcDbEntity
  8
0
100
AcDbEllipse
 62
7
  6
BYLAYER
 10
24.3223450109
 20
26.8542912717
 30
0.0
 11
14.9654488337
 21
23.7551261094
 31
0.0
 40
0.5138367546
 41
-1.2190768583
 42
-1.1919036207
  0
ELLIPSE
  5
4DC
100
AcDbEntity
  8
0
100
AcDbEllipse
 62
7
  6
BYLAYER
 10
28.6051884741
 20
25.4267109192
 30
0.0
 11
3.9439936187
 21
27.4515297645
 31
0.0
 40
0.6600442089
 41
-1.1710366643
 42
-1.1438634267
  0
ELLIPSE
  5
4DD
100
AcDbEntity
  8
0
100
AcDbEllipse
 62
7
  6
BYLAYER
 10
24.7484471574
 20
26.5858243432
 30
0.0
 11
14.0455397553
 21
24.3275545679
 31
0.0
 40
0.5377493467
 41
-1.1982637687
 42
-1.171090531
  0
ELLIPSE
  5
4DE
100
AcDbEntity
  8
0
100
AcDbEllipse
 62
7
  6
BYLAYER
 10
25.2134557134
 20
26.3398199066
 30
0.0
 11
13.0094610869
 21
24.8818465088
 31
0.0
 40
0.5606965345
 41
-1.1810889424
 42
-1.1539157047
  0
ELLIPSE
  5
4DF
100
AcDbEntity
  8
0
100
AcDbEllipse
 62
7
  6
BYLAYER
 10
25.7138316831
 20
26.1181502043
 30
0.0
 11
11.8474206613
 21
25.4149601993
 31
0.0
 40
0.5824398058
 41
-1.1679406275
 42
-1.1407673899
  0
ELLIPSE
  5
4E0
100
AcDbEntity
  8
0
100
AcDbEllipse
 62
7
  6
BYLAYER
 10
26.2457669031
 20
25.9225022765
 30
0.0
 11
10.5499659376
 21
25.9214574258
 31
0.0
 40
0.6026710919
 41
-1.1591931326
 42
-1.1320198949
  0
ELLIPSE
  5
4E1
100
AcDbEntity
  8
0
100
AcDbEllipse
 62
7
  6
BYLAYER
 10
26.8052130254
 20
25.7543651221
 30
0.0
 11
9.1095942705
 21
26.392669265
 31
0.0
 40
0.6210101482
 41
-1.1551460756
 42
-1.1279728379
  0
ELLIPSE
  5
4E2
100
AcDbEntity
  8
0
100
AcDbEllipse
 62
7
  6
BYLAYER
 10
27.3879123269
 20
25.6150183663
 30
0.0
 11
7.5232982574
 21
26.8160633562
 31
0.0
 40
0.63701135
 41
-1.1559340424
 42
-1.1287608048
  0
ELLIPSE
  5
4E3
100
AcDbEntity
  8
0
100
AcDbEllipse
 62
7
  6
BYLAYER
 10
27.9894301144
 20
25.5055225222
 30
0.0
 11
5.7959698218
 21
27.1752925036
 31
0.0
 40
0.6501858838
 41
-1.1614114747
 42
-1.1342382371
  0
ENDSEC
  0
SECTION
  2
OBJECTS
  0
DICTIONARY
  5
C
100
AcDbDictionary
280
0
281
1
  3
ACAD_GROUP
350
D
  3
ACAD_MLINESTYLE
350
17
  3
ACAD_LAYOUT
350
1A
  3
ACAD_PLOTSETTINGS
350
19
  3
ACAD_PLOTSTYLENAME
350
E
  0
DICTIONARY
  5
D
102
{ACAD_REACTORS
330
C
102
}
100
AcDbDictionary
280
0
281
1
  0
ACDBDICTIONARYWDFLT
  5
E
102
{ACAD_REACTORS
330
C
102
}
100
AcDbDictionary
281
1
  3
Normal
350
F
100
AcDbDictionaryWithDefault
340
F
  0
DICTIONARY
  5
17
102
{ACAD_REACTORS
330
C
102
}
100
AcDbDictionary
280
0
281
1
  3
Standard
350
18
  0
DICTIONARY
  5
19
102
{ACAD_REACTORS
330
C
102
}
100
AcDbDictionary
281
1
  0
DICTIONARY
  5
1A
102
{ACAD_REACTORS
330
C
102
}
100
AcDbDictionary
281
1
  3
Model
350
4E4
  3
Layout1
350
4E5
  0
ACDBPLACEHOLDER
  5
F
102
{ACAD_REACTORS
330
E
102
}
  0
MLINESTYLE
  5
18
102
{ACAD_REACTORS
330
17
102
}
100
AcDbMlineStyle
  2
STANDARD
 70
0
  3

 62
256
 51
90.0
 52
90.0
 71
2
 49
0.5
 62
256
  6
BYLAYER
 49
-0.5
 62
256
  6
BYLAYER
  0
LAYOUT
  5
4E4
102
{ACAD_REACTORS
330
1A
102
}
100
AcDbPlotSettings
  1

  2
none_device
  4

  6

 40
0.0
 41
0.0
 42
0.0
 43
0.0
 44
210.0
 45
297.0
 46
0.0
 47
0.0
 48
0.0
 49
0.0
140
0.0
141
0.0
142
1.0
143
1.0
 70
1024
 72
1
 73
0
 74
0
  7

 75
0
147
1.0
148
0.0
149
0.0
100
AcDbLayout
  1
Model
 70
0
 71
0
 10
0.0
 20
0.0
 11
210.0
 21
297.0
 12
0.0
 22
0.0
 32
0.0
 14
0.0
 24
0.0
 34
0.0
 15
0.0
 25
0.0
 35
0.0
146
0.0
 13
0.0
 23
0.0
 33
0.0
 16
1.0
 26
0.0
 36
0.0
 17
0.0
 27
1.0
 37
0.0
 76
0
330
210
345
0
346
0
  0
LAYOUT
  5
4E5
102
{ACAD_REACTORS
330
1A
102
}
100
AcDbPlotSettings
  1

  2
none_device
  4

  6

 40
0.0
 41
0.0
 42
0.0
 43
0.0
 44
210.0
 45
297.0
 46
0.0
 47
0.0
 48
0.0
 49
0.0
140
0.0
141
0.0
142
1.0
143
1.0
 70
0
 72
1
 73
0
 74
0
  7

 75
0
147
1.0
148
0.0
149
0.0
100
AcDbLayout
  1
Layout1
 70
0
 71
1
 10
0.0
 20
0.0
 11
210.0
 21
297.0
 12
0.0
 22
0.0
 32
0.0
 14
0.0
 24
0.0
 34
0.0
 15
0.0
 25
0.0
 35
0.0
146
0.0
 13
0.0
 23
0.0
 33
0.0
 16
1.0
 26
0.0
 36
0.0
 17
0.0
 27
1.0
 37
0.0
 76
0
330
211
345
0
346
0
  0
ENDSEC
  0
EOF
