999
DXF file: C:\Users\sesa63760\Dev\_Creo\CAD\MCADUE0002235_3D-CAD\drw0001_7.dxf
999
Pro/ENGINEER 2019471 by Parametric Technology Corporation
  0
SECTION
  2
HEADER
  9
$ACADVER
  1
AC1024
  9
$DWGCODEPAGE
  3
ANSI_1252
  9
$EXTMAX
 10
1264.0629489645
 20
1787.7461706783
 30
0.0
  9
$EXTMIN
 10
0.0
 20
0.0
 30
0.0
  9
$LIMMIN
 10
0.0
 20
0.0
  9
$LIMMAX
 10
1264.0629489645
 20
1787.7461706783
  9
$VIEWCTR
 10
632.0314744822
 20
893.8730853392
  9
$VIEWSIZE
 40
1787.7461706783
  9
$CLAYER
  8
0
  9
$LTSCALE
 40
116.5345651998
  9
$CELTYPE
  6
BYLAYER
  9
$DIMSCALE
 40
1.0
  9
$DIMASZ
 40
15.0483684401
  9
$DIMEXO
 40
1.0
  9
$DIMDLI
 40
80.5147905017
  9
$DIMEXE
 40
1.0
  9
$DIMCEN
 40
19.0692924872
  9
$DIMLFAC
 40
1.0
  9
$DIMBLK
  1
_FILLED
  9
$DIMALT
 70
0
  9
$DIMALTF
 40
0.0393700787
  9
$DIMTXT
 40
21.0677158161
  9
$DIMTOL
 70
1
  9
$DIMLIM
 70
0
  9
$DIMTFAC
 40
1.0
  9
$DIMTP
 40
0.01
  9
$DIMTM
 40
0.01
  9
$DIMGAP
 40
0.625
  9
$DIMDSEP
 70
46
  9
$AUNITS
 70
0
  9
$PDMODE
 70
3
  9
$PDSIZE
 40
0.3125
  9
$HANDSEED
  5
441
  9
$TILEMODE
 70
1
  9
$MEASUREMENT
 70
1
  9
$INSUNITS
 70
4
  0
ENDSEC
  0
SECTION
  2
CLASSES
  0
CLASS
  1
ACDBDICTIONARYWDFLT
  2
AcDbDictionaryWithDefault
  3
AutoCAD 2000
 90
0
 91
1
280
0
281
0
  0
CLASS
  1
ACDBPLACEHOLDER
  2
AcDbPlaceHolder
  3
AutoCAD 2000
 90
0
 91
1
280
0
281
0
  0
CLASS
  1
LAYOUT
  2
AcDbLayout
  3
AutoCAD 2000
 90
0
 91
0
280
0
281
0
  0
ENDSEC
  0
SECTION
  2
TABLES
  0
TABLE
  2
VPORT
  5
8
100
AcDbSymbolTable
 70
2
  0
VPORT
  5
1F4
100
AcDbSymbolTableRecord
100
AcDbViewportTableRecord
  2
*ACTIVE
 70
0
 10
0.0
 20
0.0
 11
1.0
 21
1.0
 12
632.0314744822
 22
893.8730853392
 13
0.0
 23
0.0
 14
1.0
 24
1.0
 15
0.0
 25
0.0
 16
0.0
 26
0.0
 36
1.0
 17
0.0
 27
0.0
 37
0.0
 40
1787.7461706783
 41
0.7070707071
 42
50.0
 43
0.0
 44
0.0
 50
0.0
 51
0.0
 71
0
 72
100
 73
1
 74
1
 75
0
 76
0
 77
0
 78
0
  0
ENDTAB
  0
TABLE
  2
LTYPE
  5
5
100
AcDbSymbolTable
 70
6
  0
LTYPE
  5
14
100
AcDbSymbolTableRecord
100
AcDbLinetypeTableRecord
  2
BYBLOCK
 70
0
  3

 72
65
 73
0
 40
0.0
  0
LTYPE
  5
15
100
AcDbSymbolTableRecord
100
AcDbLinetypeTableRecord
  2
BYLAYER
 70
0
  3

 72
65
 73
0
 40
0.0
  0
LTYPE
  5
16
100
AcDbSymbolTableRecord
100
AcDbLinetypeTableRecord
  2
CONTINUOUS
 70
64
  3
Solid line
 72
65
 73
0
 40
0.0
  0
LTYPE
  5
1F5
100
AcDbSymbolTableRecord
100
AcDbLinetypeTableRecord
  2
CENTER
 70
64
  3
____ _ ____ _ ____ _ ____ _ ____ _ ____ _ ____
 72
65
 73
4
 40
0.6
 49
0.375
 74
0
 49
-0.075
 74
0
 49
0.075
 74
0
 49
-0.075
 74
0
  0
LTYPE
  5
1F6
100
AcDbSymbolTableRecord
100
AcDbLinetypeTableRecord
  2
HIDDEN
 70
64
  3
- - - - - - - - - - - - - - - - - - - -
 72
65
 73
2
 40
0.2
 49
0.1
 74
0
 49
-0.1
 74
0
  0
LTYPE
  5
1F7
100
AcDbSymbolTableRecord
100
AcDbLinetypeTableRecord
  2
PHANTOM
 70
64
  3
_____ _ _ _____ _ _ _____ _ _ _____
 72
65
 73
6
 40
0.8
 49
0.45
 74
0
 49
-0.05
 74
0
 49
0.1
 74
0
 49
-0.05
 74
0
 49
0.1
 74
0
 49
-0.05
 74
0
  0
LTYPE
  5
1F8
100
AcDbSymbolTableRecord
100
AcDbLinetypeTableRecord
  2
DOT
 70
64
  3
. . . . . . . . . . . . . . . . . . . .
 72
65
 73
2
 40
0.2
 49
0.1
 74
0
 49
-0.1
 74
0
  0
LTYPE
  5
1F9
100
AcDbSymbolTableRecord
100
AcDbLinetypeTableRecord
  2
DASHED
 70
64
  3
- - - - - - - - - - - - - - - - - - - -
 72
65
 73
2
 40
0.2
 49
0.1
 74
0
 49
-0.1
 74
0
  0
ENDTAB
  0
TABLE
  2
LAYER
  5
2
100
AcDbSymbolTable
 70
36
  0
LAYER
  5
10
100
AcDbSymbolTableRecord
100
AcDbLayerTableRecord
  2
0
 70
0
 62
7
  6
CONTINUOUS
370
-3
390
F
  0
LAYER
  5
1FA
100
AcDbSymbolTableRecord
100
AcDbLayerTableRecord
  2
DEFAULT_1
 70
0
 62
7
  6
CENTER
370
-3
390
F
  0
LAYER
  5
1FB
100
AcDbSymbolTableRecord
100
AcDbLayerTableRecord
  2
DEFAULT_2
 70
0
 62
8
  6
HIDDEN
370
-3
390
F
  0
LAYER
  5
1FC
100
AcDbSymbolTableRecord
100
AcDbLayerTableRecord
  2
DEFAULT_3
 70
0
 62
7
  6
PHANTOM
370
-3
390
F
  0
LAYER
  5
1FD
100
AcDbSymbolTableRecord
100
AcDbLayerTableRecord
  2
00_COMPONENTS
 70
0
 62
7
  6
CONTINUOUS
370
-3
390
F
  0
LAYER
  5
1FE
100
AcDbSymbolTableRecord
100
AcDbLayerTableRecord
  2
01_1_DEFAULT_DATUMS
 70
0
 62
7
  6
CONTINUOUS
370
-3
390
F
  0
LAYER
  5
1FF
100
AcDbSymbolTableRecord
100
AcDbLayerTableRecord
  2
01_PLANES
 70
0
 62
7
  6
CONTINUOUS
370
-3
390
F
  0
LAYER
  5
200
100
AcDbSymbolTableRecord
100
AcDbLayerTableRecord
  2
02_COORD_SYS
 70
0
 62
7
  6
CONTINUOUS
370
-3
390
F
  0
LAYER
  5
201
100
AcDbSymbolTableRecord
100
AcDbLayerTableRecord
  2
03_AXES
 70
0
 62
7
  6
CONTINUOUS
370
-3
390
F
  0
LAYER
  5
202
100
AcDbSymbolTableRecord
100
AcDbLayerTableRecord
  2
04_POINTS
 70
0
 62
7
  6
CONTINUOUS
370
-3
390
F
  0
LAYER
  5
203
100
AcDbSymbolTableRecord
100
AcDbLayerTableRecord
  2
05_CURVES
 70
0
 62
7
  6
CONTINUOUS
370
-3
390
F
  0
LAYER
  5
204
100
AcDbSymbolTableRecord
100
AcDbLayerTableRecord
  2
06_SURFS
 70
0
 62
7
  6
CONTINUOUS
370
-3
390
F
  0
LAYER
  5
205
100
AcDbSymbolTableRecord
100
AcDbLayerTableRecord
  2
07_COSMETICS
 70
0
 62
7
  6
CONTINUOUS
370
-3
390
F
  0
LAYER
  5
206
100
AcDbSymbolTableRecord
100
AcDbLayerTableRecord
  2
10_NOTES
 70
0
 62
7
  6
CONTINUOUS
370
-3
390
F
  0
LAYER
  5
207
100
AcDbSymbolTableRecord
100
AcDbLayerTableRecord
  2
11_NOTES_PUB
 70
0
 62
7
  6
CONTINUOUS
370
-3
390
F
  0
LAYER
  5
208
100
AcDbSymbolTableRecord
100
AcDbLayerTableRecord
  2
13_REF_GTOL
 70
0
 62
7
  6
CONTINUOUS
370
-3
390
F
  0
LAYER
  5
209
100
AcDbSymbolTableRecord
100
AcDbLayerTableRecord
  2
16_MISC
 70
0
 62
7
  6
CONTINUOUS
370
-3
390
F
  0
LAYER
  5
20A
100
AcDbSymbolTableRecord
100
AcDbLayerTableRecord
  2
17_NO_PRINT
 70
0
 62
7
  6
CONTINUOUS
370
-3
390
F
  0
LAYER
  5
20B
100
AcDbSymbolTableRecord
100
AcDbLayerTableRecord
  2
18_DATUM_CAMS_JOINTS
 70
0
 62
7
  6
CONTINUOUS
370
-3
390
F
  0
LAYER
  5
20C
100
AcDbSymbolTableRecord
100
AcDbLayerTableRecord
  2
19_DATUM_FUNCTIONAL
 70
0
 62
7
  6
CONTINUOUS
370
-3
390
F
  0
LAYER
  5
20D
100
AcDbSymbolTableRecord
100
AcDbLayerTableRecord
  2
20_DATUM_KINEMATIC_SCHEME
 70
0
 62
7
  6
CONTINUOUS
370
-3
390
F
  0
ENDTAB
  0
TABLE
  2
STYLE
  5
3
100
AcDbSymbolTable
 70
1
  0
STYLE
  5
11
100
AcDbSymbolTableRecord
100
AcDbTextStyleTableRecord
  2
STANDARD
 70
0
 40
0.0
 41
0.8
 50
0.0
 71
0
 42
0.2
  3
txt
  4

  0
STYLE
  5
20E
100
AcDbSymbolTableRecord
100
AcDbTextStyleTableRecord
  2
TEXTSTYLE_1
 70
0
 40
0.0
 41
0.8
 50
0.0
 71
0
 42
0.2
  3
gdt
  4

  0
ENDTAB
  0
TABLE
  2
VIEW
  5
6
100
AcDbSymbolTable
 70
0
  0
ENDTAB
  0
TABLE
  2
UCS
  5
7
100
AcDbSymbolTable
 70
0
  0
ENDTAB
  0
TABLE
  2
APPID
  5
9
100
AcDbSymbolTable
 70
1
  0
APPID
  5
20F
100
AcDbSymbolTableRecord
100
AcDbRegAppTableRecord
  2
ACAD
 70
0
  0
ENDTAB
  0
TABLE
  2
BLOCK_RECORD
  5
1
100
AcDbSymbolTable
 70
0
  0
BLOCK_RECORD
  5
210
100
AcDbSymbolTableRecord
100
AcDbBlockTableRecord
  2
*Model_Space
  0
BLOCK_RECORD
  5
211
100
AcDbSymbolTableRecord
100
AcDbBlockTableRecord
  2
*Paper_Space
  0
BLOCK_RECORD
  5
212
100
AcDbSymbolTableRecord
100
AcDbBlockTableRecord
  2
_FILLED
  0
ENDTAB
  0
TABLE
  2
DIMSTYLE
  5
A
100
AcDbSymbolTable
 70
1
100
AcDbDimStyleTable
 71
0
  0
DIMSTYLE
105
213
100
AcDbSymbolTableRecord
100
AcDbDimStyleTableRecord
  2
STANDARD
 70
0
  3

  4

 40
1.0
 41
15.0483684401
 42
1.0
 43
0.38
 44
1.0
 45
0.0
 46
0.0
 47
0.01
 48
0.01
140
21.0677158161
141
0.09
142
0.0
143
25.4
144
1.0
145
0.0
146
1.0
147
0.625
 71
1
 72
0
 73
0
 74
0
 75
0
 76
0
 77
1
 78
8
 79
2
170
0
171
1
172
0
173
0
174
0
175
0
176
0
177
0
178
0
270
2
179
2
271
2
272
2
273
2
274
2
275
0
280
0
281
0
282
0
283
1
284
8
285
0
286
0
287
3
288
0
340
11
278
46
341
212
342
212
343
212
344
212
  0
ENDTAB
  0
ENDSEC
  0
SECTION
  2
BLOCKS
  0
BLOCK
  5
20
100
AcDbEntity
  8
0
100
AcDbBlockBegin
  2
*Model_Space
 70
0
 10
0.0
 20
0.0
 30
0.0
  3
*Model_Space
  1

  0
ENDBLK
  5
21
100
AcDbEntity
  8
0
100
AcDbBlockEnd
  0
BLOCK
  5
1C
100
AcDbEntity
  8
0
100
AcDbBlockBegin
  2
*Paper_Space
 70
0
 10
0.0
 20
0.0
 30
0.0
  3
*Paper_Space
  1

  0
ENDBLK
  5
1D
100
AcDbEntity
  8
0
100
AcDbBlockEnd
  0
BLOCK
  5
214
100
AcDbEntity
  8
0
100
AcDbBlockBegin
  2
_FILLED
 70
64
 10
0.0
 20
0.0
  3
_FILLED
  1

  0
SOLID
  5
215
100
AcDbEntity
  8
0
  6
BYBLOCK
 62
0
100
AcDbTrace
 10
0.0
 20
0.0
 11
-1.0
 21
0.25
 12
-1.0
 22
-0.25
 13
-1.0
 23
-0.25
  0
ENDBLK
  5
216
100
AcDbEntity
  8
0
  6
BYBLOCK
 62
0
100
AcDbBlockEnd
  0
ENDSEC
  0
SECTION
  2
ENTITIES
  0
LINE
  5
217
100
AcDbEntity
  8
0
100
AcDbLine
 62
7
  6
CONTINUOUS
 10
134.2196582897
 20
1050.7046024093
 11
134.2196582897
 21
780.1046024092
  0
LINE
  5
218
100
AcDbEntity
  8
0
100
AcDbLine
 62
7
  6
CONTINUOUS
 10
135.7196582897
 20
780.1046024092
 11
135.7196582897
 21
1050.7046024093
  0
LINE
  5
219
100
AcDbEntity
  8
0
100
AcDbLine
 62
7
  6
CONTINUOUS
 10
136.9190549457
 20
754.3943057979
 11
136.9190549457
 21
770.3943057978
  0
LINE
  5
21A
100
AcDbEntity
  8
0
100
AcDbLine
 62
7
  6
CONTINUOUS
 10
138.9190549457
 20
754.3943057978
 11
138.9190549457
 21
770.3943057978
  0
LINE
  5
21B
100
AcDbEntity
  8
0
100
AcDbLine
 62
7
  6
CONTINUOUS
 10
153.7567186483
 20
774.5229844185
 11
152.9541848217
 21
770.3943057978
  0
LINE
  5
21C
100
AcDbEntity
  8
0
100
AcDbLine
 62
7
  6
CONTINUOUS
 10
154.426625597
 20
770.3943057978
 11
155.2291594236
 21
774.5229844185
  0
LINE
  5
21D
100
AcDbEntity
  8
0
100
AcDbLine
 62
7
  6
CONTINUOUS
 10
155.2291594236
 20
774.5229844185
 11
154.8550188662
 21
774.9046166936
  0
LINE
  5
21E
100
AcDbEntity
  8
0
100
AcDbLine
 62
7
  6
CONTINUOUS
 10
1114.682597931
 20
774.5229844185
 11
1113.2101571558
 21
774.2367709255
  0
LINE
  5
21F
100
AcDbEntity
  8
0
100
AcDbLine
 62
7
  6
CONTINUOUS
 10
155.2291594236
 20
774.2367709254
 11
153.7567186484
 21
774.5229844185
  0
LINE
  5
220
100
AcDbEntity
  8
0
100
AcDbLine
 62
7
  6
CONTINUOUS
 10
695.8636998542
 20
742.5943057978
 11
666.1770595253
 21
742.5943035546
  0
LINE
  5
221
100
AcDbEntity
  8
0
100
AcDbLine
 62
7
  6
CONTINUOUS
 10
694.5834193772
 20
742.7980598655
 11
667.4571368593
 21
742.7980598655
  0
LINE
  5
222
100
AcDbEntity
  8
0
100
AcDbLine
 62
7
  6
CONTINUOUS
 10
694.5202616337
 20
742.8943057978
 11
667.5202616337
 21
742.8943057978
  0
LINE
  5
223
100
AcDbEntity
  8
0
100
AcDbLine
 62
7
  6
CONTINUOUS
 10
680.3208307752
 20
743.8943057978
 11
681.7196924922
 21
743.8943057978
  0
LINE
  5
224
100
AcDbEntity
  8
0
100
AcDbLine
 62
7
  6
CONTINUOUS
 10
688.9096532452
 20
744.5943057978
 11
673.1308700222
 21
744.5943057978
  0
LINE
  5
225
100
AcDbEntity
  8
0
100
AcDbLine
 62
7
  6
CONTINUOUS
 10
679.3202616337
 20
744.8943057978
 11
682.7202616337
 21
744.8943057978
  0
LINE
  5
226
100
AcDbEntity
  8
0
100
AcDbLine
 62
7
  6
CONTINUOUS
 10
692.0202616337
 20
745.0943057978
 11
670.0202616337
 21
745.0943057978
  0
LINE
  5
227
100
AcDbEntity
  8
0
100
AcDbLine
 62
7
  6
CONTINUOUS
 10
691.0202616337
 20
746.0943057978
 11
683.0202616337
 21
746.0943057978
  0
LINE
  5
228
100
AcDbEntity
  8
0
100
AcDbLine
 62
7
  6
CONTINUOUS
 10
682.7702616336
 20
746.0943057978
 11
679.2702616338
 21
746.0943057978
  0
LINE
  5
229
100
AcDbEntity
  8
0
100
AcDbLine
 62
7
  6
CONTINUOUS
 10
679.0202616337
 20
746.0943057978
 11
671.0202616337
 21
746.0943057978
  0
LINE
  5
22A
100
AcDbEntity
  8
0
100
AcDbLine
 62
7
  6
CONTINUOUS
 10
688.9702616337
 20
746.2943057978
 11
672.9702616337
 21
746.2943057978
  0
LINE
  5
22B
100
AcDbEntity
  8
0
100
AcDbLine
 62
7
  6
CONTINUOUS
 10
682.7202616337
 20
747.1712288748
 11
679.3202616337
 21
747.1712288748
  0
LINE
  5
22C
100
AcDbEntity
  8
0
100
AcDbLine
 62
7
  6
CONTINUOUS
 10
665.9223362619
 20
748.0943057978
 11
696.1181870059
 21
748.0943057978
  0
LINE
  5
22D
100
AcDbEntity
  8
0
100
AcDbLine
 62
7
  6
CONTINUOUS
 10
666.3128920728
 20
748.2943057978
 11
698.125927631
 21
748.2943057978
  0
LINE
  5
22E
100
AcDbEntity
  8
0
100
AcDbLine
 62
7
  6
CONTINUOUS
 10
665.8202616337
 20
749.7843057978
 11
697.9281906933
 21
749.7843057978
  0
LINE
  5
22F
100
AcDbEntity
  8
0
100
AcDbLine
 62
7
  6
CONTINUOUS
 10
1127.9202616337
 20
750.0943057978
 11
639.6202616337
 21
750.0943057978
  0
LINE
  5
230
100
AcDbEntity
  8
0
100
AcDbLine
 62
7
  6
CONTINUOUS
 10
628.9190549457
 20
750.3943057978
 11
140.9190549457
 21
750.3943057978
  0
LINE
  5
231
100
AcDbEntity
  8
0
100
AcDbLine
 62
7
  6
CONTINUOUS
 10
689.5702616337
 20
750.5943057978
 11
672.4702616337
 21
750.5943057978
  0
LINE
  5
232
100
AcDbEntity
  8
0
100
AcDbLine
 62
7
  6
CONTINUOUS
 10
694.5202616337
 20
751.5943057978
 11
687.5202616337
 21
751.5943057978
  0
LINE
  5
233
100
AcDbEntity
  8
0
100
AcDbLine
 62
7
  6
CONTINUOUS
 10
686.0202616337
 20
751.5943057978
 11
676.0202616337
 21
751.5943057978
  0
LINE
  5
234
100
AcDbEntity
  8
0
100
AcDbLine
 62
7
  6
CONTINUOUS
 10
674.5202616337
 20
751.5943057978
 11
667.5202616337
 21
751.5943057978
  0
LINE
  5
235
100
AcDbEntity
  8
0
100
AcDbLine
 62
7
  6
CONTINUOUS
 10
691.0702616337
 20
752.0943057978
 11
670.9702616337
 21
752.0943057978
  0
LINE
  5
236
100
AcDbEntity
  8
0
100
AcDbLine
 62
7
  6
CONTINUOUS
 10
672.1644759691
 20
752.8176053651
 11
689.8760472983
 21
752.8176053704
  0
LINE
  5
237
100
AcDbEntity
  8
0
100
AcDbLine
 62
7
  6
CONTINUOUS
 10
691.3202616337
 20
753.5943057978
 11
670.7202616337
 21
753.5943057978
  0
LINE
  5
238
100
AcDbEntity
  8
0
100
AcDbLine
 62
7
  6
CONTINUOUS
 10
636.0202616337
 20
753.6943057978
 11
1131.5202616337
 21
753.6943057978
  0
LINE
  5
239
100
AcDbEntity
  8
0
100
AcDbLine
 62
7
  6
CONTINUOUS
 10
688.2202616337
 20
753.7943057978
 11
673.7202616337
 21
753.7943057978
  0
LINE
  5
23A
100
AcDbEntity
  8
0
100
AcDbLine
 62
7
  6
CONTINUOUS
 10
671.5702616337
 20
754.2608323892
 11
674.6202616337
 21
754.2608323892
  0
LINE
  5
23B
100
AcDbEntity
  8
0
100
AcDbLine
 62
7
  6
CONTINUOUS
 10
687.4202616337
 20
754.2608323892
 11
690.4702616337
 21
754.2608323892
  0
LINE
  5
23C
100
AcDbEntity
  8
0
100
AcDbLine
 62
7
  6
CONTINUOUS
 10
136.9190549457
 20
754.3943057979
 11
632.9190549457
 21
754.3943057978
  0
LINE
  5
23D
100
AcDbEntity
  8
0
100
AcDbLine
 62
7
  6
CONTINUOUS
 10
693.0202616337
 20
754.8943057978
 11
689.0202616337
 21
754.8943057978
  0
LINE
  5
23E
100
AcDbEntity
  8
0
100
AcDbLine
 62
7
  6
CONTINUOUS
 10
674.7702616337
 20
754.8943057978
 11
673.0202616337
 21
754.8943057978
  0
LINE
  5
23F
100
AcDbEntity
  8
0
100
AcDbLine
 62
7
  6
CONTINUOUS
 10
673.0202616337
 20
754.8943057978
 11
669.0202616337
 21
754.8943057978
  0
LINE
  5
240
100
AcDbEntity
  8
0
100
AcDbLine
 62
7
  6
CONTINUOUS
 10
674.7702616337
 20
754.8943057978
 11
687.2702616337
 21
754.8943057978
  0
LINE
  5
241
100
AcDbEntity
  8
0
100
AcDbLine
 62
7
  6
CONTINUOUS
 10
687.2702616337
 20
754.8943057978
 11
689.0202616337
 21
754.8943057978
  0
LINE
  5
242
100
AcDbEntity
  8
0
100
AcDbLine
 62
7
  6
CONTINUOUS
 10
683.4702616337
 20
755.2943057978
 11
678.4702616337
 21
755.2943057978
  0
LINE
  5
243
100
AcDbEntity
  8
0
100
AcDbLine
 62
7
  6
CONTINUOUS
 10
674.6202616337
 20
755.4727550657
 11
687.4202616337
 21
755.4727550657
  0
LINE
  5
244
100
AcDbEntity
  8
0
100
AcDbLine
 62
7
  6
CONTINUOUS
 10
692.8702616337
 20
755.5943057978
 11
682.7702616337
 21
755.5943057978
  0
LINE
  5
245
100
AcDbEntity
  8
0
100
AcDbLine
 62
7
  6
CONTINUOUS
 10
679.1702616337
 20
755.5943057978
 11
664.1702616337
 21
755.5943057978
  0
LINE
  5
246
100
AcDbEntity
  8
0
100
AcDbLine
 62
7
  6
CONTINUOUS
 10
685.2621797355
 20
756.2522281008
 11
676.7783435319
 21
756.2522281008
  0
LINE
  5
247
100
AcDbEntity
  8
0
100
AcDbLine
 62
7
  6
CONTINUOUS
 10
676.4937610332
 20
756.3727550657
 11
685.5467622342
 21
756.3727550657
  0
LINE
  5
248
100
AcDbEntity
  8
0
100
AcDbLine
 62
7
  6
CONTINUOUS
 10
636.0202616337
 20
756.9206866674
 11
632.9190549457
 21
756.9206866674
  0
LINE
  5
249
100
AcDbEntity
  8
0
100
AcDbLine
 62
7
  6
CONTINUOUS
 10
685.9202616337
 20
757.0943057978
 11
676.1202616337
 21
757.0943057978
  0
LINE
  5
24A
100
AcDbEntity
  8
0
100
AcDbLine
 62
7
  6
CONTINUOUS
 10
690.5202616337
 20
757.3943057978
 11
686.0202616337
 21
757.3943057978
  0
LINE
  5
24B
100
AcDbEntity
  8
0
100
AcDbLine
 62
7
  6
CONTINUOUS
 10
676.0202616337
 20
757.3943057978
 11
671.5202616337
 21
757.3943057978
  0
LINE
  5
24C
100
AcDbEntity
  8
0
100
AcDbLine
 62
7
  6
CONTINUOUS
 10
687.5202616337
 20
757.5943057978
 11
684.6199707691
 21
757.5943057978
  0
LINE
  5
24D
100
AcDbEntity
  8
0
100
AcDbLine
 62
7
  6
CONTINUOUS
 10
684.6199707691
 20
757.5943057978
 11
677.4205524983
 21
757.5943057978
  0
LINE
  5
24E
100
AcDbEntity
  8
0
100
AcDbLine
 62
7
  6
CONTINUOUS
 10
674.5202616337
 20
757.5943057978
 11
677.4205524983
 21
757.5943057978
  0
LINE
  5
24F
100
AcDbEntity
  8
0
100
AcDbLine
 62
7
  6
CONTINUOUS
 10
694.5202616337
 20
757.9943057978
 11
693.0202616337
 21
757.9943057978
  0
LINE
  5
250
100
AcDbEntity
  8
0
100
AcDbLine
 62
7
  6
CONTINUOUS
 10
669.0202616337
 20
757.9943057978
 11
667.5202616337
 21
757.9943057978
  0
LINE
  5
251
100
AcDbEntity
  8
0
100
AcDbLine
 62
7
  6
CONTINUOUS
 10
673.5603257518
 20
758.014092271
 11
688.4801974938
 21
758.014092271
  0
LINE
  5
252
100
AcDbEntity
  8
0
100
AcDbLine
 62
7
  6
CONTINUOUS
 10
685.1702616337
 20
758.0943057978
 11
682.6702616337
 21
758.0943057978
  0
LINE
  5
253
100
AcDbEntity
  8
0
100
AcDbLine
 62
7
  6
CONTINUOUS
 10
679.2702616337
 20
758.0943057978
 11
676.7702616337
 21
758.0943057978
  0
LINE
  5
254
100
AcDbEntity
  8
0
100
AcDbLine
 62
7
  6
CONTINUOUS
 10
694.5202616337
 20
758.3943057978
 11
693.1202616337
 21
758.3943057978
  0
LINE
  5
255
100
AcDbEntity
  8
0
100
AcDbLine
 62
7
  6
CONTINUOUS
 10
668.9202616337
 20
758.3943057978
 11
667.5202616337
 21
758.3943057978
  0
LINE
  5
256
100
AcDbEntity
  8
0
100
AcDbLine
 62
7
  6
CONTINUOUS
 10
689.0202616337
 20
758.7943057978
 11
673.0202616337
 21
758.7943057978
  0
LINE
  5
257
100
AcDbEntity
  8
0
100
AcDbLine
 62
7
  6
CONTINUOUS
 10
672.6202616337
 20
758.7943057978
 11
673.0202616337
 21
758.7943057978
  0
LINE
  5
258
100
AcDbEntity
  8
0
100
AcDbLine
 62
7
  6
CONTINUOUS
 10
689.0202616337
 20
758.7943057978
 11
689.4202616337
 21
758.7943057978
  0
LINE
  5
259
100
AcDbEntity
  8
0
100
AcDbLine
 62
7
  6
CONTINUOUS
 10
632.9190549457
 20
759.0046024093
 11
636.0202616337
 21
759.0046024093
  0
LINE
  5
25A
100
AcDbEntity
  8
0
100
AcDbLine
 62
7
  6
CONTINUOUS
 10
683.7702616337
 20
759.5555319755
 11
678.2702616337
 21
759.5555319755
  0
LINE
  5
25B
100
AcDbEntity
  8
0
100
AcDbLine
 62
7
  6
CONTINUOUS
 10
683.5202616337
 20
759.5997527753
 11
678.5202616337
 21
759.5997527753
  0
LINE
  5
25C
100
AcDbEntity
  8
0
100
AcDbLine
 62
7
  6
CONTINUOUS
 10
687.2702616337
 20
759.8943057978
 11
683.7702616337
 21
759.8943057978
  0
LINE
  5
25D
100
AcDbEntity
  8
0
100
AcDbLine
 62
7
  6
CONTINUOUS
 10
678.2702616337
 20
759.8943057978
 11
674.7702616337
 21
759.8943057978
  0
LINE
  5
25E
100
AcDbEntity
  8
0
100
AcDbLine
 62
7
  6
CONTINUOUS
 10
692.8702616337
 20
759.9943057978
 11
689.8702616337
 21
759.9943057978
  0
LINE
  5
25F
100
AcDbEntity
  8
0
100
AcDbLine
 62
7
  6
CONTINUOUS
 10
689.5202616337
 20
759.9943057978
 11
672.5202616337
 21
759.9943057978
  0
LINE
  5
260
100
AcDbEntity
  8
0
100
AcDbLine
 62
7
  6
CONTINUOUS
 10
672.1702616337
 20
759.9943057978
 11
669.1702616337
 21
759.9943057978
  0
LINE
  5
261
100
AcDbEntity
  8
0
100
AcDbLine
 62
7
  6
CONTINUOUS
 10
674.6202616337
 20
760.0339634631
 11
672.6226588138
 21
760.0339634631
  0
LINE
  5
262
100
AcDbEntity
  8
0
100
AcDbLine
 62
7
  6
CONTINUOUS
 10
687.4202616337
 20
760.0339634631
 11
689.4178644537
 21
760.0339634631
  0
LINE
  5
263
100
AcDbEntity
  8
0
100
AcDbLine
 62
7
  6
CONTINUOUS
 10
682.7702616337
 20
760.0943057978
 11
679.1702616337
 21
760.0943057978
  0
LINE
  5
264
100
AcDbEntity
  8
0
100
AcDbLine
 62
7
  6
CONTINUOUS
 10
669.5359418889
 20
760.3943057978
 11
692.5045813785
 21
760.3943057978
  0
LINE
  5
265
100
AcDbEntity
  8
0
100
AcDbLine
 62
7
  6
CONTINUOUS
 10
689.6225869007
 20
760.8943057978
 11
672.4179363666
 21
760.8943057978
  0
LINE
  5
266
100
AcDbEntity
  8
0
100
AcDbLine
 62
7
  6
CONTINUOUS
 10
676.9518246171
 20
761.0907926983
 11
685.0886986503
 21
761.0907926983
  0
LINE
  5
267
100
AcDbEntity
  8
0
100
AcDbLine
 62
7
  6
CONTINUOUS
 10
692.820586013
 20
761.3868985149
 11
688.5733182032
 21
761.3868985149
  0
LINE
  5
268
100
AcDbEntity
  8
0
100
AcDbLine
 62
7
  6
CONTINUOUS
 10
664.1729731146
 20
761.3868985149
 11
668.5141762776
 21
761.3868985149
  0
LINE
  5
269
100
AcDbEntity
  8
0
100
AcDbLine
 62
7
  6
CONTINUOUS
 10
689.4702710038
 20
761.8943057978
 11
672.5702487053
 21
761.8943057978
  0
LINE
  5
26A
100
AcDbEntity
  8
0
100
AcDbLine
 62
7
  6
CONTINUOUS
 10
698.1998691165
 20
749.7052910651
 11
697.2196627096
 21
749.7639515452
  0
LINE
  5
26B
100
AcDbEntity
  8
0
100
AcDbLine
 62
7
  6
CONTINUOUS
 10
684.2202616337
 20
763.2943057978
 11
678.0202616337
 21
763.2943057978
  0
LINE
  5
26C
100
AcDbEntity
  8
0
100
AcDbLine
 62
7
  6
CONTINUOUS
 10
668.5141692007
 20
763.8017130808
 11
664.172966041
 21
763.8017130808
  0
LINE
  5
26D
100
AcDbEntity
  8
0
100
AcDbLine
 62
7
  6
CONTINUOUS
 10
688.5733182032
 20
763.8017130808
 11
692.8205860129
 21
763.8017130808
  0
LINE
  5
26E
100
AcDbEntity
  8
0
100
AcDbLine
 62
7
  6
CONTINUOUS
 10
692.5045813784
 20
764.7943057978
 11
669.5359418889
 21
764.7943057978
  0
LINE
  5
26F
100
AcDbEntity
  8
0
100
AcDbLine
 62
7
  6
CONTINUOUS
 10
682.7702616337
 20
765.0943057978
 11
679.1702616337
 21
765.0943057978
  0
LINE
  5
270
100
AcDbEntity
  8
0
100
AcDbLine
 62
7
  6
CONTINUOUS
 10
692.8702616337
 20
765.1943057978
 11
689.8702616337
 21
765.1943057978
  0
LINE
  5
271
100
AcDbEntity
  8
0
100
AcDbLine
 62
7
  6
CONTINUOUS
 10
672.1702616337
 20
765.1943057978
 11
669.1702616337
 21
765.1943057978
  0
LINE
  5
272
100
AcDbEntity
  8
0
100
AcDbLine
 62
7
  6
CONTINUOUS
 10
687.9202616337
 20
766.3943057978
 11
674.1202616337
 21
766.3943057978
  0
LINE
  5
273
100
AcDbEntity
  8
0
100
AcDbLine
 62
7
  6
CONTINUOUS
 10
673.0202616337
 20
766.5943057978
 11
689.0202616337
 21
766.5943057978
  0
LINE
  5
274
100
AcDbEntity
  8
0
100
AcDbLine
 62
7
  6
CONTINUOUS
 10
689.1202616337
 20
766.7943057978
 11
673.1202616337
 21
766.7943057978
  0
LINE
  5
275
100
AcDbEntity
  8
0
100
AcDbLine
 62
7
  6
CONTINUOUS
 10
685.1702616337
 20
767.0943057978
 11
682.6702616337
 21
767.0943057978
  0
LINE
  5
276
100
AcDbEntity
  8
0
100
AcDbLine
 62
7
  6
CONTINUOUS
 10
679.2702616337
 20
767.0943057978
 11
676.7702616337
 21
767.0943057978
  0
LINE
  5
277
100
AcDbEntity
  8
0
100
AcDbLine
 62
7
  6
CONTINUOUS
 10
686.2202616337
 20
767.2943057978
 11
675.8202616337
 21
767.2943057978
  0
LINE
  5
278
100
AcDbEntity
  8
0
100
AcDbLine
 62
7
  6
CONTINUOUS
 10
687.5202616337
 20
767.5943057978
 11
674.5202616337
 21
767.5943057978
  0
LINE
  5
279
100
AcDbEntity
  8
0
100
AcDbLine
 62
7
  6
CONTINUOUS
 10
676.9202616337
 20
768.0943057978
 11
685.1202616337
 21
768.0943057978
  0
LINE
  5
27A
100
AcDbEntity
  8
0
100
AcDbLine
 62
7
  6
CONTINUOUS
 10
675.6202616337
 20
768.2943057978
 11
673.1202616337
 21
768.2943057978
  0
LINE
  5
27B
100
AcDbEntity
  8
0
100
AcDbLine
 62
7
  6
CONTINUOUS
 10
676.9202616337
 20
769.1192309469
 11
685.1202616337
 21
769.1192309469
  0
LINE
  5
27C
100
AcDbEntity
  8
0
100
AcDbLine
 62
7
  6
CONTINUOUS
 10
681.5202616337
 20
769.1943057978
 11
680.5202616337
 21
769.1943057978
  0
LINE
  5
27D
100
AcDbEntity
  8
0
100
AcDbLine
 62
7
  6
CONTINUOUS
 10
681.5202616337
 20
769.376290915
 11
680.5202616337
 21
769.376290915
  0
LINE
  5
27E
100
AcDbEntity
  8
0
100
AcDbLine
 62
7
  6
CONTINUOUS
 10
692.8702616337
 20
769.5943057978
 11
682.7702616337
 21
769.5943057978
  0
LINE
  5
27F
100
AcDbEntity
  8
0
100
AcDbLine
 62
7
  6
CONTINUOUS
 10
679.1702616337
 20
769.5943057978
 11
664.1702616337
 21
769.5943057978
  0
LINE
  5
280
100
AcDbEntity
  8
0
100
AcDbLine
 62
7
  6
CONTINUOUS
 10
682.1202616337
 20
769.5946730555
 11
679.9202616337
 21
769.5946730555
  0
LINE
  5
281
100
AcDbEntity
  8
0
100
AcDbLine
 62
7
  6
CONTINUOUS
 10
684.7164154821
 20
769.9221011662
 11
677.3241077853
 21
769.9221011662
  0
LINE
  5
282
100
AcDbEntity
  8
0
100
AcDbLine
 62
7
  6
CONTINUOUS
 10
693.1202616337
 20
769.9943057978
 11
668.9202616337
 21
769.9943057978
  0
LINE
  5
283
100
AcDbEntity
  8
0
100
AcDbLine
 62
7
  6
CONTINUOUS
 10
636.0202616337
 20
770.0943057978
 11
1131.5202616337
 21
770.0943057978
  0
LINE
  5
284
100
AcDbEntity
  8
0
100
AcDbLine
 62
7
  6
CONTINUOUS
 10
136.9190549457
 20
770.3943057978
 11
632.9190549457
 21
770.3943057978
  0
LINE
  5
285
100
AcDbEntity
  8
0
100
AcDbLine
 62
7
  6
CONTINUOUS
 10
692.2202616337
 20
771.0943057978
 11
669.8202616337
 21
771.0943057978
  0
LINE
  5
286
100
AcDbEntity
  8
0
100
AcDbLine
 62
7
  6
CONTINUOUS
 10
675.6202616337
 20
771.8943057978
 11
673.9760331939
 21
771.8943057978
  0
LINE
  5
287
100
AcDbEntity
  8
0
100
AcDbLine
 62
7
  6
CONTINUOUS
 10
671.7202616337
 20
772.3943057978
 11
674.5202616337
 21
772.3943057978
  0
LINE
  5
288
100
AcDbEntity
  8
0
100
AcDbLine
 62
7
  6
CONTINUOUS
 10
694.5202616337
 20
773.5943057978
 11
687.5202616337
 21
773.5943057978
  0
LINE
  5
289
100
AcDbEntity
  8
0
100
AcDbLine
 62
7
  6
CONTINUOUS
 10
674.5202616337
 20
773.5943057978
 11
667.5202616337
 21
773.5943057978
  0
LINE
  5
28A
100
AcDbEntity
  8
0
100
AcDbLine
 62
7
  6
CONTINUOUS
 10
1113.2101571558
 20
774.5229844185
 11
155.2291594236
 21
774.5229844185
  0
LINE
  5
28B
100
AcDbEntity
  8
0
100
AcDbLine
 62
7
  6
CONTINUOUS
 10
667.0202618155
 20
774.7943057978
 11
689.5202616337
 21
774.7943057978
  0
LINE
  5
28C
100
AcDbEntity
  8
0
100
AcDbLine
 62
7
  6
CONTINUOUS
 10
674.5202616337
 20
776.3943057978
 11
672.3202616337
 21
776.3943057978
  0
LINE
  5
28D
100
AcDbEntity
  8
0
100
AcDbLine
 62
7
  6
CONTINUOUS
 10
661.0290424125
 20
776.711797715
 11
646.3432968372
 21
776.711797715
  0
LINE
  5
28E
100
AcDbEntity
  8
0
100
AcDbLine
 62
7
  6
CONTINUOUS
 10
657.0296934794
 20
776.8865786911
 11
645.9857253906
 21
776.8865786911
  0
LINE
  5
28F
100
AcDbEntity
  8
0
100
AcDbLine
 62
7
  6
CONTINUOUS
 10
1131.0196582897
 20
776.9046024092
 11
137.4196582897
 21
776.9046024092
  0
LINE
  5
290
100
AcDbEntity
  8
0
100
AcDbLine
 62
7
  6
CONTINUOUS
 10
645.9274575093
 20
776.9530272319
 11
656.8027140843
 21
776.9530272319
  0
LINE
  5
291
100
AcDbEntity
  8
0
100
AcDbLine
 62
7
  6
CONTINUOUS
 10
683.9663115278
 20
777.0143057978
 11
678.2742117395
 21
777.0143057978
  0
LINE
  5
292
100
AcDbEntity
  8
0
100
AcDbLine
 62
7
  6
CONTINUOUS
 10
685.0702616337
 20
778.4943057978
 11
677.1702615419
 21
778.4943057978
  0
LINE
  5
293
100
AcDbEntity
  8
0
100
AcDbLine
 62
7
  6
CONTINUOUS
 10
689.5202616337
 20
778.7943057978
 11
667.0026415763
 21
778.7943057978
  0
LINE
  5
294
100
AcDbEntity
  8
0
100
AcDbLine
 62
7
  6
CONTINUOUS
 10
134.2196582897
 20
780.1046024092
 11
1134.2196582897
 21
780.1046024092
  0
LINE
  5
295
100
AcDbEntity
  8
0
100
AcDbLine
 62
7
  6
CONTINUOUS
 10
661.0114223886
 20
780.711797715
 11
646.3432968372
 21
780.711797715
  0
LINE
  5
296
100
AcDbEntity
  8
0
100
AcDbLine
 62
7
  6
CONTINUOUS
 10
657.0296934796
 20
776.8865786926
 11
650.104307497
 21
778.1648896893
  0
LINE
  5
297
100
AcDbEntity
  8
0
100
AcDbLine
 62
7
  6
CONTINUOUS
 10
657.7555973912
 20
780.711797715
 11
650.8302114088
 21
781.9901087127
  0
LINE
  5
298
100
AcDbEntity
  8
0
100
AcDbLine
 62
7
  6
CONTINUOUS
 10
650.0872024001
 20
778.4125954571
 11
656.8027140849
 21
776.9530272346
  0
LINE
  5
299
100
AcDbEntity
  8
0
100
AcDbLine
 62
7
  6
CONTINUOUS
 10
657.6518857243
 20
780.711797715
 11
650.9363740401
 21
782.1713659403
  0
LINE
  5
29A
100
AcDbEntity
  8
0
100
AcDbLine
 62
7
  6
CONTINUOUS
 10
681.0202616337
 20
769.1943057978
 11
679.9202616337
 21
769.5946730555
  0
LINE
  5
29B
100
AcDbEntity
  8
0
100
AcDbLine
 62
7
  6
CONTINUOUS
 10
665.6179784511
 20
775.0415662692
 11
661.029067349
 21
776.711793318
  0
LINE
  5
29C
100
AcDbEntity
  8
0
100
AcDbLine
 62
7
  6
CONTINUOUS
 10
667.002616855
 20
778.7943101948
 11
662.4137055821
 21
780.4645373059
  0
LWPOLYLINE
  5
29D
100
AcDbEntity
  8
0
100
AcDbPolyline
 62
7
  6
CONTINUOUS
 90
3
 70
0
 10
665.7041021175
 20
742.9314160129
 10
665.8859486189
 20
742.6876214668
 10
666.1768233851
 20
742.5943035783
  0
LINE
  5
29E
100
AcDbEntity
  8
0
100
AcDbLine
 62
7
  6
CONTINUOUS
 10
693.2202616337
 20
753.3943057978
 11
691.7202616337
 21
754.8943057978
  0
LINE
  5
29F
100
AcDbEntity
  8
0
100
AcDbLine
 62
7
  6
CONTINUOUS
 10
672.3202616337
 20
776.3943057978
 11
670.1202616337
 21
778.7943057978
  0
LINE
  5
2A0
100
AcDbEntity
  8
0
100
AcDbLine
 62
7
  6
CONTINUOUS
 10
670.1202616337
 20
774.7943057978
 11
671.7202616337
 21
772.3943057978
  0
LINE
  5
2A1
100
AcDbEntity
  8
0
100
AcDbLine
 62
7
  6
CONTINUOUS
 10
630.9190549457
 20
770.3943057978
 11
630.9190549457
 21
754.3943057978
  0
LINE
  5
2A2
100
AcDbEntity
  8
0
100
AcDbLine
 62
7
  6
CONTINUOUS
 10
632.9190549457
 20
754.3943057978
 11
632.9190549457
 21
770.3943057978
  0
LINE
  5
2A3
100
AcDbEntity
  8
0
100
AcDbLine
 62
7
  6
CONTINUOUS
 10
636.0202616337
 20
770.0943057978
 11
636.0202616337
 21
753.6943057978
  0
LINE
  5
2A4
100
AcDbEntity
  8
0
100
AcDbLine
 62
7
  6
CONTINUOUS
 10
637.8202616337
 20
753.6943057978
 11
637.8202616337
 21
770.0943057978
  0
LINE
  5
2A5
100
AcDbEntity
  8
0
100
AcDbLine
 62
7
  6
CONTINUOUS
 10
679.1921415518
 20
770.868660359
 11
679.9202616337
 21
769.5946730555
  0
LINE
  5
2A6
100
AcDbEntity
  8
0
100
AcDbLine
 62
7
  6
CONTINUOUS
 10
692.2202616337
 20
754.8943057978
 11
693.2202616337
 21
752.8943057978
  0
LINE
  5
2A7
100
AcDbEntity
  8
0
100
AcDbLine
 62
7
  6
CONTINUOUS
 10
671.8257513544
 20
752.0943057978
 11
671.5702616337
 21
752.6446678878
  0
LINE
  5
2A8
100
AcDbEntity
  8
0
100
AcDbLine
 62
7
  6
CONTINUOUS
 10
671.6284740826
 20
756.281929972
 11
671.5702616337
 21
756.4073280701
  0
LINE
  5
2A9
100
AcDbEntity
  8
0
100
AcDbLine
 62
7
  6
CONTINUOUS
 10
672.6226588138
 20
760.0339634631
 11
673.5603257352
 21
758.014092272
  0
LINE
  5
2AA
100
AcDbEntity
  8
0
100
AcDbLine
 62
7
  6
CONTINUOUS
 10
663.9246023601
 20
748.0956838042
 11
665.7041007855
 21
742.9314152902
  0
LINE
  5
2AB
100
AcDbEntity
  8
0
100
AcDbLine
 62
7
  6
CONTINUOUS
 10
665.6422065556
 20
748.0651549686
 11
667.4571368905
 21
742.7980597856
  0
LINE
  5
2AC
100
AcDbEntity
  8
0
100
AcDbLine
 62
7
  6
CONTINUOUS
 10
668.8202616337
 20
750.0943057978
 11
670.0202616337
 21
745.0943057978
  0
LINE
  5
2AD
100
AcDbEntity
  8
0
100
AcDbLine
 62
7
  6
CONTINUOUS
 10
663.8202616669
 20
750.0943051652
 11
663.9250795955
 21
748.0943060128
  0
LINE
  5
2AE
100
AcDbEntity
  8
0
100
AcDbLine
 62
7
  6
CONTINUOUS
 10
665.8175207814
 20
750.094304305
 11
665.9223362618
 21
748.0943057981
  0
LWPOLYLINE
  5
2AF
100
AcDbEntity
  8
0
100
AcDbPolyline
 62
7
  6
CONTINUOUS
 90
4
 70
0
 10
664.1702633119
 20
761.4213216229
 10
664.1705524459
 20
761.4086821645
 10
664.1714451268
 20
761.3972095904
 10
664.1729731146
 20
761.3868985149
  0
LINE
  5
2B0
100
AcDbEntity
  8
0
100
AcDbLine
 62
7
  6
CONTINUOUS
 10
646.3432968372
 20
780.711797715
 11
646.3432968372
 21
776.7117977179
  0
LINE
  5
2B1
100
AcDbEntity
  8
0
100
AcDbLine
 62
7
  6
CONTINUOUS
 10
658.3432968372
 20
780.7117983417
 11
658.3432968372
 21
776.7117977165
  0
LINE
  5
2B2
100
AcDbEntity
  8
0
100
AcDbLine
 62
7
  6
CONTINUOUS
 10
659.3432968372
 20
780.7117983925
 11
659.3432968372
 21
776.711797716
  0
LINE
  5
2B3
100
AcDbEntity
  8
0
100
AcDbLine
 62
7
  6
CONTINUOUS
 10
664.1702616337
 20
769.5943057978
 11
664.1702616337
 21
755.5943057978
  0
LINE
  5
2B4
100
AcDbEntity
  8
0
100
AcDbLine
 62
7
  6
CONTINUOUS
 10
664.8202616337
 20
750.0943057978
 11
664.8202616337
 21
749.7843057978
  0
LINE
  5
2B5
100
AcDbEntity
  8
0
100
AcDbLine
 62
7
  6
CONTINUOUS
 10
664.8401346148
 20
769.5943057978
 11
664.8401346148
 21
755.5943057978
  0
LINE
  5
2B6
100
AcDbEntity
  8
0
100
AcDbLine
 62
7
  6
CONTINUOUS
 10
665.8202616337
 20
750.0943057978
 11
665.8202616337
 21
749.7843057978
  0
LINE
  5
2B7
100
AcDbEntity
  8
0
100
AcDbLine
 62
7
  6
CONTINUOUS
 10
667.1702616337
 20
769.5943057978
 11
667.1702616337
 21
755.5943057978
  0
LINE
  5
2B8
100
AcDbEntity
  8
0
100
AcDbLine
 62
7
  6
CONTINUOUS
 10
667.4382108261
 20
755.5943057978
 11
667.4382108261
 21
769.5943057978
  0
LINE
  5
2B9
100
AcDbEntity
  8
0
100
AcDbLine
 62
7
  6
CONTINUOUS
 10
667.4571038901
 20
742.7980591542
 11
667.4571038901
 21
742.5943057978
  0
LINE
  5
2BA
100
AcDbEntity
  8
0
100
AcDbLine
 62
7
  6
CONTINUOUS
 10
667.5202616337
 20
773.5943057978
 11
667.5202616337
 21
758.3943057978
  0
LINE
  5
2BB
100
AcDbEntity
  8
0
100
AcDbLine
 62
7
  6
CONTINUOUS
 10
667.5202616337
 20
757.9943057978
 11
667.5202616337
 21
751.5943057978
  0
LINE
  5
2BC
100
AcDbEntity
  8
0
100
AcDbLine
 62
7
  6
CONTINUOUS
 10
667.5202616337
 20
742.8943057978
 11
667.5202616337
 21
742.5943057978
  0
LINE
  5
2BD
100
AcDbEntity
  8
0
100
AcDbLine
 62
7
  6
CONTINUOUS
 10
667.8202616337
 20
750.0943057978
 11
667.8202616337
 21
749.7843057978
  0
LINE
  5
2BE
100
AcDbEntity
  8
0
100
AcDbLine
 62
7
  6
CONTINUOUS
 10
668.3202616337
 20
750.0943057978
 11
668.3202616337
 21
749.7843057978
  0
LINE
  5
2BF
100
AcDbEntity
  8
0
100
AcDbLine
 62
7
  6
CONTINUOUS
 10
668.6702616337
 20
755.5943057978
 11
668.6702616337
 21
761.4213155043
  0
LINE
  5
2C0
100
AcDbEntity
  8
0
100
AcDbLine
 62
7
  6
CONTINUOUS
 10
668.6702616337
 20
763.767290287
 11
668.6702616337
 21
769.5943057978
  0
LINE
  5
2C1
100
AcDbEntity
  8
0
100
AcDbLine
 62
7
  6
CONTINUOUS
 10
668.8202616337
 20
753.3943057978
 11
668.8202616337
 21
750.0943057978
  0
LINE
  5
2C2
100
AcDbEntity
  8
0
100
AcDbLine
 62
7
  6
CONTINUOUS
 10
668.9023124412
 20
755.5943057978
 11
668.9023124412
 21
769.5943057978
  0
LINE
  5
2C3
100
AcDbEntity
  8
0
100
AcDbLine
 62
7
  6
CONTINUOUS
 10
668.9202616337
 20
769.9943057978
 11
668.9202616337
 21
758.3943057978
  0
LINE
  5
2C4
100
AcDbEntity
  8
0
100
AcDbLine
 62
7
  6
CONTINUOUS
 10
669.0202616337
 20
757.9943057978
 11
669.0202616337
 21
754.8943057978
  0
LINE
  5
2C5
100
AcDbEntity
  8
0
100
AcDbLine
 62
7
  6
CONTINUOUS
 10
669.1702616337
 20
769.5943057978
 11
669.1702616337
 21
755.5943057978
  0
LINE
  5
2C6
100
AcDbEntity
  8
0
100
AcDbLine
 62
7
  6
CONTINUOUS
 10
669.5359418889
 20
764.7943057978
 11
669.5359418889
 21
760.3943057978
  0
LINE
  5
2C7
100
AcDbEntity
  8
0
100
AcDbLine
 62
7
  6
CONTINUOUS
 10
669.7418927175
 20
764.7943057978
 11
669.7418927175
 21
760.3943057978
  0
LINE
  5
2C8
100
AcDbEntity
  8
0
100
AcDbLine
 62
7
  6
CONTINUOUS
 10
669.8194602321
 20
760.3943057978
 11
669.8194602321
 21
764.7943057978
  0
LINE
  5
2C9
100
AcDbEntity
  8
0
100
AcDbLine
 62
7
  6
CONTINUOUS
 10
669.8202616337
 20
773.5943057978
 11
669.8202616337
 21
771.0943057978
  0
LINE
  5
2CA
100
AcDbEntity
  8
0
100
AcDbLine
 62
7
  6
CONTINUOUS
 10
670.5702616337
 20
750.0943057978
 11
670.5702616337
 21
751.5943057978
  0
LINE
  5
2CB
100
AcDbEntity
  8
0
100
AcDbLine
 62
7
  6
CONTINUOUS
 10
670.7202616337
 20
753.5943057978
 11
670.7202616337
 21
751.5943057978
  0
LINE
  5
2CC
100
AcDbEntity
  8
0
100
AcDbLine
 62
7
  6
CONTINUOUS
 10
670.9702616337
 20
752.0943057978
 11
670.9702616337
 21
753.5943057978
  0
LINE
  5
2CD
100
AcDbEntity
  8
0
100
AcDbLine
 62
7
  6
CONTINUOUS
 10
671.0202616337
 20
771.0943057978
 11
671.0202616337
 21
769.9943057978
  0
LINE
  5
2CE
100
AcDbEntity
  8
0
100
AcDbLine
 62
7
  6
CONTINUOUS
 10
671.0202616337
 20
750.0943057978
 11
671.0202616337
 21
745.0943057978
  0
LINE
  5
2CF
100
AcDbEntity
  8
0
100
AcDbLine
 62
7
  6
CONTINUOUS
 10
671.5003886526
 20
769.5943057978
 11
671.5003886526
 21
755.5943057978
  0
LINE
  5
2D0
100
AcDbEntity
  8
0
100
AcDbLine
 62
7
  6
CONTINUOUS
 10
671.5202616337
 20
757.3943057978
 11
671.5202616337
 21
754.8943057978
  0
LINE
  5
2D1
100
AcDbEntity
  8
0
100
AcDbLine
 62
7
  6
CONTINUOUS
 10
671.5702616337
 20
752.6446678878
 11
671.5702616337
 21
760.8958935804
  0
LINE
  5
2D2
100
AcDbEntity
  8
0
100
AcDbLine
 62
7
  6
CONTINUOUS
 10
672.0202616337
 20
778.7943057978
 11
672.0202616337
 21
774.7943051204
  0
LINE
  5
2D3
100
AcDbEntity
  8
0
100
AcDbLine
 62
7
  6
CONTINUOUS
 10
672.1644759691
 20
752.8176053651
 11
672.1644759691
 21
752.0943057978
  0
LINE
  5
2D4
100
AcDbEntity
  8
0
100
AcDbLine
 62
7
  6
CONTINUOUS
 10
672.1702616337
 20
769.5943057978
 11
672.1702616337
 21
755.5943057978
  0
LINE
  5
2D5
100
AcDbEntity
  8
0
100
AcDbLine
 62
7
  6
CONTINUOUS
 10
672.3202616337
 20
760.3943057978
 11
672.3202616337
 21
764.7943057978
  0
LINE
  5
2D6
100
AcDbEntity
  8
0
100
AcDbLine
 62
7
  6
CONTINUOUS
 10
672.4179363666
 20
745.0943057978
 11
672.4179363666
 21
764.7943057978
  0
LINE
  5
2D7
100
AcDbEntity
  8
0
100
AcDbLine
 62
7
  6
CONTINUOUS
 10
672.5202616337
 20
760.3943057978
 11
672.5202616337
 21
759.9943057978
  0
LINE
  5
2D8
100
AcDbEntity
  8
0
100
AcDbLine
 62
7
  6
CONTINUOUS
 10
672.6202616337
 20
769.9943057978
 11
672.6202616337
 21
758.7943057978
  0
LINE
  5
2D9
100
AcDbEntity
  8
0
100
AcDbLine
 62
7
  6
CONTINUOUS
 10
672.7702616337
 20
753.5943057978
 11
672.7702616337
 21
754.8943057978
  0
LINE
  5
2DA
100
AcDbEntity
  8
0
100
AcDbLine
 62
7
  6
CONTINUOUS
 10
672.9702616337
 20
742.5943057978
 11
672.9702616337
 21
758.7943057978
  0
LINE
  5
2DB
100
AcDbEntity
  8
0
100
AcDbLine
 62
7
  6
CONTINUOUS
 10
673.0202616337
 20
769.9943057978
 11
673.0202616337
 21
764.7943057978
  0
LINE
  5
2DC
100
AcDbEntity
  8
0
100
AcDbLine
 62
7
  6
CONTINUOUS
 10
673.0202616337
 20
758.7943057978
 11
673.0202616337
 21
754.8943057978
  0
LINE
  5
2DD
100
AcDbEntity
  8
0
100
AcDbLine
 62
7
  6
CONTINUOUS
 10
673.1202616337
 20
766.7943057978
 11
673.1202616337
 21
768.2943057978
  0
LINE
  5
2DE
100
AcDbEntity
  8
0
100
AcDbLine
 62
7
  6
CONTINUOUS
 10
673.1308700222
 20
744.5943057978
 11
673.1308700222
 21
742.5943057978
  0
LINE
  5
2DF
100
AcDbEntity
  8
0
100
AcDbLine
 62
7
  6
CONTINUOUS
 10
673.1581732364
 20
771.0943057978
 11
673.1581732364
 21
766.5943057978
  0
LINE
  5
2E0
100
AcDbEntity
  8
0
100
AcDbLine
 62
7
  6
CONTINUOUS
 10
673.2967134735
 20
764.7943057978
 11
673.2967134735
 21
760.3943057978
  0
LINE
  5
2E1
100
AcDbEntity
  8
0
100
AcDbLine
 62
7
  6
CONTINUOUS
 10
673.4637287964
 20
764.7943057978
 11
673.4637287964
 21
760.3943057978
  0
LINE
  5
2E2
100
AcDbEntity
  8
0
100
AcDbLine
 62
7
  6
CONTINUOUS
 10
673.7202616337
 20
753.7943057978
 11
673.7202616337
 21
746.2943057978
  0
LINE
  5
2E3
100
AcDbEntity
  8
0
100
AcDbLine
 62
7
  6
CONTINUOUS
 10
646.086586907
 20
777.9738623436
 11
645.9857253909
 21
776.8865786926
  0
LINE
  5
2E4
100
AcDbEntity
  8
0
100
AcDbLine
 62
7
  6
CONTINUOUS
 10
646.7116293025
 20
780.711797715
 11
646.8124908188
 21
781.7990813675
  0
LINE
  5
2E5
100
AcDbEntity
  8
0
100
AcDbLine
 62
7
  6
CONTINUOUS
 10
645.9274575099
 20
776.9530272346
 11
646.0627447652
 21
778.189129237
  0
LINE
  5
2E6
100
AcDbEntity
  8
0
100
AcDbLine
 62
7
  6
CONTINUOUS
 10
646.7766291493
 20
780.711797715
 11
646.911916405
 21
781.9478997192
  0
LINE
  5
2E7
100
AcDbEntity
  8
0
100
AcDbLine
 62
7
  6
CONTINUOUS
 10
646.3432968372
 20
778.7113766693
 11
646.3644705391
 21
778.8824119183
  0
LINE
  5
2E8
100
AcDbEntity
  8
0
100
AcDbLine
 62
7
  6
CONTINUOUS
 10
646.3432968372
 20
778.7116839547
 11
646.3776070024
 21
778.9455674299
  0
LINE
  5
2E9
100
AcDbEntity
  8
0
100
AcDbLine
 62
7
  6
CONTINUOUS
 10
646.086586907
 20
777.9738623436
 11
646.8152876288
 21
781.8189398084
  0
LINE
  5
2EA
100
AcDbEntity
  8
0
100
AcDbLine
 62
7
  6
CONTINUOUS
 10
646.7116293025
 20
780.711797715
 11
645.9857253909
 21
776.8865786926
  0
LINE
  5
2EB
100
AcDbEntity
  8
0
100
AcDbLine
 62
7
  6
CONTINUOUS
 10
650.8302114088
 20
781.9901087127
 11
650.1043074968
 21
778.1648896888
  0
LINE
  5
2EC
100
AcDbEntity
  8
0
100
AcDbLine
 62
7
  6
CONTINUOUS
 10
646.9173064075
 20
781.9801834283
 11
646.062744765
 21
778.1891292361
  0
LINE
  5
2ED
100
AcDbEntity
  8
0
100
AcDbLine
 62
7
  6
CONTINUOUS
 10
645.9274575099
 20
776.9530272346
 11
646.7766291493
 21
780.711797715
  0
LINE
  5
2EE
100
AcDbEntity
  8
0
100
AcDbLine
 62
7
  6
CONTINUOUS
 10
673.8771311541
 20
753.7943057978
 11
673.8771311541
 21
746.2943057978
  0
LINE
  5
2EF
100
AcDbEntity
  8
0
100
AcDbLine
 62
7
  6
CONTINUOUS
 10
673.9202616337
 20
759.9943057978
 11
673.9202616337
 21
760.3943057978
  0
LINE
  5
2F0
100
AcDbEntity
  8
0
100
AcDbLine
 62
7
  6
CONTINUOUS
 10
673.9702616337
 20
764.7943057978
 11
673.9702616337
 21
766.5943057978
  0
LINE
  5
2F1
100
AcDbEntity
  8
0
100
AcDbLine
 62
7
  6
CONTINUOUS
 10
673.9760331939
 20
774.7943057978
 11
673.9760331939
 21
771.8943057978
  0
LINE
  5
2F2
100
AcDbEntity
  8
0
100
AcDbLine
 62
7
  6
CONTINUOUS
 10
674.0963276216
 20
752.0943057978
 11
674.0963276216
 21
752.8176053651
  0
LINE
  5
2F3
100
AcDbEntity
  8
0
100
AcDbLine
 62
7
  6
CONTINUOUS
 10
674.1202616337
 20
758.7943057978
 11
674.1202616337
 21
760.3943057978
  0
LINE
  5
2F4
100
AcDbEntity
  8
0
100
AcDbLine
 62
7
  6
CONTINUOUS
 10
674.1202616337
 20
764.7943057978
 11
674.1202616337
 21
766.3943057978
  0
LINE
  5
2F5
100
AcDbEntity
  8
0
100
AcDbLine
 62
7
  6
CONTINUOUS
 10
674.3702616337
 20
766.7943057978
 11
674.3702616337
 21
766.3943057978
  0
LINE
  5
2F6
100
AcDbEntity
  8
0
100
AcDbLine
 62
7
  6
CONTINUOUS
 10
674.4896543627
 20
764.7943057978
 11
674.4896543627
 21
760.3943057978
  0
LINE
  5
2F7
100
AcDbEntity
  8
0
100
AcDbLine
 62
7
  6
CONTINUOUS
 10
674.5202616337
 20
778.7943057978
 11
674.5202616337
 21
776.3943057978
  0
LINE
  5
2F8
100
AcDbEntity
  8
0
100
AcDbLine
 62
7
  6
CONTINUOUS
 10
674.5202616337
 20
757.5943057978
 11
674.5202616337
 21
754.8943057978
  0
LINE
  5
2F9
100
AcDbEntity
  8
0
100
AcDbLine
 62
7
  6
CONTINUOUS
 10
674.5202616337
 20
754.8943057978
 11
674.5202616337
 21
751.5943057978
  0
LINE
  5
2FA
100
AcDbEntity
  8
0
100
AcDbLine
 62
7
  6
CONTINUOUS
 10
674.5202616337
 20
767.5943057978
 11
674.5202616337
 21
774.7943057978
  0
LINE
  5
2FB
100
AcDbEntity
  8
0
100
AcDbLine
 62
7
  6
CONTINUOUS
 10
674.6202616337
 20
754.2608323892
 11
674.6202616337
 21
761.8942817722
  0
LINE
  5
2FC
100
AcDbEntity
  8
0
100
AcDbLine
 62
7
  6
CONTINUOUS
 10
674.7702616337
 20
759.8943057978
 11
674.7702616337
 21
758.7943057978
  0
LINE
  5
2FD
100
AcDbEntity
  8
0
100
AcDbLine
 62
7
  6
CONTINUOUS
 10
674.7702616337
 20
754.8943057978
 11
674.7702616337
 21
758.7943057978
  0
LINE
  5
2FE
100
AcDbEntity
  8
0
100
AcDbLine
 62
7
  6
CONTINUOUS
 10
674.8249551295
 20
764.7943057978
 11
674.8249551295
 21
760.3943057978
  0
LINE
  5
2FF
100
AcDbEntity
  8
0
100
AcDbLine
 62
7
  6
CONTINUOUS
 10
675.6202616337
 20
768.2943057978
 11
675.6202616337
 21
774.7943057978
  0
LINE
  5
300
100
AcDbEntity
  8
0
100
AcDbLine
 62
7
  6
CONTINUOUS
 10
675.8202616337
 20
767.5943057978
 11
675.8202616337
 21
767.2943057978
  0
LINE
  5
301
100
AcDbEntity
  8
0
100
AcDbLine
 62
7
  6
CONTINUOUS
 10
676.0202616337
 20
757.3943057978
 11
676.0202616337
 21
751.5943057978
  0
LINE
  5
302
100
AcDbEntity
  8
0
100
AcDbLine
 62
7
  6
CONTINUOUS
 10
676.1202616337
 20
745.0943057978
 11
676.1202616337
 21
757.0943057978
  0
LINE
  5
303
100
AcDbEntity
  8
0
100
AcDbLine
 62
7
  6
CONTINUOUS
 10
676.2005656266
 20
753.7943057978
 11
676.2005656266
 21
746.2943057978
  0
LINE
  5
304
100
AcDbEntity
  8
0
100
AcDbLine
 62
7
  6
CONTINUOUS
 10
676.2831739207
 20
744.5943057978
 11
676.2831739207
 21
742.5943057978
  0
LINE
  5
305
100
AcDbEntity
  8
0
100
AcDbLine
 62
7
  6
CONTINUOUS
 10
676.5272114448
 20
751.5943057978
 11
676.5272114448
 21
745.0943057978
  0
LINE
  5
306
100
AcDbEntity
  8
0
100
AcDbLine
 62
7
  6
CONTINUOUS
 10
676.7702616337
 20
767.0943057978
 11
676.7702616337
 21
758.0943057978
  0
LINE
  5
307
100
AcDbEntity
  8
0
100
AcDbLine
 62
7
  6
CONTINUOUS
 10
676.9202616337
 20
768.0943057978
 11
676.9202616337
 21
769.1192309469
  0
LINE
  5
308
100
AcDbEntity
  8
0
100
AcDbLine
 62
7
  6
CONTINUOUS
 10
676.9702616337
 20
778.7943057978
 11
676.9702616337
 21
774.7943057978
  0
LINE
  5
309
100
AcDbEntity
  8
0
100
AcDbLine
 62
7
  6
CONTINUOUS
 10
677.0202616337
 20
745.0943057978
 11
677.0202616337
 21
751.5943057978
  0
LINE
  5
30A
100
AcDbEntity
  8
0
100
AcDbLine
 62
7
  6
CONTINUOUS
 10
677.0202616337
 20
755.6461162475
 11
677.0202616337
 21
761.3800402378
  0
LINE
  5
30B
100
AcDbEntity
  8
0
100
AcDbLine
 62
7
  6
CONTINUOUS
 10
677.1256234638
 20
764.7943057978
 11
677.1256234638
 21
760.3943057978
  0
LINE
  5
30C
100
AcDbEntity
  8
0
100
AcDbLine
 62
7
  6
CONTINUOUS
 10
677.3202616337
 20
767.5943057978
 11
677.3202616337
 21
758.7943057978
  0
LINE
  5
30D
100
AcDbEntity
  8
0
100
AcDbLine
 62
7
  6
CONTINUOUS
 10
677.4205524983
 20
757.5943057978
 11
677.4205524983
 21
758.7943057978
  0
LINE
  5
30E
100
AcDbEntity
  8
0
100
AcDbLine
 62
7
  6
CONTINUOUS
 10
677.8662958761
 20
757.0943057978
 11
677.8662958761
 21
745.0943057978
  0
LINE
  5
30F
100
AcDbEntity
  8
0
100
AcDbLine
 62
7
  6
CONTINUOUS
 10
677.9202616337
 20
767.2943057978
 11
677.9202616337
 21
766.7943057978
  0
LINE
  5
310
100
AcDbEntity
  8
0
100
AcDbLine
 62
7
  6
CONTINUOUS
 10
678.0202616337
 20
763.2943057978
 11
678.0202616337
 21
778.4943057978
  0
LINE
  5
311
100
AcDbEntity
  8
0
100
AcDbLine
 62
7
  6
CONTINUOUS
 10
678.115524124
 20
745.0943057978
 11
678.115524124
 21
750.0943057978
  0
LINE
  5
312
100
AcDbEntity
  8
0
100
AcDbLine
 62
7
  6
CONTINUOUS
 10
678.2702616337
 20
759.8943057978
 11
678.2702616337
 21
758.9846715418
  0
LINE
  5
313
100
AcDbEntity
  8
0
100
AcDbLine
 62
7
  6
CONTINUOUS
 10
678.2742117395
 20
777.0143057978
 11
678.2742117395
 21
774.7943057978
  0
LINE
  5
314
100
AcDbEntity
  8
0
100
AcDbLine
 62
7
  6
CONTINUOUS
 10
678.4702616337
 20
763.2943057978
 11
678.4702616337
 21
755.2943057978
  0
LINE
  5
315
100
AcDbEntity
  8
0
100
AcDbLine
 62
7
  6
CONTINUOUS
 10
678.4702616337
 20
753.7943057978
 11
678.4702616337
 21
746.2943057978
  0
LINE
  5
316
100
AcDbEntity
  8
0
100
AcDbLine
 62
7
  6
CONTINUOUS
 10
678.5202616337
 20
760.392425393
 11
678.5202616337
 21
759.5997527753
  0
LINE
  5
317
100
AcDbEntity
  8
0
100
AcDbLine
 62
7
  6
CONTINUOUS
 10
678.712569326
 20
769.9943057978
 11
678.712569326
 21
758.7943057978
  0
LINE
  5
318
100
AcDbEntity
  8
0
100
AcDbLine
 62
7
  6
CONTINUOUS
 10
678.7702616337
 20
766.7943057978
 11
678.7702616337
 21
757.5943057978
  0
LINE
  5
319
100
AcDbEntity
  8
0
100
AcDbLine
 62
7
  6
CONTINUOUS
 10
678.9202616337
 20
757.0943057978
 11
678.9202616337
 21
768.0943057978
  0
LINE
  5
31A
100
AcDbEntity
  8
0
100
AcDbLine
 62
7
  6
CONTINUOUS
 10
679.0202616337
 20
750.0943057978
 11
679.0202616337
 21
745.0943057978
  0
LINE
  5
31B
100
AcDbEntity
  8
0
100
AcDbLine
 62
7
  6
CONTINUOUS
 10
679.1048456581
 20
767.5943057978
 11
679.1048456581
 21
767.2943057978
  0
LINE
  5
31C
100
AcDbEntity
  8
0
100
AcDbLine
 62
7
  6
CONTINUOUS
 10
679.1702616337
 20
769.5943057978
 11
679.1702616337
 21
765.0943057978
  0
LINE
  5
31D
100
AcDbEntity
  8
0
100
AcDbLine
 62
7
  6
CONTINUOUS
 10
679.1702616337
 20
755.5943057978
 11
679.1702616337
 21
760.0943057978
  0
LINE
  5
31E
100
AcDbEntity
  8
0
100
AcDbLine
 62
7
  6
CONTINUOUS
 10
679.2702616337
 20
767.0943057978
 11
679.2702616337
 21
765.0943057978
  0
LINE
  5
31F
100
AcDbEntity
  8
0
100
AcDbLine
 62
7
  6
CONTINUOUS
 10
679.2702616337
 20
760.0943057978
 11
679.2702616337
 21
758.0943057978
  0
LINE
  5
320
100
AcDbEntity
  8
0
100
AcDbLine
 62
7
  6
CONTINUOUS
 10
679.2702616337
 20
746.0943057978
 11
679.2702616337
 21
751.5943057978
  0
LINE
  5
321
100
AcDbEntity
  8
0
100
AcDbLine
 62
7
  6
CONTINUOUS
 10
679.3202616337
 20
744.8943057978
 11
679.3202616337
 21
747.1712288748
  0
LINE
  5
322
100
AcDbEntity
  8
0
100
AcDbLine
 62
7
  6
CONTINUOUS
 10
679.4964989688
 20
778.7943057978
 11
679.4964989688
 21
774.7943057978
  0
LINE
  5
323
100
AcDbEntity
  8
0
100
AcDbLine
 62
7
  6
CONTINUOUS
 10
679.5964242448
 20
764.7943057978
 11
679.5964242448
 21
760.3943057978
  0
LINE
  5
324
100
AcDbEntity
  8
0
100
AcDbLine
 62
7
  6
CONTINUOUS
 10
679.9202616337
 20
771.0254241161
 11
679.9202616337
 21
769.5946730555
  0
LINE
  5
325
100
AcDbEntity
  8
0
100
AcDbLine
 62
7
  6
CONTINUOUS
 10
680.3292616337
 20
771.0668514991
 11
680.3292616337
 21
769.5946730555
  0
LINE
  5
326
100
AcDbEntity
  8
0
100
AcDbLine
 62
7
  6
CONTINUOUS
 10
680.4112327114
 20
764.7943057978
 11
680.4112327114
 21
760.3943057978
  0
LINE
  5
327
100
AcDbEntity
  8
0
100
AcDbLine
 62
7
  6
CONTINUOUS
 10
680.5202616337
 20
771.0254241161
 11
680.5202616337
 21
769.1943057978
  0
LINE
  5
328
100
AcDbEntity
  8
0
100
AcDbLine
 62
7
  6
CONTINUOUS
 10
681.5202616337
 20
771.0254241161
 11
681.5202616337
 21
769.1943057978
  0
LINE
  5
329
100
AcDbEntity
  8
0
100
AcDbLine
 62
7
  6
CONTINUOUS
 10
681.629290556
 20
764.7943057978
 11
681.629290556
 21
760.3943057978
  0
LINE
  5
32A
100
AcDbEntity
  8
0
100
AcDbLine
 62
7
  6
CONTINUOUS
 10
681.7112616337
 20
771.0668514991
 11
681.7112616337
 21
769.5946730555
  0
LINE
  5
32B
100
AcDbEntity
  8
0
100
AcDbLine
 62
7
  6
CONTINUOUS
 10
682.1202616337
 20
771.0254241161
 11
682.1202616337
 21
769.5946730555
  0
LINE
  5
32C
100
AcDbEntity
  8
0
100
AcDbLine
 62
7
  6
CONTINUOUS
 10
682.4421528612
 20
764.7943057978
 11
682.4421528612
 21
760.3943057978
  0
LINE
  5
32D
100
AcDbEntity
  8
0
100
AcDbLine
 62
7
  6
CONTINUOUS
 10
682.6702616337
 20
767.0943057978
 11
682.6702616337
 21
765.0943057978
  0
LINE
  5
32E
100
AcDbEntity
  8
0
100
AcDbLine
 62
7
  6
CONTINUOUS
 10
682.6702616337
 20
760.0943057978
 11
682.6702616337
 21
758.0943057978
  0
LINE
  5
32F
100
AcDbEntity
  8
0
100
AcDbLine
 62
7
  6
CONTINUOUS
 10
682.7202616337
 20
744.8943057978
 11
682.7202616337
 21
747.1712288748
  0
LINE
  5
330
100
AcDbEntity
  8
0
100
AcDbLine
 62
7
  6
CONTINUOUS
 10
682.7702616337
 20
769.5943057978
 11
682.7702616337
 21
765.0943057978
  0
LINE
  5
331
100
AcDbEntity
  8
0
100
AcDbLine
 62
7
  6
CONTINUOUS
 10
682.7702616337
 20
746.0943057978
 11
682.7702616337
 21
751.5943057978
  0
LINE
  5
332
100
AcDbEntity
  8
0
100
AcDbLine
 62
7
  6
CONTINUOUS
 10
682.7702616337
 20
755.5943057978
 11
682.7702616337
 21
760.0943057978
  0
LINE
  5
333
100
AcDbEntity
  8
0
100
AcDbLine
 62
7
  6
CONTINUOUS
 10
682.9356776092
 20
767.5943057978
 11
682.9356776092
 21
767.2943057978
  0
LINE
  5
334
100
AcDbEntity
  8
0
100
AcDbLine
 62
7
  6
CONTINUOUS
 10
683.0202616337
 20
750.0943057978
 11
683.0202616337
 21
745.0943057978
  0
LINE
  5
335
100
AcDbEntity
  8
0
100
AcDbLine
 62
7
  6
CONTINUOUS
 10
683.1202616337
 20
757.0943057978
 11
683.1202616337
 21
768.0943057978
  0
LINE
  5
336
100
AcDbEntity
  8
0
100
AcDbLine
 62
7
  6
CONTINUOUS
 10
683.2702616337
 20
766.7943057978
 11
683.2702616337
 21
757.5943057978
  0
LINE
  5
337
100
AcDbEntity
  8
0
100
AcDbLine
 62
7
  6
CONTINUOUS
 10
683.3279539414
 20
769.9943057978
 11
683.3279539414
 21
758.7943057978
  0
LINE
  5
338
100
AcDbEntity
  8
0
100
AcDbLine
 62
7
  6
CONTINUOUS
 10
683.4702616337
 20
763.2943057978
 11
683.4702616337
 21
755.2943057978
  0
LINE
  5
339
100
AcDbEntity
  8
0
100
AcDbLine
 62
7
  6
CONTINUOUS
 10
683.4702616337
 20
753.7943057978
 11
683.4702616337
 21
746.2943057978
  0
LINE
  5
33A
100
AcDbEntity
  8
0
100
AcDbLine
 62
7
  6
CONTINUOUS
 10
683.5202616337
 20
760.3943057978
 11
683.5202616337
 21
759.5997527753
  0
LINE
  5
33B
100
AcDbEntity
  8
0
100
AcDbLine
 62
7
  6
CONTINUOUS
 10
683.7702616337
 20
759.8943057978
 11
683.7702616337
 21
758.9846715418
  0
LINE
  5
33C
100
AcDbEntity
  8
0
100
AcDbLine
 62
7
  6
CONTINUOUS
 10
683.9249991433
 20
750.0943057978
 11
683.9249991433
 21
745.0943057978
  0
LINE
  5
33D
100
AcDbEntity
  8
0
100
AcDbLine
 62
7
  6
CONTINUOUS
 10
683.9663115278
 20
777.0143057978
 11
683.9663115278
 21
774.7943057978
  0
LINE
  5
33E
100
AcDbEntity
  8
0
100
AcDbLine
 62
7
  6
CONTINUOUS
 10
684.1202616337
 20
767.2943057978
 11
684.1202616337
 21
766.7943057978
  0
LINE
  5
33F
100
AcDbEntity
  8
0
100
AcDbLine
 62
7
  6
CONTINUOUS
 10
684.1742273913
 20
757.0943057978
 11
684.1742273913
 21
745.0943057978
  0
LINE
  5
340
100
AcDbEntity
  8
0
100
AcDbLine
 62
7
  6
CONTINUOUS
 10
684.2202616337
 20
763.2943057978
 11
684.2202616337
 21
778.4943057978
  0
LINE
  5
341
100
AcDbEntity
  8
0
100
AcDbLine
 62
7
  6
CONTINUOUS
 10
684.6199707691
 20
758.7943057978
 11
684.6199707691
 21
757.5943057978
  0
LINE
  5
342
100
AcDbEntity
  8
0
100
AcDbLine
 62
7
  6
CONTINUOUS
 10
684.7202616337
 20
767.5943057978
 11
684.7202616337
 21
758.7943057978
  0
LINE
  5
343
100
AcDbEntity
  8
0
100
AcDbLine
 62
7
  6
CONTINUOUS
 10
684.9148998035
 20
764.7943057978
 11
684.9148998035
 21
760.3943057978
  0
LINE
  5
344
100
AcDbEntity
  8
0
100
AcDbLine
 62
7
  6
CONTINUOUS
 10
685.0133118226
 20
751.5943057978
 11
685.0133118226
 21
745.0943057978
  0
LINE
  5
345
100
AcDbEntity
  8
0
100
AcDbLine
 62
7
  6
CONTINUOUS
 10
685.0202616337
 20
755.6461162475
 11
685.0202616337
 21
761.3800402378
  0
LINE
  5
346
100
AcDbEntity
  8
0
100
AcDbLine
 62
7
  6
CONTINUOUS
 10
685.0702616337
 20
778.7943057978
 11
685.0702616337
 21
774.7943057978
  0
LINE
  5
347
100
AcDbEntity
  8
0
100
AcDbLine
 62
7
  6
CONTINUOUS
 10
685.1202616337
 20
768.0943057978
 11
685.1202616337
 21
769.1192309469
  0
LINE
  5
348
100
AcDbEntity
  8
0
100
AcDbLine
 62
7
  6
CONTINUOUS
 10
685.1702616337
 20
767.0943057978
 11
685.1702616337
 21
758.0943057978
  0
LINE
  5
349
100
AcDbEntity
  8
0
100
AcDbLine
 62
7
  6
CONTINUOUS
 10
685.5133118226
 20
745.0943057978
 11
685.5133118226
 21
751.5943057978
  0
LINE
  5
34A
100
AcDbEntity
  8
0
100
AcDbLine
 62
7
  6
CONTINUOUS
 10
685.7399576408
 20
753.7943057978
 11
685.7399576408
 21
746.2943057978
  0
LINE
  5
34B
100
AcDbEntity
  8
0
100
AcDbLine
 62
7
  6
CONTINUOUS
 10
685.7573493466
 20
744.5943057978
 11
685.7573493466
 21
742.5943057978
  0
LINE
  5
34C
100
AcDbEntity
  8
0
100
AcDbLine
 62
7
  6
CONTINUOUS
 10
685.9202616337
 20
745.0943057978
 11
685.9202616337
 21
757.0943057978
  0
LINE
  5
34D
100
AcDbEntity
  8
0
100
AcDbLine
 62
7
  6
CONTINUOUS
 10
686.0202616337
 20
757.3943057978
 11
686.0202616337
 21
751.5943057978
  0
LINE
  5
34E
100
AcDbEntity
  8
0
100
AcDbLine
 62
7
  6
CONTINUOUS
 10
686.2202616337
 20
767.5943057978
 11
686.2202616337
 21
767.2943057978
  0
LINE
  5
34F
100
AcDbEntity
  8
0
100
AcDbLine
 62
7
  6
CONTINUOUS
 10
687.2155681379
 20
764.7943057978
 11
687.2155681379
 21
760.3943057978
  0
LINE
  5
350
100
AcDbEntity
  8
0
100
AcDbLine
 62
7
  6
CONTINUOUS
 10
687.2702616337
 20
754.8943057978
 11
687.2702616337
 21
758.7943057978
  0
LINE
  5
351
100
AcDbEntity
  8
0
100
AcDbLine
 62
7
  6
CONTINUOUS
 10
687.2702616337
 20
758.7943057978
 11
687.2702616337
 21
759.8943057978
  0
LINE
  5
352
100
AcDbEntity
  8
0
100
AcDbLine
 62
7
  6
CONTINUOUS
 10
687.4202616337
 20
754.2608323892
 11
687.4202616337
 21
761.8942817722
  0
LINE
  5
353
100
AcDbEntity
  8
0
100
AcDbLine
 62
7
  6
CONTINUOUS
 10
687.5202616337
 20
773.5943057978
 11
687.5202616337
 21
767.5943057978
  0
LINE
  5
354
100
AcDbEntity
  8
0
100
AcDbLine
 62
7
  6
CONTINUOUS
 10
687.5202616337
 20
757.5943057978
 11
687.5202616337
 21
754.8943057978
  0
LINE
  5
355
100
AcDbEntity
  8
0
100
AcDbLine
 62
7
  6
CONTINUOUS
 10
687.5202616337
 20
754.8943057978
 11
687.5202616337
 21
751.5943057978
  0
LINE
  5
356
100
AcDbEntity
  8
0
100
AcDbLine
 62
7
  6
CONTINUOUS
 10
687.5508689046
 20
760.3943057978
 11
687.5508689046
 21
764.7943057978
  0
LINE
  5
357
100
AcDbEntity
  8
0
100
AcDbLine
 62
7
  6
CONTINUOUS
 10
687.8702616337
 20
755.5943057978
 11
687.8702616337
 21
761.6219702165
  0
LINE
  5
358
100
AcDbEntity
  8
0
100
AcDbLine
 62
7
  6
CONTINUOUS
 10
687.8702616337
 20
763.5666413792
 11
687.8702616337
 21
769.5943057978
  0
LINE
  5
359
100
AcDbEntity
  8
0
100
AcDbLine
 62
7
  6
CONTINUOUS
 10
687.9202616337
 20
758.7943057978
 11
687.9202616337
 21
760.3943057978
  0
LINE
  5
35A
100
AcDbEntity
  8
0
100
AcDbLine
 62
7
  6
CONTINUOUS
 10
687.9202616337
 20
764.7943057978
 11
687.9202616337
 21
766.3943057978
  0
LINE
  5
35B
100
AcDbEntity
  8
0
100
AcDbLine
 62
7
  6
CONTINUOUS
 10
687.9441956457
 20
752.8176053704
 11
687.9441956457
 21
752.0943057978
  0
LINE
  5
35C
100
AcDbEntity
  8
0
100
AcDbLine
 62
7
  6
CONTINUOUS
 10
688.0633921132
 20
753.7943057978
 11
688.0633921132
 21
746.2943057978
  0
LINE
  5
35D
100
AcDbEntity
  8
0
100
AcDbLine
 62
7
  6
CONTINUOUS
 10
688.0702616337
 20
764.7943057978
 11
688.0702616337
 21
766.5943057978
  0
LINE
  5
35E
100
AcDbEntity
  8
0
100
AcDbLine
 62
7
  6
CONTINUOUS
 10
688.1202616337
 20
759.9943057978
 11
688.1202616337
 21
760.3943057978
  0
LINE
  5
35F
100
AcDbEntity
  8
0
100
AcDbLine
 62
7
  6
CONTINUOUS
 10
688.2202616337
 20
753.7943057978
 11
688.2202616337
 21
746.2943057978
  0
LINE
  5
360
100
AcDbEntity
  8
0
100
AcDbLine
 62
7
  6
CONTINUOUS
 10
688.576794471
 20
764.7943057978
 11
688.576794471
 21
760.3943057978
  0
LINE
  5
361
100
AcDbEntity
  8
0
100
AcDbLine
 62
7
  6
CONTINUOUS
 10
688.7438097938
 20
764.7943057978
 11
688.7438097938
 21
760.3943057978
  0
LINE
  5
362
100
AcDbEntity
  8
0
100
AcDbLine
 62
7
  6
CONTINUOUS
 10
688.8823505221
 20
766.5943057978
 11
688.8823505221
 21
771.0943057978
  0
LINE
  5
363
100
AcDbEntity
  8
0
100
AcDbLine
 62
7
  6
CONTINUOUS
 10
688.9096532452
 20
744.5943057978
 11
688.9096532452
 21
742.5943057978
  0
LINE
  5
364
100
AcDbEntity
  8
0
100
AcDbLine
 62
7
  6
CONTINUOUS
 10
688.9702616337
 20
746.2943057978
 11
688.9702616337
 21
758.7943057978
  0
LINE
  5
365
100
AcDbEntity
  8
0
100
AcDbLine
 62
7
  6
CONTINUOUS
 10
689.0202616337
 20
769.9943057978
 11
689.0202616337
 21
764.7943057978
  0
LINE
  5
366
100
AcDbEntity
  8
0
100
AcDbLine
 62
7
  6
CONTINUOUS
 10
689.0202616337
 20
754.8943057978
 11
689.0202616337
 21
758.7943057978
  0
LINE
  5
367
100
AcDbEntity
  8
0
100
AcDbLine
 62
7
  6
CONTINUOUS
 10
689.0702616337
 20
750.5943057978
 11
689.0702616337
 21
742.5943057978
  0
LINE
  5
368
100
AcDbEntity
  8
0
100
AcDbLine
 62
7
  6
CONTINUOUS
 10
689.1202616337
 20
766.7943057978
 11
689.1202616337
 21
774.7943057978
  0
LINE
  5
369
100
AcDbEntity
  8
0
100
AcDbLine
 62
7
  6
CONTINUOUS
 10
689.2702616337
 20
753.5943057978
 11
689.2702616337
 21
754.8943057978
  0
LINE
  5
36A
100
AcDbEntity
  8
0
100
AcDbLine
 62
7
  6
CONTINUOUS
 10
689.4202616337
 20
769.9943057978
 11
689.4202616337
 21
758.7943057978
  0
LINE
  5
36B
100
AcDbEntity
  8
0
100
AcDbLine
 62
7
  6
CONTINUOUS
 10
689.5202616337
 20
760.3943057978
 11
689.5202616337
 21
759.9943057978
  0
LINE
  5
36C
100
AcDbEntity
  8
0
100
AcDbLine
 62
7
  6
CONTINUOUS
 10
689.5202616337
 20
774.7943057978
 11
689.5202616337
 21
778.7943057978
  0
LINE
  5
36D
100
AcDbEntity
  8
0
100
AcDbLine
 62
7
  6
CONTINUOUS
 10
689.6225869007
 20
745.0943057978
 11
689.6225869007
 21
764.7943057978
  0
LINE
  5
36E
100
AcDbEntity
  8
0
100
AcDbLine
 62
7
  6
CONTINUOUS
 10
689.7202616337
 20
764.7943057978
 11
689.7202616337
 21
760.3943057978
  0
LINE
  5
36F
100
AcDbEntity
  8
0
100
AcDbLine
 62
7
  6
CONTINUOUS
 10
689.8702616337
 20
769.5943057978
 11
689.8702616337
 21
755.5943057978
  0
LINE
  5
370
100
AcDbEntity
  8
0
100
AcDbLine
 62
7
  6
CONTINUOUS
 10
689.8760472983
 20
752.0943057978
 11
689.8760472983
 21
752.8176053704
  0
LINE
  5
371
100
AcDbEntity
  8
0
100
AcDbLine
 62
7
  6
CONTINUOUS
 10
690.4702616337
 20
752.6446678878
 11
690.4702616337
 21
760.8943057978
  0
LINE
  5
372
100
AcDbEntity
  8
0
100
AcDbLine
 62
7
  6
CONTINUOUS
 10
690.5202616337
 20
757.3943057978
 11
690.5202616337
 21
754.8943057978
  0
LINE
  5
373
100
AcDbEntity
  8
0
100
AcDbLine
 62
7
  6
CONTINUOUS
 10
691.0202616337
 20
771.0943057978
 11
691.0202616337
 21
769.9943057978
  0
LINE
  5
374
100
AcDbEntity
  8
0
100
AcDbLine
 62
7
  6
CONTINUOUS
 10
691.0202616337
 20
750.0943057978
 11
691.0202616337
 21
745.0943057978
  0
LINE
  5
375
100
AcDbEntity
  8
0
100
AcDbLine
 62
7
  6
CONTINUOUS
 10
691.0702616337
 20
752.0943057978
 11
691.0702616337
 21
753.5943057978
  0
LINE
  5
376
100
AcDbEntity
  8
0
100
AcDbLine
 62
7
  6
CONTINUOUS
 10
691.3202616337
 20
753.5943057978
 11
691.3202616337
 21
751.5943057978
  0
LINE
  5
377
100
AcDbEntity
  8
0
100
AcDbLine
 62
7
  6
CONTINUOUS
 10
691.4702616337
 20
750.0943057978
 11
691.4702616337
 21
751.5943057978
  0
LINE
  5
378
100
AcDbEntity
  8
0
100
AcDbLine
 62
7
  6
CONTINUOUS
 10
692.2202616337
 20
773.5943057978
 11
692.2202616337
 21
771.0943057978
  0
LINE
  5
379
100
AcDbEntity
  8
0
100
AcDbLine
 62
7
  6
CONTINUOUS
 10
692.2210630352
 20
760.3943057978
 11
692.2210630352
 21
764.7943057978
  0
LINE
  5
37A
100
AcDbEntity
  8
0
100
AcDbLine
 62
7
  6
CONTINUOUS
 10
692.2986305499
 20
764.7943057978
 11
692.2986305499
 21
760.3943057978
  0
LINE
  5
37B
100
AcDbEntity
  8
0
100
AcDbLine
 62
7
  6
CONTINUOUS
 10
692.5045813784
 20
764.7943057978
 11
692.5045813784
 21
760.3943057978
  0
LINE
  5
37C
100
AcDbEntity
  8
0
100
AcDbLine
 62
7
  6
CONTINUOUS
 10
692.8702616337
 20
769.5943057978
 11
692.8702616337
 21
755.5943057978
  0
LINE
  5
37D
100
AcDbEntity
  8
0
100
AcDbLine
 62
7
  6
CONTINUOUS
 10
693.0202616337
 20
757.9943057978
 11
693.0202616337
 21
754.8943057978
  0
LINE
  5
37E
100
AcDbEntity
  8
0
100
AcDbLine
 62
7
  6
CONTINUOUS
 10
693.1202616337
 20
769.9943057978
 11
693.1202616337
 21
758.3943057978
  0
LINE
  5
37F
100
AcDbEntity
  8
0
100
AcDbLine
 62
7
  6
CONTINUOUS
 10
693.2202616337
 20
753.3943057978
 11
693.2202616337
 21
750.0943057978
  0
LINE
  5
380
100
AcDbEntity
  8
0
100
AcDbLine
 62
7
  6
CONTINUOUS
 10
693.7202616337
 20
750.0943057978
 11
693.7202616337
 21
749.7843057978
  0
LINE
  5
381
100
AcDbEntity
  8
0
100
AcDbLine
 62
7
  6
CONTINUOUS
 10
694.2202616337
 20
750.0943057978
 11
694.2202616337
 21
749.7843057978
  0
LINE
  5
382
100
AcDbEntity
  8
0
100
AcDbLine
 62
7
  6
CONTINUOUS
 10
694.5202616337
 20
773.5943057978
 11
694.5202616337
 21
758.3943057978
  0
LINE
  5
383
100
AcDbEntity
  8
0
100
AcDbLine
 62
7
  6
CONTINUOUS
 10
694.5202616337
 20
757.9943057978
 11
694.5202616337
 21
751.5943057978
  0
LINE
  5
384
100
AcDbEntity
  8
0
100
AcDbLine
 62
7
  6
CONTINUOUS
 10
694.5202616337
 20
742.5943057978
 11
694.5202616337
 21
742.8943057978
  0
LINE
  5
385
100
AcDbEntity
  8
0
100
AcDbLine
 62
7
  6
CONTINUOUS
 10
694.583386408
 20
742.5943057978
 11
694.583386408
 21
742.7980597805
  0
LINE
  5
386
100
AcDbEntity
  8
0
100
AcDbLine
 62
7
  6
CONTINUOUS
 10
696.2202616337
 20
750.0943057978
 11
696.2202616337
 21
749.7843057978
  0
LINE
  5
387
100
AcDbEntity
  8
0
100
AcDbLine
 62
7
  6
CONTINUOUS
 10
697.2202616337
 20
749.7639126522
 11
697.2202616337
 21
750.0942429226
  0
LINE
  5
388
100
AcDbEntity
  8
0
100
AcDbLine
 62
7
  6
CONTINUOUS
 10
696.2230024859
 20
750.094304305
 11
696.1181870056
 21
748.0943057979
  0
LINE
  5
389
100
AcDbEntity
  8
0
100
AcDbLine
 62
7
  6
CONTINUOUS
 10
698.2202583476
 20
750.0942430948
 11
698.115437585
 21
748.094143797
  0
LINE
  5
38A
100
AcDbEntity
  8
0
100
AcDbLine
 62
7
  6
CONTINUOUS
 10
677.1702616337
 20
778.4943057978
 11
676.9205454148
 21
774.7985057581
  0
LWPOLYLINE
  5
38B
100
AcDbEntity
  8
0
100
AcDbPolyline
 62
7
  6
CONTINUOUS
 90
4
 70
0
 10
664.172966041
 20
763.8017130808
 10
664.1714471724
 20
763.7914019284
 10
664.1705545254
 20
763.7799293144
 10
664.1702597705
 20
763.767290837
  0
LINE
  5
38C
100
AcDbEntity
  8
0
100
AcDbLine
 62
7
  6
CONTINUOUS
 10
657.0296934796
 20
776.8865786926
 11
657.7555973912
 21
780.711797715
  0
LINE
  5
38D
100
AcDbEntity
  8
0
100
AcDbLine
 62
7
  6
CONTINUOUS
 10
650.0872024001
 20
778.4125954571
 11
650.9363740401
 21
782.1713659403
  0
LINE
  5
38E
100
AcDbEntity
  8
0
100
AcDbLine
 62
7
  6
CONTINUOUS
 10
657.6518857243
 20
780.711797715
 11
656.8027140849
 21
776.9530272346
  0
LINE
  5
38F
100
AcDbEntity
  8
0
100
AcDbLine
 62
7
  6
CONTINUOUS
 10
693.2202616337
 20
750.0943057978
 11
692.0202616337
 21
745.0943057978
  0
LINE
  5
390
100
AcDbEntity
  8
0
100
AcDbLine
 62
7
  6
CONTINUOUS
 10
696.3983167118
 20
748.0651549685
 11
694.5833863768
 21
742.7980597856
  0
LINE
  5
391
100
AcDbEntity
  8
0
100
AcDbLine
 62
7
  6
CONTINUOUS
 10
698.1154390583
 20
748.0943081764
 11
696.336422554
 21
742.9314154996
  0
LINE
  5
392
100
AcDbEntity
  8
0
100
AcDbLine
 62
7
  6
CONTINUOUS
 10
688.4801974013
 20
758.0140919902
 11
689.4178644536
 21
760.0339634631
  0
LINE
  5
393
100
AcDbEntity
  8
0
100
AcDbLine
 62
7
  6
CONTINUOUS
 10
669.8202616337
 20
754.8943057978
 11
668.8202616337
 21
752.8943057978
  0
LINE
  5
394
100
AcDbEntity
  8
0
100
AcDbLine
 62
7
  6
CONTINUOUS
 10
682.1202616337
 20
769.5946730555
 11
682.8483817155
 21
770.868660359
  0
LINE
  5
395
100
AcDbEntity
  8
0
100
AcDbLine
 62
7
  6
CONTINUOUS
 10
690.4702616337
 20
756.4073280701
 11
690.4120490539
 21
756.2819296901
  0
LINE
  5
396
100
AcDbEntity
  8
0
100
AcDbLine
 62
7
  6
CONTINUOUS
 10
690.4702616337
 20
752.6446678878
 11
690.2147719129
 21
752.0943057978
  0
LINE
  5
397
100
AcDbEntity
  8
0
100
AcDbLine
 62
7
  6
CONTINUOUS
 10
670.3202616337
 20
754.8943057978
 11
668.8202616337
 21
753.3943057978
  0
LINE
  5
398
100
AcDbEntity
  8
0
100
AcDbLine
 62
7
  6
CONTINUOUS
 10
682.1202616337
 20
769.5946730555
 11
681.0202616337
 21
769.1943057978
  0
LWPOLYLINE
  5
399
100
AcDbEntity
  8
0
100
AcDbPolyline
 62
7
  6
CONTINUOUS
 90
3
 70
0
 10
695.8636998823
 20
742.5943035783
 10
696.1545746477
 20
742.6876214662
 10
696.3364211499
 20
742.9314160129
  0
LINE
  5
39A
100
AcDbEntity
  8
0
100
AcDbLine
 62
7
  6
CONTINUOUS
 10
1134.2196582897
 20
1050.7046024093
 11
134.2196582897
 21
1050.7046024093
  0
LINE
  5
39B
100
AcDbEntity
  8
0
100
AcDbLine
 62
7
  6
CONTINUOUS
 10
137.4196582897
 20
1053.9046024092
 11
1131.0196582897
 21
1053.9046024092
  0
LINE
  5
39C
100
AcDbEntity
  8
0
100
AcDbLine
 62
7
  6
CONTINUOUS
 10
1113.5842977518
 20
774.904616656
 11
1113.2101571558
 21
774.5229844185
  0
LINE
  5
39D
100
AcDbEntity
  8
0
100
AcDbLine
 62
7
  6
CONTINUOUS
 10
1113.2101571558
 20
774.5229844185
 11
1114.0710050751
 21
770.0943057978
  0
LINE
  5
39E
100
AcDbEntity
  8
0
100
AcDbLine
 62
7
  6
CONTINUOUS
 10
1115.5434458504
 20
770.0943057978
 11
1114.682597931
 21
774.5229844185
  0
LINE
  5
39F
100
AcDbEntity
  8
0
100
AcDbLine
 62
7
  6
CONTINUOUS
 10
1129.7202616337
 20
770.0943057978
 11
1129.7202616337
 21
753.6943057978
  0
LINE
  5
3A0
100
AcDbEntity
  8
0
100
AcDbLine
 62
7
  6
CONTINUOUS
 10
1131.5202616337
 20
753.6943057978
 11
1131.5202616337
 21
770.0943057978
  0
LINE
  5
3A1
100
AcDbEntity
  8
0
100
AcDbLine
 62
7
  6
CONTINUOUS
 10
1132.7196582897
 20
780.1046024092
 11
1132.7196582897
 21
1050.7046024093
  0
LINE
  5
3A2
100
AcDbEntity
  8
0
100
AcDbLine
 62
7
  6
CONTINUOUS
 10
1134.2196582897
 20
1050.7046024093
 11
1134.2196582897
 21
780.1046024092
  0
ARC
  5
3A3
100
AcDbEntity
  8
0
100
AcDbCircle
 62
7
  6
CONTINUOUS
 10
461.5546015783
 20
798.3829119395
 40
223.4358656329
100
AcDbArc
 50
354.5120492587
 51
354.8931952782
  0
ARC
  5
3A4
100
AcDbEntity
  8
0
100
AcDbCircle
 62
7
  6
CONTINUOUS
 10
628.9190549457
 20
754.3943057978
 40
4.0
100
AcDbArc
 50
270.0
 51
360.0
  0
ARC
  5
3A5
100
AcDbEntity
  8
0
100
AcDbCircle
 62
7
  6
CONTINUOUS
 10
140.9190549457
 20
754.3943057978
 40
4.0
100
AcDbArc
 50
180.0
 51
270.0
  0
ARC
  5
3A6
100
AcDbEntity
  8
0
100
AcDbCircle
 62
7
  6
CONTINUOUS
 10
137.4196582897
 20
780.1046024092
 40
3.2
100
AcDbArc
 50
180.0
 51
270.0
  0
ARC
  5
3A7
100
AcDbEntity
  8
0
100
AcDbCircle
 62
7
  6
CONTINUOUS
 10
151.7934642815
 20
774.9046024092
 40
2.0
100
AcDbArc
 50
348.9999999987
 51
90.0
  0
ARC
  5
3A8
100
AcDbEntity
  8
0
100
AcDbCircle
 62
7
  6
CONTINUOUS
 10
137.4196582897
 20
1050.7046024092
 40
3.2
100
AcDbArc
 50
90.0
 51
179.9999999999
  0
ARC
  5
3A9
100
AcDbEntity
  8
0
100
AcDbCircle
 62
7
  6
CONTINUOUS
 10
639.6202616337
 20
753.6943057978
 40
3.6
100
AcDbArc
 50
180.0
 51
270.0
  0
ARC
  5
3AA
100
AcDbEntity
  8
0
100
AcDbCircle
 62
7
  6
CONTINUOUS
 10
666.176823413
 20
743.0943057978
 40
0.5
100
AcDbArc
 50
199.0128751724
 51
269.9999998923
  0
ARC
  5
3AB
100
AcDbEntity
  8
0
100
AcDbCircle
 62
7
  6
CONTINUOUS
 10
666.3102616337
 20
749.7843057978
 40
1.49
100
AcDbArc
 50
180.0
 51
360.0
  0
ARC
  5
3AC
100
AcDbEntity
  8
0
100
AcDbCircle
 62
7
  6
CONTINUOUS
 10
666.3302616337
 20
749.7843057978
 40
1.49
100
AcDbArc
 50
269.7184702771
 51
360.0
  0
ARC
  5
3AD
100
AcDbEntity
  8
0
100
AcDbCircle
 62
7
  6
CONTINUOUS
 10
664.3202616337
 20
749.7193057978
 40
0.625
100
AcDbArc
 50
36.8698976459
 51
143.1301023542
  0
ARC
  5
3AE
100
AcDbEntity
  8
0
100
AcDbCircle
 62
7
  6
CONTINUOUS
 10
666.5202616337
 20
749.7193057978
 40
0.625
100
AcDbArc
 50
36.8698976458
 51
143.1301023542
  0
ARC
  5
3AF
100
AcDbEntity
  8
0
100
AcDbCircle
 62
7
  6
CONTINUOUS
 10
681.7202616337
 20
744.8943057978
 40
1.0
100
AcDbArc
 50
270.0
 51
359.9999999998
  0
ARC
  5
3B0
100
AcDbEntity
  8
0
100
AcDbCircle
 62
7
  6
CONTINUOUS
 10
680.3202616337
 20
744.8943057978
 40
1.0
100
AcDbArc
 50
180.0000000002
 51
270.0
  0
ARC
  5
3B1
100
AcDbEntity
  8
0
100
AcDbCircle
 62
7
  6
CONTINUOUS
 10
681.7702616337
 20
746.0943057978
 40
1.0
100
AcDbArc
 50
269.9990732598
 51
360.0
  0
ARC
  5
3B2
100
AcDbEntity
  8
0
100
AcDbCircle
 62
7
  6
CONTINUOUS
 10
680.2702616337
 20
746.0943057978
 40
1.0
100
AcDbArc
 50
180.0
 51
270.0009267094
  0
ARC
  5
3B3
100
AcDbEntity
  8
0
100
AcDbCircle
 62
7
  6
CONTINUOUS
 10
672.4702616337
 20
752.0943057978
 40
1.5
100
AcDbArc
 50
180.0
 51
270.0
  0
ARC
  5
3B4
100
AcDbEntity
  8
0
100
AcDbCircle
 62
7
  6
CONTINUOUS
 10
681.0202616337
 20
749.7193057978
 40
0.625
100
AcDbArc
 50
36.8698976458
 51
143.1301023542
  0
ARC
  5
3B5
100
AcDbEntity
  8
0
100
AcDbCircle
 62
7
  6
CONTINUOUS
 10
695.8636998544
 20
743.0943057978
 40
0.5
100
AcDbArc
 50
270.0000000922
 51
340.9871248276
  0
ARC
  5
3B6
100
AcDbEntity
  8
0
100
AcDbCircle
 62
7
  6
CONTINUOUS
 10
689.5702616337
 20
752.0943057978
 40
1.5
100
AcDbArc
 50
270.0
 51
360.0
  0
ARC
  5
3B7
100
AcDbEntity
  8
0
100
AcDbCircle
 62
7
  6
CONTINUOUS
 10
695.7302616337
 20
749.7843057978
 40
1.49
100
AcDbArc
 50
180.0
 51
360.0
  0
ARC
  5
3B8
100
AcDbEntity
  8
0
100
AcDbCircle
 62
7
  6
CONTINUOUS
 10
695.7102616337
 20
749.7843057978
 40
1.49
100
AcDbArc
 50
180.0
 51
270.3473981259
  0
ARC
  5
3B9
100
AcDbEntity
  8
0
100
AcDbCircle
 62
7
  6
CONTINUOUS
 10
697.7202616337
 20
749.7193057978
 40
0.625
100
AcDbArc
 50
36.8698976458
 51
143.1301023541
  0
ARC
  5
3BA
100
AcDbEntity
  8
0
100
AcDbCircle
 62
7
  6
CONTINUOUS
 10
695.5202616337
 20
749.7193057978
 40
0.625
100
AcDbArc
 50
36.8698976458
 51
143.1301023542
  0
ARC
  5
3BB
100
AcDbEntity
  8
0
100
AcDbCircle
 62
7
  6
CONTINUOUS
 10
681.0203885716
 20
763.9058120632
 40
6.9628478266
100
AcDbArc
 50
85.8831103902
 51
94.116854495
  0
ARC
  5
3BC
100
AcDbEntity
  8
0
100
AcDbCircle
 62
7
  6
CONTINUOUS
 10
681.0202616337
 20
764.9443057978
 40
6.2
100
AcDbArc
 50
53.4050690444
 51
72.8509727119
  0
ARC
  5
3BD
100
AcDbEntity
  8
0
100
AcDbCircle
 62
7
  6
CONTINUOUS
 10
681.0202616337
 20
764.9443057978
 40
6.2
100
AcDbArc
 50
107.1490272032
 51
126.5949309465
  0
ARC
  5
3BE
100
AcDbEntity
  8
0
100
AcDbCircle
 62
7
  6
CONTINUOUS
 10
681.0202616337
 20
764.9443057978
 40
6.1798058222
100
AcDbArc
 50
72.8928274422
 51
79.7467641384
  0
ARC
  5
3BF
100
AcDbEntity
  8
0
100
AcDbCircle
 62
7
  6
CONTINUOUS
 10
681.0202616337
 20
764.9443057978
 40
6.1798058222
100
AcDbArc
 50
100.2532358616
 51
107.1071725578
  0
ARC
  5
3C0
100
AcDbEntity
  8
0
100
AcDbCircle
 62
7
  6
CONTINUOUS
 10
680.6333695938
 20
766.0248407926
 40
5.0511733785
100
AcDbArc
 50
93.4516030856
 51
98.1159415436
  0
ARC
  5
3C1
100
AcDbEntity
  8
0
100
AcDbCircle
 62
7
  6
CONTINUOUS
 10
681.4072829068
 20
766.0261786645
 40
5.0498300037
100
AcDbArc
 50
81.8833670551
 51
86.5489466507
  0
ARC
  5
3C2
100
AcDbEntity
  8
0
100
AcDbCircle
 62
7
  6
CONTINUOUS
 10
672.5702616337
 20
760.8943057978
 40
1.0
100
AcDbArc
 50
89.994709331
 51
180.0052872488
  0
ARC
  5
3C3
100
AcDbEntity
  8
0
100
AcDbCircle
 62
7
  6
CONTINUOUS
 10
689.4702616337
 20
760.8943057978
 40
1.0
100
AcDbArc
 50
0.0
 51
90.0023681899
  0
ARC
  5
3C4
100
AcDbEntity
  8
0
100
AcDbCircle
 62
7
  6
CONTINUOUS
 10
677.9202616337
 20
769.1192309469
 40
1.0
100
AcDbArc
 50
126.5949311141
 51
180.0
  0
ARC
  5
3C5
100
AcDbEntity
  8
0
100
AcDbCircle
 62
7
  6
CONTINUOUS
 10
684.1202616337
 20
769.1192309469
 40
1.0
100
AcDbArc
 50
0.0
 51
53.4050688859
  0
ARC
  5
3C6
100
AcDbEntity
  8
0
100
AcDbCircle
 62
7
  6
CONTINUOUS
 10
667.0202616337
 20
778.8943057978
 40
4.1
100
AcDbArc
 50
249.9999943064
 51
270.0000162255
  0
ARC
  5
3C7
100
AcDbEntity
  8
0
100
AcDbCircle
 62
7
  6
CONTINUOUS
 10
661.0114225703
 20
776.611797715
 40
4.1
100
AcDbArc
 50
70.0000000001
 51
90.0000050587
  0
ARC
  5
3C8
100
AcDbEntity
  8
0
100
AcDbCircle
 62
7
  6
CONTINUOUS
 10
1125.0202616337
 20
765.3943057978
 40
5.0
100
AcDbArc
 50
78.0008086342
 51
111.7903378715
  0
ARC
  5
3C9
100
AcDbEntity
  8
0
100
AcDbCircle
 62
7
  6
CONTINUOUS
 10
1127.9202616337
 20
753.6943057978
 40
3.6
100
AcDbArc
 50
270.0
 51
360.0
  0
ARC
  5
3CA
100
AcDbEntity
  8
0
100
AcDbCircle
 62
7
  6
CONTINUOUS
 10
900.9702712314
 20
798.4104838888
 40
223.7215480961
100
AcDbArc
 50
185.1073558043
 51
185.4880151248
  0
ARC
  5
3CB
100
AcDbEntity
  8
0
100
AcDbCircle
 62
7
  6
CONTINUOUS
 10
1131.0196582897
 20
780.1046024092
 40
3.2
100
AcDbArc
 50
270.0
 51
360.0
  0
ARC
  5
3CC
100
AcDbEntity
  8
0
100
AcDbCircle
 62
7
  6
CONTINUOUS
 10
1116.6458522979
 20
774.9046024092
 40
2.0
100
AcDbArc
 50
123.6676541586
 51
191.0000000013
  0
ARC
  5
3CD
100
AcDbEntity
  8
0
100
AcDbCircle
 62
7
  6
CONTINUOUS
 10
1131.0196582897
 20
1050.7046024092
 40
3.2
100
AcDbArc
 50
0.0000000001
 51
90.0
  0
SPLINE
  5
3CE
100
AcDbEntity
  8
0
100
AcDbSpline
 62
7
  6
CONTINUOUS
 70
0
 71
3
 72
8
 73
4
 74
0
 42
0.0000001
 43
0.0000001
 44
0.0000000001
 40
0.0
 40
0.0
 40
0.0
 40
0.0
 40
1.0
 40
1.0
 40
1.0
 40
1.0
 10
630.9190549457
 20
754.3943057978
 30
0.0
 10
630.7891253227
 20
753.986119849
 30
0.0
 10
630.659335093
 20
753.57785754
 30
0.0
 10
630.5235281273
 20
753.1715892249
 30
0.0
  0
SPLINE
  5
3CF
100
AcDbEntity
  8
0
100
AcDbSpline
 62
7
  6
CONTINUOUS
 70
0
 71
3
 72
9
 73
5
 74
0
 42
0.0000001
 43
0.0000001
 44
0.0000000001
 40
0.0
 40
0.0
 40
0.0
 40
0.0
 40
0.2734106883
 40
1.0
 40
1.0
 40
1.0
 40
1.0
 10
630.5235281273
 20
753.1715892249
 30
0.0
 10
630.473153007
 20
753.0208913935
 30
0.0
 10
630.2854260331
 20
752.471035237
 30
0.0
 10
630.0823598821
 20
751.9253032288
 30
0.0
 10
629.9077339879
 20
751.54084062
 30
0.0
  0
SPLINE
  5
3D0
100
AcDbEntity
  8
0
100
AcDbSpline
 62
7
  6
CONTINUOUS
 70
0
 71
3
 72
9
 73
5
 74
0
 42
0.0000001
 43
0.0000001
 44
0.0000000001
 40
0.0
 40
0.0
 40
0.0
 40
0.0
 40
0.629942645
 40
1.0
 40
1.0
 40
1.0
 40
1.0
 10
629.9077339879
 20
751.54084062
 30
0.0
 10
629.7723255117
 20
751.2427204801
 30
0.0
 10
629.5649584117
 20
750.7836511661
 30
0.0
 10
629.1114030243
 20
750.3943057978
 30
0.0
 10
628.9190549457
 20
750.3943057978
 30
0.0
  0
SPLINE
  5
3D1
100
AcDbEntity
  8
0
100
AcDbSpline
 62
7
  6
CONTINUOUS
 70
0
 71
3
 72
9
 73
5
 74
0
 42
0.0000001
 43
0.0000001
 44
0.0000000001
 40
0.0
 40
0.0
 40
0.0
 40
0.0
 40
0.35794649
 40
1.0
 40
1.0
 40
1.0
 40
1.0
 10
140.9190549457
 20
750.3943057978
 30
0.0
 10
140.687765835
 20
750.3943057978
 30
0.0
 10
140.1595647962
 20
750.9420543189
 30
0.0
 10
139.9348020216
 20
751.5112575189
 30
0.0
 10
139.7782374047
 20
751.8954471625
 30
0.0
  0
SPLINE
  5
3D2
100
AcDbEntity
  8
0
100
AcDbSpline
 62
7
  6
CONTINUOUS
 70
0
 71
3
 72
8
 73
4
 74
0
 42
0.0000001
 43
0.0000001
 44
0.0000000001
 40
0.0
 40
0.0
 40
0.0
 40
0.0
 40
1.0
 40
1.0
 40
1.0
 40
1.0
 10
139.7782374047
 20
751.8954471625
 30
0.0
 10
139.6074375623
 20
752.3145682379
 30
0.0
 10
139.4580675903
 20
752.7423495106
 30
0.0
 10
139.3145817181
 20
753.1715893811
 30
0.0
  0
SPLINE
  5
3D3
100
AcDbEntity
  8
0
100
AcDbSpline
 62
7
  6
CONTINUOUS
 70
0
 71
3
 72
8
 73
4
 74
0
 42
0.0000001
 43
0.0000001
 44
0.0000000001
 40
0.0
 40
0.0
 40
0.0
 40
0.0
 40
1.0
 40
1.0
 40
1.0
 40
1.0
 10
139.3145817181
 20
753.1715893811
 30
0.0
 10
139.1787747714
 20
753.5778576453
 30
0.0
 10
139.0489845522
 20
753.9861199007
 30
0.0
 10
138.9190549457
 20
754.3943057978
 30
0.0
  0
SPLINE
  5
3D4
100
AcDbEntity
  8
0
100
AcDbSpline
 62
7
  6
CONTINUOUS
 70
0
 71
3
 72
8
 73
4
 74
0
 42
0.0000001
 43
0.0000001
 44
0.0000000001
 40
0.0
 40
0.0
 40
0.0
 40
0.0
 40
1.0
 40
1.0
 40
1.0
 40
1.0
 10
1129.7202616337
 20
753.6943057978
 30
0.0
 10
1129.603324973
 20
753.3269384439
 30
0.0
 10
1129.4865137662
 20
752.9595023658
 30
0.0
 10
1129.3642874971
 20
752.5938608822
 30
0.0
  0
SPLINE
  5
3D5
100
AcDbEntity
  8
0
100
AcDbSpline
 62
7
  6
CONTINUOUS
 70
0
 71
3
 72
9
 73
5
 74
0
 42
0.0000001
 43
0.0000001
 44
0.0000000001
 40
0.0
 40
0.0
 40
0.0
 40
0.0
 40
0.2734106883
 40
1.0
 40
1.0
 40
1.0
 40
1.0
 10
1129.3642874971
 20
752.5938608822
 30
0.0
 10
1129.3189498889
 20
752.4582328339
 30
0.0
 10
1129.1499956123
 20
751.9633622931
 30
0.0
 10
1128.9672360765
 20
751.4722034858
 30
0.0
 10
1128.8100727717
 20
751.1261871378
 30
0.0
  0
SPLINE
  5
3D6
100
AcDbEntity
  8
0
100
AcDbSpline
 62
7
  6
CONTINUOUS
 70
0
 71
3
 72
9
 73
5
 74
0
 42
0.0000001
 43
0.0000001
 44
0.0000000001
 40
0.0
 40
0.0
 40
0.0
 40
0.0
 40
0.3548478246
 40
1.0
 40
1.0
 40
1.0
 40
1.0
 10
1128.8100727717
 20
751.1261871378
 30
0.0
 10
1128.742340703
 20
750.977065795
 30
0.0
 10
1128.548893728
 20
750.5885260005
 30
0.0
 10
1128.2180366999
 20
750.0943057978
 30
0.0
 10
1127.9202616337
 20
750.0943057978
 30
0.0
  0
SPLINE
  5
3D7
100
AcDbEntity
  8
0
100
AcDbSpline
 62
7
  6
CONTINUOUS
 70
0
 71
3
 72
9
 73
5
 74
0
 42
0.0000001
 43
0.0000001
 44
0.0000000001
 40
0.0
 40
0.0
 40
0.0
 40
0.0
 40
0.35794649
 40
1.0
 40
1.0
 40
1.0
 40
1.0
 10
639.6202616337
 20
750.0943057978
 30
0.0
 10
639.4121014341
 20
750.0943057978
 30
0.0
 10
638.9367204992
 20
750.5872794668
 30
0.0
 10
638.734434002
 20
751.0995623468
 30
0.0
 10
638.5935258468
 20
751.445333026
 30
0.0
  0
SPLINE
  5
3D8
100
AcDbEntity
  8
0
100
AcDbSpline
 62
7
  6
CONTINUOUS
 70
0
 71
3
 72
8
 73
4
 74
0
 42
0.0000001
 43
0.0000001
 44
0.0000000001
 40
0.0
 40
0.0
 40
0.0
 40
0.0
 40
1.0
 40
1.0
 40
1.0
 40
1.0
 10
638.5935258468
 20
751.445333026
 30
0.0
 10
638.4398059887
 20
751.8225419939
 30
0.0
 10
638.3053730138
 20
752.2075451393
 30
0.0
 10
638.1762357289
 20
752.5938610228
 30
0.0
  0
SPLINE
  5
3D9
100
AcDbEntity
  8
0
100
AcDbSpline
 62
7
  6
CONTINUOUS
 70
0
 71
3
 72
8
 73
4
 74
0
 42
0.0000001
 43
0.0000001
 44
0.0000000001
 40
0.0
 40
0.0
 40
0.0
 40
0.0
 40
1.0
 40
1.0
 40
1.0
 40
1.0
 10
638.1762357289
 20
752.5938610228
 30
0.0
 10
638.0540094769
 20
752.9595024606
 30
0.0
 10
637.9371982795
 20
753.3269384904
 30
0.0
 10
637.8202616337
 20
753.6943057978
 30
0.0
  0
SPLINE
  5
3DA
100
AcDbEntity
  8
0
100
AcDbSpline
 62
7
  6
CONTINUOUS
 70
0
 71
3
 72
9
 73
5
 74
0
 42
0.0000001
 43
0.0000001
 44
0.0000000001
 40
0.0
 40
0.0
 40
0.0
 40
0.0
 40
0.1634937316
 40
1.0
 40
1.0
 40
1.0
 40
1.0
 10
1131.0196582897
 20
1053.9046024092
 30
0.0
 10
1131.100346518
 20
1053.9046024092
 30
0.0
 10
1131.5832396697
 20
1053.7085703331
 30
0.0
 10
1131.7755114607
 20
1053.1825309619
 30
0.0
 10
1131.9443772021
 20
1052.8058102661
 30
0.0
  0
SPLINE
  5
3DB
100
AcDbEntity
  8
0
100
AcDbSpline
 62
7
  6
CONTINUOUS
 70
0
 71
3
 72
8
 73
4
 74
0
 42
0.0000001
 43
0.0000001
 44
0.0000000001
 40
0.0
 40
0.0
 40
0.0
 40
0.0
 40
1.0
 40
1.0
 40
1.0
 40
1.0
 10
1131.9443772021
 20
1052.8058102661
 30
0.0
 10
1132.0943434642
 20
1052.4712522076
 30
0.0
 10
1132.2238837923
 20
1052.1276267132
 30
0.0
 10
1132.3478183872
 20
1051.7825771655
 30
0.0
  0
SPLINE
  5
3DC
100
AcDbEntity
  8
0
100
AcDbSpline
 62
7
  6
CONTINUOUS
 70
0
 71
3
 72
8
 73
4
 74
0
 42
0.0000001
 43
0.0000001
 44
0.0000000001
 40
0.0
 40
0.0
 40
0.0
 40
0.0
 40
1.0
 40
1.0
 40
1.0
 40
1.0
 10
1132.3478183872
 20
1051.7825771655
 30
0.0
 10
1132.4763061802
 20
1051.42485094
 30
0.0
 10
1132.5978823175
 20
1051.0646687614
 30
0.0
 10
1132.7196582897
 20
1050.7046024093
 30
0.0
  0
SPLINE
  5
3DD
100
AcDbEntity
  8
0
100
AcDbSpline
 62
7
  6
CONTINUOUS
 70
0
 71
3
 72
8
 73
4
 74
0
 42
0.0000001
 43
0.0000001
 44
0.0000000001
 40
0.0
 40
0.0
 40
0.0
 40
0.0
 40
1.0
 40
1.0
 40
1.0
 40
1.0
 10
135.7196582897
 20
1050.7046024093
 30
0.0
 10
135.8414341608
 20
1051.0646684627
 30
0.0
 10
135.9630101919
 20
1051.4248503443
 30
0.0
 10
136.091497868
 20
1051.7825762767
 30
0.0
  0
SPLINE
  5
3DE
100
AcDbEntity
  8
0
100
AcDbSpline
 62
7
  6
CONTINUOUS
 70
0
 71
3
 72
9
 73
5
 74
0
 42
0.0000001
 43
0.0000001
 44
0.0000000001
 40
0.0
 40
0.0
 40
0.0
 40
0.0
 40
0.2783452298
 40
1.0
 40
1.0
 40
1.0
 40
1.0
 10
136.091497868
 20
1051.7825762767
 30
0.0
 10
136.1383643544
 20
1051.9130584995
 30
0.0
 10
136.3106738803
 20
1052.3801456834
 30
0.0
 10
136.4990441575
 20
1052.8432423509
 30
0.0
 10
136.6668490045
 20
1053.1611263378
 30
0.0
  0
SPLINE
  5
3DF
100
AcDbEntity
  8
0
100
AcDbSpline
 62
7
  6
CONTINUOUS
 70
0
 71
3
 72
9
 73
5
 74
0
 42
0.0000001
 43
0.0000001
 44
0.0000000001
 40
0.0
 40
0.0
 40
0.0
 40
0.0
 40
0.3430043993
 40
1.0
 40
1.0
 40
1.0
 40
1.0
 10
136.6668490045
 20
1053.1611263378
 30
0.0
 10
136.7243034674
 20
1053.2699661838
 30
0.0
 10
136.8942712111
 20
1053.5676953065
 30
0.0
 10
137.183921204
 20
1053.9046024092
 30
0.0
 10
137.4196582897
 20
1053.9046024092
 30
0.0
  0
SPLINE
  5
3E0
100
AcDbEntity
  8
0
100
AcDbSpline
 62
7
  6
CONTINUOUS
 70
0
 71
3
 72
8
 73
4
 74
0
 42
0.0000001
 43
0.0000001
 44
0.0000000001
 40
0.0
 40
0.0
 40
0.0
 40
0.0
 40
1.0
 40
1.0
 40
1.0
 40
1.0
 10
154.8550102439
 20
774.9046063796
 30
0.0
 10
154.6014794885
 20
775.1647900253
 30
0.0
 10
154.3480682757
 20
775.4253720751
 30
0.0
 10
154.0842504169
 20
775.6751189684
 30
0.0
  0
SPLINE
  5
3E1
100
AcDbEntity
  8
0
100
AcDbSpline
 62
7
  6
CONTINUOUS
 70
0
 71
3
 72
8
 73
4
 74
0
 42
0.0000001
 43
0.0000001
 44
0.0000000001
 40
0.0
 40
0.0
 40
0.0
 40
0.0
 40
1.0
 40
1.0
 40
1.0
 40
1.0
 10
154.0842504169
 20
775.6751189684
 30
0.0
 10
153.7324837813
 20
776.0081238106
 30
0.0
 10
153.3599822169
 20
776.3301725535
 30
0.0
 10
152.9386414355
 20
776.5691368537
 30
0.0
  0
SPLINE
  5
3E2
100
AcDbEntity
  8
0
100
AcDbSpline
 62
7
  6
CONTINUOUS
 70
0
 71
3
 72
9
 73
5
 74
0
 42
0.0000001
 43
0.0000001
 44
0.0000000001
 40
0.0
 40
0.0
 40
0.0
 40
0.0
 40
0.2129380979
 40
1.0
 40
1.0
 40
1.0
 40
1.0
 10
1116.6458522979
 20
776.9046024092
 30
0.0
 10
1116.4175146449
 20
776.9046024092
 30
0.0
 10
1115.3409354052
 20
776.6876219243
 30
0.0
 10
1114.5366443625
 20
775.869609473
 30
0.0
 10
1113.9425328604
 20
775.2701624705
 30
0.0
  0
SPLINE
  5
3E3
100
AcDbEntity
  8
0
100
AcDbSpline
 62
7
  6
CONTINUOUS
 70
0
 71
3
 72
8
 73
4
 74
0
 42
0.0000001
 43
0.0000001
 44
0.0000000001
 40
0.0
 40
0.0
 40
0.0
 40
0.0
 40
1.0
 40
1.0
 40
1.0
 40
1.0
 10
1113.9425328604
 20
775.2701624705
 30
0.0
 10
1113.822436714
 20
775.148987784
 30
0.0
 10
1113.7033706913
 20
775.0267950343
 30
0.0
 10
1113.5843063534
 20
774.9046063586
 30
0.0
  0
SPLINE
  5
3E4
100
AcDbEntity
  8
0
100
AcDbSpline
 62
7
  6
CONTINUOUS
 70
0
 71
3
 72
8
 73
4
 74
0
 42
0.0000001
 43
0.0000001
 44
0.0000000001
 40
0.0
 40
0.0
 40
0.0
 40
0.0
 40
1.0
 40
1.0
 40
1.0
 40
1.0
 10
1132.7196582897
 20
780.1046024092
 30
0.0
 10
1132.5978824185
 20
779.7445363558
 30
0.0
 10
1132.4763063874
 20
779.3843544742
 30
0.0
 10
1132.3478187114
 20
779.0266285418
 30
0.0
  0
SPLINE
  5
3E5
100
AcDbEntity
  8
0
100
AcDbSpline
 62
7
  6
CONTINUOUS
 70
0
 71
3
 72
9
 73
5
 74
0
 42
0.0000001
 43
0.0000001
 44
0.0000000001
 40
0.0
 40
0.0
 40
0.0
 40
0.0
 40
0.2783452298
 40
1.0
 40
1.0
 40
1.0
 40
1.0
 10
1132.3478187114
 20
779.0266285418
 30
0.0
 10
1132.3009522249
 20
778.896146319
 30
0.0
 10
1132.128642699
 20
778.4290591352
 30
0.0
 10
1131.9402724218
 20
777.9659624676
 30
0.0
 10
1131.7724675748
 20
777.6480784807
 30
0.0
  0
SPLINE
  5
3E6
100
AcDbEntity
  8
0
100
AcDbSpline
 62
7
  6
CONTINUOUS
 70
0
 71
3
 72
9
 73
5
 74
0
 42
0.0000001
 43
0.0000001
 44
0.0000000001
 40
0.0
 40
0.0
 40
0.0
 40
0.0
 40
0.3430043993
 40
1.0
 40
1.0
 40
1.0
 40
1.0
 10
1131.7724675748
 20
777.6480784807
 30
0.0
 10
1131.715013112
 20
777.5392386347
 30
0.0
 10
1131.5450453682
 20
777.241509512
 30
0.0
 10
1131.2553953753
 20
776.9046024092
 30
0.0
 10
1131.0196582897
 20
776.9046024092
 30
0.0
  0
SPLINE
  5
3E7
100
AcDbEntity
  8
0
100
AcDbSpline
 62
7
  6
CONTINUOUS
 70
0
 71
3
 72
9
 73
5
 74
0
 42
0.0000001
 43
0.0000001
 44
0.0000000001
 40
0.0
 40
0.0
 40
0.0
 40
0.0
 40
0.1634937316
 40
1.0
 40
1.0
 40
1.0
 40
1.0
 10
137.4196582897
 20
776.9046024092
 30
0.0
 10
137.3389700614
 20
776.9046024092
 30
0.0
 10
136.8560769097
 20
777.1006344854
 30
0.0
 10
136.6638051187
 20
777.6266738566
 30
0.0
 10
136.4949393772
 20
778.0033945524
 30
0.0
  0
SPLINE
  5
3E8
100
AcDbEntity
  8
0
100
AcDbSpline
 62
7
  6
CONTINUOUS
 70
0
 71
3
 72
8
 73
4
 74
0
 42
0.0000001
 43
0.0000001
 44
0.0000000001
 40
0.0
 40
0.0
 40
0.0
 40
0.0
 40
1.0
 40
1.0
 40
1.0
 40
1.0
 10
136.4949393772
 20
778.0033945524
 30
0.0
 10
136.3449731152
 20
778.3379526109
 30
0.0
 10
136.2154327871
 20
778.6815781053
 30
0.0
 10
136.0914981921
 20
779.026627653
 30
0.0
  0
SPLINE
  5
3E9
100
AcDbEntity
  8
0
100
AcDbSpline
 62
7
  6
CONTINUOUS
 70
0
 71
3
 72
8
 73
4
 74
0
 42
0.0000001
 43
0.0000001
 44
0.0000000001
 40
0.0
 40
0.0
 40
0.0
 40
0.0
 40
1.0
 40
1.0
 40
1.0
 40
1.0
 10
136.0914981921
 20
779.026627653
 30
0.0
 10
135.9630103992
 20
779.3843538785
 30
0.0
 10
135.8414342618
 20
779.7445360571
 30
0.0
 10
135.7196582897
 20
780.1046024092
 30
0.0
  0
SPLINE
  5
3EA
100
AcDbEntity
  8
0
100
AcDbSpline
 62
7
  6
CONTINUOUS
 70
0
 71
3
 72
11
 73
7
 74
0
 42
0.0000001
 43
0.0000001
 44
0.0000000001
 40
0.0
 40
0.0
 40
0.0
 40
0.0
 40
0.3740650859
 40
0.6796406909
 40
0.8960579848
 40
1.0
 40
1.0
 40
1.0
 40
1.0
 10
694.5833863768
 20
742.7980597856
 30
0.0
 10
694.8046757599
 20
742.7863024022
 30
0.0
 10
695.2023852524
 20
742.7759173
 30
0.0
 10
695.7505128705
 20
742.78155096
 30
0.0
 10
696.0834596961
 20
742.8309830284
 30
0.0
 10
696.3163621448
 20
742.8731980436
 30
0.0
 10
696.3364225598
 20
742.9314155166
 30
0.0
  0
SPLINE
  5
3EB
100
AcDbEntity
  8
0
100
AcDbSpline
 62
7
  6
CONTINUOUS
 70
0
 71
3
 72
11
 73
7
 74
0
 42
0.0000001
 43
0.0000001
 44
0.0000000001
 40
0.0
 40
0.0
 40
0.0
 40
0.0
 40
0.1045221759
 40
0.3285545135
 40
0.6406737245
 40
1.0
 40
1.0
 40
1.0
 40
1.0
 10
665.7041007134
 20
742.9314154996
 30
0.0
 10
665.7242726322
 20
742.872874664
 30
0.0
 10
665.9631290173
 20
742.829910572
 30
0.0
 10
666.303602369
 20
742.7809306393
 30
0.0
 10
666.8516054856
 20
742.7749619384
 30
0.0
 10
667.2444885658
 20
742.7884506765
 30
0.0
 10
667.4571357801
 20
742.7980630082
 30
0.0
  0
SPLINE
  5
3EC
100
AcDbEntity
  8
0
100
AcDbSpline
 62
7
  6
CONTINUOUS
 70
0
 71
3
 72
11
 73
7
 74
0
 42
0.0000001
 43
0.0000001
 44
0.0000000001
 40
0.0
 40
0.0
 40
0.0
 40
0.0
 40
0.3740650859
 40
0.6796406909
 40
0.8960579848
 40
1.0
 40
1.0
 40
1.0
 40
1.0
 10
667.4571368905
 20
742.7980597856
 30
0.0
 10
667.2358475074
 20
742.7863024023
 30
0.0
 10
666.8381380149
 20
742.7759173
 30
0.0
 10
666.2900103968
 20
742.78155096
 30
0.0
 10
665.9570635712
 20
742.8309830284
 30
0.0
 10
665.7241611225
 20
742.8731980436
 30
0.0
 10
665.7041007075
 20
742.9314155166
 30
0.0
  0
SPLINE
  5
3ED
100
AcDbEntity
  8
0
100
AcDbSpline
 62
7
  6
CONTINUOUS
 70
0
 71
3
 72
11
 73
7
 74
0
 42
0.0000001
 43
0.0000001
 44
0.0000000001
 40
0.0
 40
0.0
 40
0.0
 40
0.0
 40
0.104522176
 40
0.3285545137
 40
0.6406737248
 40
1.0
 40
1.0
 40
1.0
 40
1.0
 10
696.336422554
 20
742.9314154996
 30
0.0
 10
696.3162506351
 20
742.872874664
 30
0.0
 10
696.0773942498
 20
742.829910572
 30
0.0
 10
695.7369208981
 20
742.7809306393
 30
0.0
 10
695.1889177815
 20
742.7749619384
 30
0.0
 10
694.7960347014
 20
742.7884506766
 30
0.0
 10
694.5833874873
 20
742.7980630082
 30
0.0
  0
SPLINE
  5
3EE
100
AcDbEntity
  8
0
100
AcDbSpline
 62
7
  6
CONTINUOUS
 70
0
 71
3
 72
11
 73
7
 74
0
 42
0.0000001
 43
0.0000001
 44
0.0000000001
 40
0.0
 40
0.0
 40
0.0
 40
0.0
 40
0.0792931496
 40
0.2953698522
 40
0.6162121046
 40
1.0
 40
1.0
 40
1.0
 40
1.0
 10
663.9250787966
 20
748.0943061448
 30
0.0
 10
663.9150393339
 20
748.13926638
 30
0.0
 10
664.1879865564
 20
747.9126807483
 30
0.0
 10
664.445729767
 20
747.9999522536
 30
0.0
 10
665.0318687343
 20
747.9399052258
 30
0.0
 10
665.4240105274
 20
748.0192532885
 30
0.0
 10
665.6422065556
 20
748.0651549685
 30
0.0
  0
SPLINE
  5
3EF
100
AcDbEntity
  8
0
100
AcDbSpline
 62
7
  6
CONTINUOUS
 70
0
 71
3
 72
11
 73
7
 74
0
 42
0.0000001
 43
0.0000001
 44
0.0000000001
 40
0.0
 40
0.0
 40
0.0
 40
0.0
 40
0.3860069166
 40
0.7092731575
 40
0.9228059681
 40
1.0
 40
1.0
 40
1.0
 40
1.0
 10
696.3983167126
 20
748.0651549684
 30
0.0
 10
696.6177516968
 20
748.0189926503
 30
0.0
 10
697.0147796637
 20
747.9390523022
 30
0.0
 10
697.5941753344
 20
748.0001584387
 30
0.0
 10
697.8677189905
 20
747.9155294182
 30
0.0
 10
698.1165443369
 20
748.1391359618
 30
0.0
 10
698.1154460481
 20
748.0943060878
 30
0.0
  0
SPLINE
  5
3F0
100
AcDbEntity
  8
0
100
AcDbSpline
 62
7
  6
CONTINUOUS
 70
0
 71
3
 72
11
 73
7
 74
0
 42
0.0000001
 43
0.0000001
 44
0.0000000001
 40
0.0
 40
0.0
 40
0.0
 40
0.0
 40
0.0759770848
 40
0.2885687842
 40
0.6119534036
 40
1.0
 40
1.0
 40
1.0
 40
1.0
 10
698.1154436719
 20
748.0943060128
 30
0.0
 10
698.1250619535
 20
748.1373800512
 30
0.0
 10
697.8582052669
 20
747.9184171674
 30
0.0
 10
697.6040869014
 20
747.9992882434
 30
0.0
 10
697.0143638365
 20
747.9390570644
 30
0.0
 10
696.6189035049
 20
748.0187503457
 30
0.0
 10
696.3983167122
 20
748.0651549685
 30
0.0
  0
SPLINE
  5
3F1
100
AcDbEntity
  8
0
100
AcDbSpline
 62
7
  6
CONTINUOUS
 70
0
 71
3
 72
11
 73
7
 74
0
 42
0.0000001
 43
0.0000001
 44
0.0000000001
 40
0.0
 40
0.0
 40
0.0
 40
0.0
 40
0.0759770851
 40
0.2885687855
 40
0.6119534064
 40
1.0
 40
1.0
 40
1.0
 40
1.0
 10
663.9250795955
 20
748.0943060128
 30
0.0
 10
663.915461314
 20
748.1373800512
 30
0.0
 10
664.1823180003
 20
747.9184171674
 30
0.0
 10
664.436436366
 20
747.9992882433
 30
0.0
 10
665.0261594278
 20
747.939057065
 30
0.0
 10
665.4216197574
 20
748.0187503437
 30
0.0
 10
665.6422065472
 20
748.0651549673
 30
0.0
  0
SPLINE
  5
3F2
100
AcDbEntity
  8
0
100
AcDbSpline
 62
7
  6
CONTINUOUS
 70
0
 71
3
 72
11
 73
7
 74
0
 42
0.0000001
 43
0.0000001
 44
0.0000000001
 40
0.0
 40
0.0
 40
0.0
 40
0.0
 40
0.3067599305
 40
0.6070786147
 40
0.853686466
 40
1.0
 40
1.0
 40
1.0
 40
1.0
 10
697.9281906933
 20
749.7843057978
 30
0.0
 10
697.9158397118
 20
749.6359241533
 30
0.0
 10
697.9172213697
 20
749.3394951831
 30
0.0
 10
697.9924720231
 20
748.9296870778
 30
0.0
 10
698.0767968889
 20
748.6070636947
 30
0.0
 10
698.1328338275
 20
748.4195682348
 30
0.0
 10
698.1287829183
 20
748.3486663633
 30
0.0
  0
SPLINE
  5
3F3
100
AcDbEntity
  8
0
100
AcDbSpline
 62
7
  6
CONTINUOUS
 70
0
 71
3
 72
11
 73
7
 74
0
 42
0.0000001
 43
0.0000001
 44
0.0000000001
 40
0.0
 40
0.0
 40
0.0
 40
0.0
 40
0.3759202962
 40
0.7003790816
 40
0.9193189834
 40
1.0
 40
1.0
 40
1.0
 40
1.0
 10
693.7202616337
 20
749.7843057978
 30
0.0
 10
693.7201507958
 20
749.5975913927
 30
0.0
 10
693.7119017539
 20
749.2545397369
 30
0.0
 10
693.7415504804
 20
748.7806892466
 30
0.0
 10
693.6832572797
 20
748.5054004547
 30
0.0
 10
693.7474173948
 20
748.3171539501
 30
0.0
 10
693.7144607948
 20
748.2943565834
 30
0.0
  0
SPLINE
  5
3F4
100
AcDbEntity
  8
0
100
AcDbSpline
 62
7
  6
CONTINUOUS
 70
0
 71
3
 72
11
 73
7
 74
0
 42
0.0000001
 43
0.0000001
 44
0.0000000001
 40
0.0
 40
0.0
 40
0.0
 40
0.0
 40
0.3781928391
 40
0.7028200554
 40
0.9204876331
 40
1.0
 40
1.0
 40
1.0
 40
1.0
 10
693.7202616337
 20
749.7843057978
 30
0.0
 10
693.7201906369
 20
749.5964704347
 30
0.0
 10
693.7130004111
 20
749.2505086014
 30
0.0
 10
693.7386655867
 20
748.7822870587
 30
0.0
 10
693.6882847352
 20
748.4955155919
 30
0.0
 10
693.7438136298
 20
748.323011319
 30
0.0
 10
693.716644275
 20
748.2943517686
 30
0.0
  0
SPLINE
  5
3F5
100
AcDbEntity
  8
0
100
AcDbSpline
 62
7
  6
CONTINUOUS
 70
0
 71
3
 72
10
 73
6
 74
0
 42
0.0000001
 43
0.0000001
 44
0.0000000001
 40
0.0
 40
0.0
 40
0.0
 40
0.0
 40
0.2942307603
 40
0.6304367923
 40
1.0
 40
1.0
 40
1.0
 40
1.0
 10
696.9273684149
 20
748.8971556671
 30
0.0
 10
696.8611153251
 20
748.9865565704
 30
0.0
 10
696.7151408564
 20
749.1751243698
 30
0.0
 10
696.4779919945
 20
749.469720977
 30
0.0
 10
696.3088335956
 20
749.6761899399
 30
0.0
 10
696.2202616337
 20
749.7843057978
 30
0.0
  0
SPLINE
  5
3F6
100
AcDbEntity
  8
0
100
AcDbSpline
 62
7
  6
CONTINUOUS
 70
0
 71
3
 72
10
 73
6
 74
0
 42
0.0000001
 43
0.0000001
 44
0.0000000001
 40
0.0
 40
0.0
 40
0.0
 40
0.0
 40
0.3697149421
 40
0.7059805585
 40
1.0
 40
1.0
 40
1.0
 40
1.0
 10
665.8202616337
 20
749.7843057978
 30
0.0
 10
665.7316532575
 20
749.6761454906
 30
0.0
 10
665.5624462178
 20
749.4696131611
 30
0.0
 10
665.3252616163
 20
749.1750443471
 30
0.0
 10
665.1793603951
 20
748.986492411
 30
0.0
 10
665.1131548525
 20
748.8971556671
 30
0.0
  0
SPLINE
  5
3F7
100
AcDbEntity
  8
0
100
AcDbSpline
 62
7
  6
CONTINUOUS
 70
0
 71
3
 72
11
 73
7
 74
0
 42
0.0000001
 43
0.0000001
 44
0.0000000001
 40
0.0
 40
0.0
 40
0.0
 40
0.0
 40
0.37595785
 40
0.7004557085
 40
0.9193660026
 40
1.0
 40
1.0
 40
1.0
 40
1.0
 10
668.3202616337
 20
749.7843057978
 30
0.0
 10
668.3203724717
 20
749.5975726058
 30
0.0
 10
668.3286534553
 20
749.2545277665
 30
0.0
 10
668.2988916899
 20
748.7804928993
 30
0.0
 10
668.3573975421
 20
748.5055370484
 30
0.0
 10
668.2930188784
 20
748.3169840745
 30
0.0
 10
668.326063389
 20
748.2943555779
 30
0.0
  0
SPLINE
  5
3F8
100
AcDbEntity
  8
0
100
AcDbSpline
 62
7
  6
CONTINUOUS
 70
0
 71
3
 72
11
 73
7
 74
0
 42
0.0000001
 43
0.0000001
 44
0.0000000001
 40
0.0
 40
0.0
 40
0.0
 40
0.0
 40
0.0799684988
 40
0.2962555
 40
0.6190173424
 40
1.0
 40
1.0
 40
1.0
 40
1.0
 10
668.3238789923
 20
748.2943517686
 30
0.0
 10
668.2966002054
 20
748.3232196696
 30
0.0
 10
668.3519679887
 20
748.4951306217
 30
0.0
 10
668.3020542042
 20
748.7807713969
 30
0.0
 10
668.3275440397
 20
749.2486671294
 30
0.0
 10
668.3203302621
 20
749.5950848308
 30
0.0
 10
668.3202616337
 20
749.7843057978
 30
0.0
  0
LINE
  5
3F9
100
AcDbEntity
  8
0
100
AcDbLine
 62
7
  6
CONTINUOUS
 10
674.6570481272
 20
758.7943057978
 11
674.7843219591
 21
758.7943057978
  0
LINE
  5
3FA
100
AcDbEntity
  8
0
100
AcDbLine
 62
7
  6
CONTINUOUS
 10
687.3834751402
 20
758.7943057978
 11
687.2561286527
 21
758.7943057978
  0
SPLINE
  5
3FB
100
AcDbEntity
  8
0
100
AcDbSpline
 62
7
  6
CONTINUOUS
 70
0
 71
3
 72
12
 73
8
 74
0
 42
0.0000001
 43
0.0000001
 44
0.0000000001
 40
0.0
 40
0.0
 40
0.0
 40
0.0
 40
0.2985901951
 40
0.5498995277
 40
0.7469252825
 40
0.8801628569
 40
1.0
 40
1.0
 40
1.0
 40
1.0
 10
668.6702616339
 20
759.1967839474
 30
0.0
 10
668.5212553064
 20
759.1176014043
 30
0.0
 10
668.2319474502
 20
758.9992854932
 30
0.0
 10
667.8152935811
 20
758.9100931107
 30
0.0
 10
667.4902620367
 20
758.8982624576
 30
0.0
 10
667.2242572531
 20
758.9733092568
 30
0.0
 10
667.1702616337
 20
759.1290618043
 30
0.0
 10
667.1702616337
 20
759.1967839475
 30
0.0
  0
SPLINE
  5
3FC
100
AcDbEntity
  8
0
100
AcDbSpline
 62
7
  6
CONTINUOUS
 70
0
 71
3
 72
10
 73
6
 74
0
 42
0.0000001
 43
0.0000001
 44
0.0000000001
 40
0.0
 40
0.0
 40
0.0
 40
0.0
 40
0.2941437782
 40
0.592297716
 40
1.0
 40
1.0
 40
1.0
 40
1.0
 10
667.1702616337
 20
765.9918276482
 30
0.0
 10
667.1702616337
 20
766.0497690967
 30
0.0
 10
667.201266192
 20
766.1759717113
 30
0.0
 10
667.3902289855
 20
766.2723993565
 30
0.0
 10
667.5292887178
 20
766.2812670404
 30
0.0
 10
667.6095993096
 20
766.2812670254
 30
0.0
  0
SPLINE
  5
3FD
100
AcDbEntity
  8
0
100
AcDbSpline
 62
7
  6
CONTINUOUS
 70
0
 71
3
 72
10
 73
6
 74
0
 42
0.0000001
 43
0.0000001
 44
0.0000000001
 40
0.0
 40
0.0
 40
0.0
 40
0.0
 40
0.2828771146
 40
0.620145467
 40
1.0
 40
1.0
 40
1.0
 40
1.0
 10
667.6095993096
 20
766.2812670254
 30
0.0
 10
667.714086071
 20
766.2812670059
 30
0.0
 10
667.9431237664
 20
766.2557337323
 30
0.0
 10
668.3014707078
 20
766.1624073516
 30
0.0
 10
668.5463618098
 20
766.0576684976
 30
0.0
 10
668.6702616339
 20
765.9918276482
 30
0.0
  0
SPLINE
  5
3FE
100
AcDbEntity
  8
0
100
AcDbSpline
 62
7
  6
CONTINUOUS
 70
0
 71
3
 72
8
 73
4
 74
0
 42
0.0000001
 43
0.0000001
 44
0.0000000001
 40
0.0
 40
0.0
 40
0.0
 40
0.0
 40
1.0
 40
1.0
 40
1.0
 40
1.0
 10
668.5141762776
 20
761.3868985149
 30
0.0
 10
668.5492979315
 20
761.3933220122
 30
0.0
 10
668.5844985479
 20
761.3996846632
 30
0.0
 10
668.6190504618
 20
761.4086822813
 30
0.0
  0
SPLINE
  5
3FF
100
AcDbEntity
  8
0
100
AcDbSpline
 62
7
  6
CONTINUOUS
 70
0
 71
3
 72
20
 73
16
 74
0
 42
0.0000001
 43
0.0000001
 44
0.0000000001
 40
0.0
 40
0.0
 40
0.0
 40
0.0
 40
0.1036264775
 40
0.19549656
 40
0.2766079983
 40
0.3477843823
 40
0.4113696481
 40
0.4712803433
 40
0.5292595702
 40
0.5885483818
 40
0.6521353128
 40
0.7232605293
 40
0.8041887831
 40
0.8960294208
 40
1.0
 40
1.0
 40
1.0
 40
1.0
 10
668.6702616337
 20
761.4213212138
 30
0.0
 10
668.7884133237
 20
761.4520889386
 30
0.0
 10
669.0072384158
 20
761.5281454261
 30
0.0
 10
669.2933193247
 20
761.6876985026
 30
0.0
 10
669.5157755386
 20
761.8729198338
 30
0.0
 10
669.6760678247
 20
762.0727319054
 30
0.0
 10
669.7790848877
 20
762.2797158791
 30
0.0
 10
669.8291900877
 20
762.489566528
 30
0.0
 10
669.828956355
 20
762.7002328684
 30
0.0
 10
669.7788570626
 20
762.9092786564
 30
0.0
 10
669.676253159
 20
763.1155840428
 30
0.0
 10
669.5161972229
 20
763.3152279415
 30
0.0
 10
669.2940885272
 20
763.5003676424
 30
0.0
 10
669.007973246
 20
763.6601810529
 30
0.0
 10
668.7888056112
 20
763.7364203115
 30
0.0
 10
668.6702616337
 20
763.7672903819
 30
0.0
  0
SPLINE
  5
400
100
AcDbEntity
  8
0
100
AcDbSpline
 62
7
  6
CONTINUOUS
 70
0
 71
3
 72
8
 73
4
 74
0
 42
0.0000001
 43
0.0000001
 44
0.0000000001
 40
0.0
 40
0.0
 40
0.0
 40
0.0
 40
1.0
 40
1.0
 40
1.0
 40
1.0
 10
668.6702615267
 20
763.7672899725
 30
0.0
 10
668.6360585677
 20
763.7761967746
 30
0.0
 10
668.6017755891
 20
763.7850436719
 30
0.0
 10
668.5670085771
 20
763.7914020052
 30
0.0
  0
SPLINE
  5
401
100
AcDbEntity
  8
0
100
AcDbSpline
 62
7
  6
CONTINUOUS
 70
0
 71
3
 72
17
 73
13
 74
0
 42
0.0000001
 43
0.0000001
 44
0.0000000001
 40
0.0
 40
0.0
 40
0.0
 40
0.0
 40
0.1548772737
 40
0.3017570058
 40
0.4394385458
 40
0.5674530737
 40
0.6837035054
 40
0.7836894316
 40
0.8641739839
 40
0.9254512263
 40
0.9692108394
 40
1.0
 40
1.0
 40
1.0
 40
1.0
 10
668.5141727893
 20
763.8017130807
 30
0.0
 10
668.287878923
 20
763.8430986285
 30
0.0
 10
667.8458391318
 20
763.9176715999
 30
0.0
 10
667.1992802801
 20
764.0077916956
 30
0.0
 10
666.5899042089
 20
764.0737151106
 30
0.0
 10
666.0239486399
 20
764.1148990775
 30
0.0
 10
665.5126225826
 20
764.1303101838
 30
0.0
 10
665.0718056128
 20
764.1187919843
 30
0.0
 10
664.7139082342
 20
764.0826732323
 30
0.0
 10
664.4445264867
 20
764.020837212
 30
0.0
 10
664.2570769808
 20
763.9414105083
 30
0.0
 10
664.1814959072
 20
763.8466439366
 30
0.0
 10
664.1729695292
 20
763.8017130807
 30
0.0
  0
SPLINE
  5
402
100
AcDbEntity
  8
0
100
AcDbSpline
 62
7
  6
CONTINUOUS
 70
0
 71
3
 72
12
 73
8
 74
0
 42
0.0000001
 43
0.0000001
 44
0.0000000001
 40
0.0
 40
0.0
 40
0.0
 40
0.0
 40
0.3084788754
 40
0.5736548079
 40
0.7991642849
 40
0.9316909573
 40
1.0
 40
1.0
 40
1.0
 40
1.0
 10
668.5141727894
 20
761.386898515
 30
0.0
 10
668.0645564761
 20
761.3046669337
 30
0.0
 10
667.2225611426
 20
761.1751915896
 30
0.0
 10
666.0486772681
 20
761.0597763022
 30
0.0
 10
665.1080947091
 20
761.0629200787
 30
0.0
 10
664.5080614751
 20
761.11798649
 30
0.0
 10
664.191857451
 20
761.2874627585
 30
0.0
 10
664.1729695292
 20
761.386898515
 30
0.0
  0
SPLINE
  5
403
100
AcDbEntity
  8
0
100
AcDbSpline
 62
7
  6
CONTINUOUS
 70
0
 71
3
 72
12
 73
8
 74
0
 42
0.0000001
 43
0.0000001
 44
0.0000000001
 40
0.0
 40
0.0
 40
0.0
 40
0.0
 40
0.1385515527
 40
0.2735173699
 40
0.4693818254
 40
0.7112492261
 40
1.0
 40
1.0
 40
1.0
 40
1.0
 10
689.8702616337
 20
759.493870607
 30
0.0
 10
689.8702616337
 20
759.3855806732
 30
0.0
 10
689.814804897
 20
759.1455852458
 30
0.0
 10
689.4334100707
 20
759.0146738614
 30
0.0
 10
688.9890868882
 20
759.0431397733
 30
0.0
 10
688.4328586393
 20
759.1807415842
 30
0.0
 10
688.058363079
 20
759.369167368
 30
0.0
 10
687.8702616337
 20
759.493870607
 30
0.0
  0
SPLINE
  5
404
100
AcDbEntity
  8
0
100
AcDbSpline
 62
7
  6
CONTINUOUS
 70
0
 71
3
 72
10
 73
6
 74
0
 42
0.0000001
 43
0.0000001
 44
0.0000000001
 40
0.0
 40
0.0
 40
0.0
 40
0.0
 40
0.3138414423
 40
0.6472084088
 40
1.0
 40
1.0
 40
1.0
 40
1.0
 10
687.8702616332
 20
763.566641379
 30
0.0
 10
687.9379193717
 20
763.6052915337
 30
0.0
 10
688.0834709193
 20
763.674761834
 30
0.0
 10
688.3198021305
 20
763.7525385786
 30
0.0
 10
688.4868634774
 20
763.7876590086
 30
0.0
 10
688.5733182032
 20
763.8017130808
 30
0.0
  0
SPLINE
  5
405
100
AcDbEntity
  8
0
100
AcDbSpline
 62
7
  6
CONTINUOUS
 70
0
 71
3
 72
9
 73
5
 74
0
 42
0.0000001
 43
0.0000001
 44
0.0000000001
 40
0.0
 40
0.0
 40
0.0
 40
0.0
 40
0.5809057099
 40
1.0
 40
1.0
 40
1.0
 40
1.0
 10
692.8205860129
 20
763.8017130808
 30
0.0
 10
692.8514961778
 20
763.7663330545
 30
0.0
 10
692.8679085734
 20
763.6797510268
 30
0.0
 10
692.8702616336
 20
763.6005355815
 30
0.0
 10
692.8702616336
 20
763.5666413788
 30
0.0
  0
SPLINE
  5
406
100
AcDbEntity
  8
0
100
AcDbSpline
 62
7
  6
CONTINUOUS
 70
0
 71
3
 72
9
 73
5
 74
0
 42
0.0000001
 43
0.0000001
 44
0.0000000001
 40
0.0
 40
0.0
 40
0.0
 40
0.0
 40
0.4188341808
 40
1.0
 40
1.0
 40
1.0
 40
1.0
 10
692.8702616336
 20
761.6219702168
 30
0.0
 10
692.8702616336
 20
761.5880972497
 30
0.0
 10
692.867908689
 20
761.5088826368
 30
0.0
 10
692.8515098364
 20
761.4222941749
 30
0.0
 10
692.820586013
 20
761.3868985149
 30
0.0
  0
SPLINE
  5
407
100
AcDbEntity
  8
0
100
AcDbSpline
 62
7
  6
CONTINUOUS
 70
0
 71
3
 72
10
 73
6
 74
0
 42
0.0000001
 43
0.0000001
 44
0.0000000001
 40
0.0
 40
0.0
 40
0.0
 40
0.0
 40
0.3525591066
 40
0.685944045
 40
1.0
 40
1.0
 40
1.0
 40
1.0
 10
688.5733182032
 20
761.3868985149
 30
0.0
 10
688.4869204548
 20
761.4009433249
 30
0.0
 10
688.3199107686
 20
761.4360473191
 30
0.0
 10
688.0835735595
 20
761.5138052411
 30
0.0
 10
687.9379656123
 20
761.5832936466
 30
0.0
 10
687.8702616333
 20
761.6219702167
 30
0.0
  0
LINE
  5
408
100
AcDbEntity
  8
0
100
AcDbLine
 62
7
  6
CONTINUOUS
 10
683.5271811702
 20
760.3943057978
 11
683.7820545296
 21
760.3943057978
  0
LINE
  5
409
100
AcDbEntity
  8
0
100
AcDbLine
 62
7
  6
CONTINUOUS
 10
678.2584687378
 20
760.3943057978
 11
678.5133420972
 21
760.3943057978
  0
SPLINE
  5
40A
100
AcDbEntity
  8
0
100
AcDbSpline
 62
7
  6
CONTINUOUS
 70
0
 71
3
 72
9
 73
5
 74
0
 42
0.0000001
 43
0.0000001
 44
0.0000000001
 40
0.0
 40
0.0
 40
0.0
 40
0.0
 40
0.5
 40
1.0
 40
1.0
 40
1.0
 40
1.0
 10
678.5133420972
 20
760.3943057978
 30
0.0
 10
678.5133420972
 20
760.3275001357
 30
0.0
 10
678.5168018654
 20
760.1939186763
 30
0.0
 10
678.5202616337
 20
760.060337217
 30
0.0
 10
678.5202616337
 20
759.9935315548
 30
0.0
  0
SPLINE
  5
40B
100
AcDbEntity
  8
0
100
AcDbSpline
 62
7
  6
CONTINUOUS
 70
0
 71
3
 72
12
 73
8
 74
0
 42
0.0000001
 43
0.0000001
 44
0.0000000001
 40
0.0
 40
0.0
 40
0.0
 40
0.0
 40
0.2959812186
 40
0.541074945
 40
0.7339243514
 40
0.8644641252
 40
1.0
 40
1.0
 40
1.0
 40
1.0
 10
687.8702616337
 20
765.6947409887
 30
0.0
 10
688.0631191805
 20
765.8225973202
 30
0.0
 10
688.4461249401
 20
766.0134785157
 30
0.0
 10
689.0087393824
 20
766.1487983524
 30
0.0
 10
689.4515057105
 20
766.1725008512
 30
0.0
 10
689.8197843232
 20
766.0336741509
 30
0.0
 10
689.8702616337
 20
765.8006991622
 30
0.0
 10
689.8702616337
 20
765.6947409887
 30
0.0
  0
SPLINE
  5
40C
100
AcDbEntity
  8
0
100
AcDbSpline
 62
7
  6
CONTINUOUS
 70
0
 71
3
 72
17
 73
13
 74
0
 42
0.0000001
 43
0.0000001
 44
0.0000000001
 40
0.0
 40
0.0
 40
0.0
 40
0.0
 40
0.1411764003
 40
0.2711679429
 40
0.3909112495
 40
0.5013168555
 40
0.6032001003
 40
0.6971211072
 40
0.7834304189
 40
0.8624852122
 40
0.9345565315
 40
1.0
 40
1.0
 40
1.0
 40
1.0
 10
661.0114220345
 20
780.7117997474
 30
0.0
 10
661.0154002208
 20
780.5235884577
 30
0.0
 10
661.0219246886
 20
780.1620496721
 30
0.0
 10
661.0262263322
 20
779.6407959724
 30
0.0
 10
661.027614295
 20
779.1605658724
 30
0.0
 10
661.0281828424
 20
778.7178079426
 30
0.0
 10
661.0235665949
 20
778.3095070204
 30
0.0
 10
661.0235282907
 20
777.9333179775
 30
0.0
 10
661.0273071598
 20
777.5875619488
 30
0.0
 10
661.0411756305
 20
777.2711861246
 30
0.0
 10
661.0402776785
 20
776.9823507754
 30
0.0
 10
661.0413769014
 20
776.7989910992
 30
0.0
 10
661.0414853236
 20
776.7117248053
 30
0.0
  0
SPLINE
  5
40D
100
AcDbEntity
  8
0
100
AcDbSpline
 62
7
  6
CONTINUOUS
 70
0
 71
3
 72
17
 73
13
 74
0
 42
0.0000001
 43
0.0000001
 44
0.0000000001
 40
0.0
 40
0.0
 40
0.0
 40
0.0
 40
0.065548383
 40
0.1378784571
 40
0.2171566517
 40
0.3037161346
 40
0.3979418871
 40
0.5000770696
 40
0.6105331479
 40
0.7299917452
 40
0.8594538172
 40
1.0
 40
1.0
 40
1.0
 40
1.0
 10
667.0143343033
 20
778.7901229813
 30
0.0
 10
666.9873692736
 20
778.7069732152
 30
0.0
 10
666.9267142316
 20
778.5333205316
 30
0.0
 10
666.8201649281
 20
778.264009624
 30
0.0
 10
666.6992017145
 20
777.9703138264
 30
0.0
 10
666.5783546305
 20
777.6451870215
 30
0.0
 10
666.4499928185
 20
777.2904119836
 30
0.0
 10
666.3136169092
 20
776.9046417814
 30
0.0
 10
666.1619607309
 20
776.4886092222
 30
0.0
 10
665.9966742316
 20
776.0387629865
 30
0.0
 10
665.8149422513
 20
775.5522109341
 30
0.0
 10
665.685713084
 20
775.2161216518
 30
0.0
 10
665.6179137701
 20
775.0413872255
 30
0.0
  0
SPLINE
  5
40E
100
AcDbEntity
  8
0
100
AcDbSpline
 62
7
  6
CONTINUOUS
 70
0
 71
3
 72
17
 73
13
 74
0
 42
0.0000001
 43
0.0000001
 44
0.0000000001
 40
0.0
 40
0.0
 40
0.0
 40
0.0
 40
0.1411762622
 40
0.271167724
 40
0.3909109973
 40
0.5013166075
 40
0.6031998816
 40
0.6971209375
 40
0.7834303178
 40
0.8624851808
 40
0.9345565434
 40
1.0
 40
1.0
 40
1.0
 40
1.0
 10
667.0202618105
 20
774.7943037656
 30
0.0
 10
667.0162836638
 20
774.9825148717
 30
0.0
 10
667.0097592498
 20
775.3440533654
 30
0.0
 10
667.0054575353
 20
775.8653067273
 30
0.0
 10
667.0040695216
 20
776.3455366802
 30
0.0
 10
667.0035010029
 20
776.7882946097
 30
0.0
 10
667.0081172346
 20
777.1965956414
 30
0.0
 10
667.0081555348
 20
777.5727848796
 30
0.0
 10
667.0043767093
 20
777.9185411573
 30
0.0
 10
666.9905083342
 20
778.2349172278
 30
0.0
 10
666.9914064145
 20
778.5237527113
 30
0.0
 10
666.9903072663
 20
778.7071124296
 30
0.0
 10
666.9901988804
 20
778.7943787075
 30
0.0
  0
SPLINE
  5
40F
100
AcDbEntity
  8
0
100
AcDbSpline
 62
7
  6
CONTINUOUS
 70
0
 71
3
 72
17
 73
13
 74
0
 42
0.0000001
 43
0.0000001
 44
0.0000000001
 40
0.0
 40
0.0
 40
0.0
 40
0.0
 40
0.1411762686
 40
0.2711677329
 40
0.3909110057
 40
0.5013166132
 40
0.6031998831
 40
0.6971209335
 40
0.7834303072
 40
0.8624851654
 40
0.93455653
 40
1.0
 40
1.0
 40
1.0
 40
1.0
 10
662.4137059361
 20
780.4645393397
 30
0.0
 10
662.3455957215
 20
780.2890393454
 30
0.0
 10
662.2158113502
 20
779.9515357515
 30
0.0
 10
662.0334899505
 20
779.4631890604
 30
0.0
 10
661.8679373469
 20
779.0123952401
 30
0.0
 10
661.7159709745
 20
778.5965333397
 30
0.0
 10
661.5806616327
 20
778.2112770476
 30
0.0
 10
661.4520333372
 20
777.8577617162
 30
0.0
 10
661.3302268005
 20
777.5341495485
 30
0.0
 10
661.2089878081
 20
777.2415965645
 30
0.0
 10
661.1110441667
 20
776.9698728183
 30
0.0
 10
661.047298581
 20
776.7979469556
 30
0.0
 10
661.0173499007
 20
776.7159805316
 30
0.0
  0
LINE
  5
410
100
AcDbEntity
  8
0
100
AcDbLine
 62
7
  6
CONTINUOUS
 10
667.0054320051
 20
778.7942372872
 11
667.0054320051
 21
774.7943037594
  0
SPLINE
  5
411
100
AcDbEntity
  8
0
100
AcDbSpline
 62
7
  6
CONTINUOUS
 70
0
 71
3
 72
12
 73
8
 74
0
 42
0.0000001
 43
0.0000001
 44
0.0000000001
 40
0.0
 40
0.0
 40
0.0
 40
0.0
 40
0.0796929765
 40
0.2241497389
 40
0.4371020827
 40
0.703201318
 40
1.0
 40
1.0
 40
1.0
 40
1.0
 10
646.086586907
 20
777.9738623436
 30
0.0
 10
646.096807892
 20
778.0840442086
 30
0.0
 10
646.3907866639
 20
778.3113767623
 30
0.0
 10
646.977402086
 20
778.3945494026
 30
0.0
 10
647.8511768355
 20
778.4365799007
 30
0.0
 10
648.9245566543
 20
778.3533344779
 30
0.0
 10
649.6990440103
 20
778.2396945839
 30
0.0
 10
650.1043074969
 20
778.1648896888
 30
0.0
  0
SPLINE
  5
412
100
AcDbEntity
  8
0
100
AcDbSpline
 62
7
  6
CONTINUOUS
 70
0
 71
3
 72
12
 73
8
 74
0
 42
0.0000001
 43
0.0000001
 44
0.0000000001
 40
0.0
 40
0.0
 40
0.0
 40
0.0
 40
0.2968336529
 40
0.5629425692
 40
0.7758831158
 40
0.9203196299
 40
1.0
 40
1.0
 40
1.0
 40
1.0
 10
650.8302114088
 20
781.9901087127
 30
0.0
 10
650.4248998147
 20
782.0649224876
 30
0.0
 10
649.6503501363
 20
782.1785683781
 30
0.0
 10
648.5769208421
 20
782.2618043963
 30
0.0
 10
647.7031819879
 20
782.2197560629
 30
0.0
 10
647.116618238
 20
782.1365659682
 30
0.0
 10
646.8227101961
 20
781.9092459
 30
0.0
 10
646.8124908189
 20
781.7990813674
 30
0.0
  0
SPLINE
  5
413
100
AcDbEntity
  8
0
100
AcDbSpline
 62
7
  6
CONTINUOUS
 70
0
 71
3
 72
10
 73
6
 74
0
 42
0.0000001
 43
0.0000001
 44
0.0000000001
 40
0.0
 40
0.0
 40
0.0
 40
0.0
 40
0.3788669914
 40
0.7048032019
 40
1.0
 40
1.0
 40
1.0
 40
1.0
 10
645.9274575093
 20
776.9530272319
 30
0.0
 10
645.966498294
 20
776.904101336
 30
0.0
 10
646.0477967157
 20
776.8191263872
 30
0.0
 10
646.1911572862
 20
776.7323129527
 30
0.0
 10
646.2945268102
 20
776.711797715
 30
0.0
 10
646.3432968372
 20
776.711797715
 30
0.0
  0
SPLINE
  5
414
100
AcDbEntity
  8
0
100
AcDbSpline
 62
7
  6
CONTINUOUS
 70
0
 71
3
 72
10
 73
6
 74
0
 42
0.0000001
 43
0.0000001
 44
0.0000000001
 40
0.0
 40
0.0
 40
0.0
 40
0.0
 40
0.3319267987
 40
0.6649387999
 40
1.0
 40
1.0
 40
1.0
 40
1.0
 10
658.3432968372
 20
776.711797715
 30
0.0
 10
658.1701591821
 20
776.711797715
 30
0.0
 10
657.8230391426
 20
776.7299416362
 30
0.0
 10
657.3069379339
 20
776.8111359607
 30
0.0
 10
656.9693095734
 20
776.9001934768
 30
0.0
 10
656.8027140843
 20
776.9530272319
 30
0.0
  0
SPLINE
  5
415
100
AcDbEntity
  8
0
100
AcDbSpline
 62
7
  6
CONTINUOUS
 70
0
 71
3
 72
12
 73
8
 74
0
 42
0.0000001
 43
0.0000001
 44
0.0000000001
 40
0.0
 40
0.0
 40
0.0
 40
0.0
 40
0.0877884692
 40
0.2334538201
 40
0.4443735354
 40
0.7069882298
 40
1.0
 40
1.0
 40
1.0
 40
1.0
 10
646.911916405
 20
781.9478997192
 30
0.0
 10
646.925334035
 20
782.0704948544
 30
0.0
 10
647.2036016357
 20
782.3322341312
 30
0.0
 10
647.8166045401
 20
782.4432792191
 30
0.0
 10
648.6895782073
 20
782.4878448441
 30
0.0
 10
649.7641333908
 20
782.3923186803
 30
0.0
 10
650.5341353792
 20
782.2587896238
 30
0.0
 10
650.9363740401
 20
782.1713659403
 30
0.0
  0
SPLINE
  5
416
100
AcDbEntity
  8
0
100
AcDbSpline
 62
7
  6
CONTINUOUS
 70
0
 71
3
 72
12
 73
8
 74
0
 42
0.0000001
 43
0.0000001
 44
0.0000000001
 40
0.0
 40
0.0
 40
0.0
 40
0.0
 40
0.2930462639
 40
0.5556705497
 40
0.766578869
 40
0.9122246127
 40
1.0
 40
1.0
 40
1.0
 40
1.0
 10
650.0872024001
 20
778.4125954571
 30
0.0
 10
649.6849160268
 20
778.5000295106
 30
0.0
 10
648.9148517339
 20
778.6335658631
 30
0.0
 10
647.8402466219
 20
778.7290802743
 30
0.0
 10
646.967306528
 20
778.6844948425
 30
0.0
 10
646.3543604236
 20
778.573427029
 30
0.0
 10
646.0761604076
 20
778.3117062124
 30
0.0
 10
646.062744765
 20
778.1891292361
 30
0.0
  0
SPLINE
  5
417
100
AcDbEntity
  8
0
100
AcDbSpline
 62
7
  6
CONTINUOUS
 70
0
 71
3
 72
12
 73
8
 74
0
 42
0.0000001
 43
0.0000001
 44
0.0000000001
 40
0.0
 40
0.0
 40
0.0
 40
0.0
 40
0.2872476778
 40
0.5655421905
 40
0.7972843056
 40
0.9499284908
 40
1.0
 40
1.0
 40
1.0
 40
1.0
 10
673.9760331939
 20
771.8943057978
 30
0.0
 10
673.9760331939
 20
771.5374681524
 30
0.0
 10
673.9240508727
 20
770.8335835602
 30
0.0
 10
673.7080776663
 20
769.8645770996
 30
0.0
 10
673.4530653362
 20
769.0807053028
 30
0.0
 10
673.2466344677
 20
768.5817900442
 30
0.0
 10
673.1454541261
 20
768.3511682815
 30
0.0
 10
673.1202616337
 20
768.2943057978
 30
0.0
  0
SPLINE
  5
418
100
AcDbEntity
  8
0
100
AcDbSpline
 62
7
  6
CONTINUOUS
 70
0
 71
3
 72
8
 73
4
 74
0
 42
0.0000001
 43
0.0000001
 44
0.0000000001
 40
0.0
 40
0.0
 40
0.0
 40
0.0
 40
1.0
 40
1.0
 40
1.0
 40
1.0
 10
681.5202616337
 20
771.0254241161
 30
0.0
 10
681.5623970336
 20
771.0382958994
 30
0.0
 10
681.6049174536
 20
771.0513423337
 30
0.0
 10
681.6486135254
 20
771.0569750986
 30
0.0
  0
SPLINE
  5
419
100
AcDbEntity
  8
0
100
AcDbSpline
 62
7
  6
CONTINUOUS
 70
0
 71
3
 72
8
 73
4
 74
0
 42
0.0000001
 43
0.0000001
 44
0.0000000001
 40
0.0
 40
0.0
 40
0.0
 40
0.0
 40
1.0
 40
1.0
 40
1.0
 40
1.0
 10
681.7112616337
 20
771.0668514991
 30
0.0
 10
681.6687727885
 20
771.0613743552
 30
0.0
 10
681.6259011996
 20
771.0557455377
 30
0.0
 10
681.5849299084
 20
771.0432293735
 30
0.0
  0
SPLINE
  5
41A
100
AcDbEntity
  8
0
100
AcDbSpline
 62
7
  6
CONTINUOUS
 70
0
 71
3
 72
8
 73
4
 74
0
 42
0.0000001
 43
0.0000001
 44
0.0000000001
 40
0.0
 40
0.0
 40
0.0
 40
0.0
 40
1.0
 40
1.0
 40
1.0
 40
1.0
 10
680.5202616337
 20
771.0254241161
 30
0.0
 10
680.4780485412
 20
771.0383196334
 30
0.0
 10
680.4354463601
 20
771.0513764569
 30
0.0
 10
680.391669718
 20
771.0570196079
 30
0.0
  0
SPLINE
  5
41B
100
AcDbEntity
  8
0
100
AcDbSpline
 62
7
  6
CONTINUOUS
 70
0
 71
3
 72
8
 73
4
 74
0
 42
0.0000001
 43
0.0000001
 44
0.0000000001
 40
0.0
 40
0.0
 40
0.0
 40
0.0
 40
1.0
 40
1.0
 40
1.0
 40
1.0
 10
680.3292616337
 20
771.0668514991
 30
0.0
 10
680.3725105723
 20
771.0612763732
 30
0.0
 10
680.4161252489
 20
771.0554196439
 30
0.0
 10
680.4578294856
 20
771.042679575
 30
0.0
  0
SPLINE
  5
41C
100
AcDbEntity
  8
0
100
AcDbSpline
 62
7
  6
CONTINUOUS
 70
0
 71
3
 72
13
 73
9
 74
0
 42
0.0000001
 43
0.0000001
 44
0.0000000001
 40
0.0
 40
0.0
 40
0.0
 40
0.0
 40
0.213207885
 40
0.4060963668
 40
0.5795891648
 40
0.7352421742
 40
0.8745877469
 40
1.0
 40
1.0
 40
1.0
 40
1.0
 10
671.8345535162
 20
761.5716045251
 30
0.0
 10
671.8940185693
 20
761.5415839864
 30
0.0
 10
672.0047788021
 20
761.479149319
 30
0.0
 10
672.151718741
 20
761.3725265479
 30
0.0
 10
672.2694053758
 20
761.2586295887
 30
0.0
 10
672.3553188102
 20
761.138881208
 30
0.0
 10
672.4066166066
 20
761.0165666269
 30
0.0
 10
672.4179363666
 20
760.9334887669
 30
0.0
 10
672.4179363666
 20
760.8943057978
 30
0.0
  0
LINE
  5
41D
100
AcDbEntity
  8
0
100
AcDbLine
 62
7
  6
CONTINUOUS
 10
689.4701692796
 20
761.8943057978
 11
687.4202616337
 21
761.8942817722
  0
LINE
  5
41E
100
AcDbEntity
  8
0
100
AcDbLine
 62
7
  6
CONTINUOUS
 10
674.6202616337
 20
761.8942817722
 11
672.5703539733
 21
761.8943057978
  0
SPLINE
  5
41F
100
AcDbEntity
  8
0
100
AcDbSpline
 62
7
  6
CONTINUOUS
 70
0
 71
3
 72
13
 73
9
 74
0
 42
0.0000001
 43
0.0000001
 44
0.0000000001
 40
0.0
 40
0.0
 40
0.0
 40
0.0
 40
0.1254630196
 40
0.2648036072
 40
0.4204526419
 40
0.5939523675
 40
0.7868482367
 40
1.0
 40
1.0
 40
1.0
 40
1.0
 10
689.6225869007
 20
760.8943057978
 30
0.0
 10
689.6225869007
 20
760.9335057581
 30
0.0
 10
689.6339141012
 20
761.0166007716
 30
0.0
 10
689.6852303714
 20
761.13892517
 30
0.0
 10
689.7711528113
 20
761.2586725818
 30
0.0
 10
689.8888568698
 20
761.3725589702
 30
0.0
 10
690.035771747
 20
761.4792118196
 30
0.0
 10
690.1465885641
 20
761.5415232513
 30
0.0
 10
690.2060398551
 20
761.5715364029
 30
0.0
  0
SPLINE
  5
420
100
AcDbEntity
  8
0
100
AcDbSpline
 62
7
  6
CONTINUOUS
 70
0
 71
3
 72
12
 73
8
 74
0
 42
0.0000001
 43
0.0000001
 44
0.0000000001
 40
0.0
 40
0.0
 40
0.0
 40
0.0
 40
0.2914034641
 40
0.5514472987
 40
0.7545207149
 40
0.8909954566
 40
1.0
 40
1.0
 40
1.0
 40
1.0
 10
674.6202616282
 20
761.8942625521
 30
0.0
 10
674.8745165398
 20
761.8942625521
 30
0.0
 10
675.354911038
 20
761.89477049
 30
0.0
 10
676.0161035151
 20
761.8834744101
 30
0.0
 10
676.5307611371
 20
761.831662788
 30
0.0
 10
676.9237036279
 20
761.6982218117
 30
0.0
 10
677.0202743414
 20
761.4751487357
 30
0.0
 10
677.0202743346
 20
761.3800402556
 30
0.0
  0
SPLINE
  5
421
100
AcDbEntity
  8
0
100
AcDbSpline
 62
7
  6
CONTINUOUS
 70
0
 71
3
 72
9
 73
5
 74
0
 42
0.0000001
 43
0.0000001
 44
0.0000000001
 40
0.0
 40
0.0
 40
0.0
 40
0.0
 40
0.625084869
 40
1.0
 40
1.0
 40
1.0
 40
1.0
 10
677.0202743346
 20
761.3800402556
 30
0.0
 10
677.0202743301
 20
761.3178522428
 30
0.0
 10
677.0009374615
 20
761.2183646394
 30
0.0
 10
676.9663509291
 20
761.1251470853
 30
0.0
 10
676.9518246171
 20
761.0907926983
 30
0.0
  0
SPLINE
  5
422
100
AcDbEntity
  8
0
100
AcDbSpline
 62
7
  6
CONTINUOUS
 70
0
 71
3
 72
9
 73
5
 74
0
 42
0.0000001
 43
0.0000001
 44
0.0000000001
 40
0.0
 40
0.0
 40
0.0
 40
0.0
 40
0.3756476189
 40
1.0
 40
1.0
 40
1.0
 40
1.0
 10
685.0886986503
 20
761.0907926983
 30
0.0
 10
685.0741435087
 20
761.1252152667
 30
0.0
 10
685.0395661578
 20
761.2184402247
 30
0.0
 10
685.0202368208
 20
761.3179290335
 30
0.0
 10
685.0202374012
 20
761.3800460889
 30
0.0
  0
SPLINE
  5
423
100
AcDbEntity
  8
0
100
AcDbSpline
 62
7
  6
CONTINUOUS
 70
0
 71
3
 72
12
 73
8
 74
0
 42
0.0000001
 43
0.0000001
 44
0.0000000001
 40
0.0
 40
0.0
 40
0.0
 40
0.0
 40
0.1097461695
 40
0.2460454922
 40
0.4497583981
 40
0.7105583607
 40
1.0
 40
1.0
 40
1.0
 40
1.0
 10
685.0202374012
 20
761.3800460889
 30
0.0
 10
685.0202382959
 20
761.4757967425
 30
0.0
 10
685.1182309669
 20
761.6991102787
 30
0.0
 10
685.5118512
 20
761.832356089
 30
0.0
 10
686.0278221824
 20
761.8834185777
 30
0.0
 10
686.6883797448
 20
761.8948384936
 30
0.0
 10
687.1677313921
 20
761.8942625521
 30
0.0
 10
687.4202616286
 20
761.8942625521
 30
0.0
  0
SPLINE
  5
424
100
AcDbEntity
  8
0
100
AcDbSpline
 62
7
  6
CONTINUOUS
 70
0
 71
3
 72
10
 73
6
 74
0
 42
0.0000001
 43
0.0000001
 44
0.0000000001
 40
0.0
 40
0.0
 40
0.0
 40
0.0
 40
0.3569934164
 40
0.6750637793
 40
1.0
 40
1.0
 40
1.0
 40
1.0
 10
676.7783435319
 20
756.2522281008
 30
0.0
 10
676.829338838
 20
756.1917357569
 30
0.0
 10
676.915758739
 20
756.0680338942
 30
0.0
 10
677.0005503183
 20
755.8613476969
 30
0.0
 10
677.0201353246
 20
755.7181305236
 30
0.0
 10
677.0201362289
 20
755.6461160642
 30
0.0
  0
SPLINE
  5
425
100
AcDbEntity
  8
0
100
AcDbSpline
 62
7
  6
CONTINUOUS
 70
0
 71
3
 72
12
 73
8
 74
0
 42
0.0000001
 43
0.0000001
 44
0.0000000001
 40
0.0
 40
0.0
 40
0.0
 40
0.0
 40
0.154280682
 40
0.3303411199
 40
0.5466626103
 40
0.7769268929
 40
1.0
 40
1.0
 40
1.0
 40
1.0
 10
677.0201362289
 20
755.6461160642
 30
0.0
 10
677.0201381749
 20
755.4911381188
 30
0.0
 10
676.9142417493
 20
755.1564748071
 30
0.0
 10
676.5169396868
 20
754.7594158315
 30
0.0
 10
675.9556450177
 20
754.4678284931
 30
0.0
 10
675.3005809084
 20
754.2973364151
 30
0.0
 10
674.8443429079
 20
754.2608323892
 30
0.0
 10
674.6202616337
 20
754.2608323892
 30
0.0
  0
SPLINE
  5
426
100
AcDbEntity
  8
0
100
AcDbSpline
 62
7
  6
CONTINUOUS
 70
0
 71
3
 72
12
 73
8
 74
0
 42
0.0000001
 43
0.0000001
 44
0.0000000001
 40
0.0
 40
0.0
 40
0.0
 40
0.0
 40
0.3114056044
 40
0.5502335305
 40
0.7542680398
 40
0.897743985
 40
1.0
 40
1.0
 40
1.0
 40
1.0
 10
674.6202616337
 20
755.4727550657
 30
0.0
 10
674.8332481241
 20
755.6031821216
 30
0.0
 10
675.2091772347
 20
755.8334734307
 30
0.0
 10
675.7379955732
 20
756.1309811354
 30
0.0
 10
676.1653385667
 20
756.3204334457
 30
0.0
 10
676.5286667076
 20
756.4084676443
 30
0.0
 10
676.7254851015
 20
756.3149305451
 30
0.0
 10
676.7783435319
 20
756.2522281008
 30
0.0
  0
SPLINE
  5
427
100
AcDbEntity
  8
0
100
AcDbSpline
 62
7
  6
CONTINUOUS
 70
0
 71
3
 72
10
 73
6
 74
0
 42
0.0000001
 43
0.0000001
 44
0.0000000001
 40
0.0
 40
0.0
 40
0.0
 40
0.0
 40
0.3560179027
 40
0.6740160991
 40
1.0
 40
1.0
 40
1.0
 40
1.0
 10
685.2621797355
 20
756.2522281008
 30
0.0
 10
685.2113228104
 20
756.1918999091
 30
0.0
 10
685.1249833734
 20
756.0684367421
 30
0.0
 10
685.0400275585
 20
755.8618102258
 30
0.0
 10
685.0203870073
 20
755.7183639303
 30
0.0
 10
685.0203870385
 20
755.6461159024
 30
0.0
  0
SPLINE
  5
428
100
AcDbEntity
  8
0
100
AcDbSpline
 62
7
  6
CONTINUOUS
 70
0
 71
3
 72
12
 73
8
 74
0
 42
0.0000001
 43
0.0000001
 44
0.0000000001
 40
0.0
 40
0.0
 40
0.0
 40
0.0
 40
0.1638371863
 40
0.3419653219
 40
0.5494959768
 40
0.7721079538
 40
1.0
 40
1.0
 40
1.0
 40
1.0
 10
685.0203870385
 20
755.6461159024
 30
0.0
 10
685.0203871095
 20
755.4815537531
 30
0.0
 10
685.1362544094
 20
755.1348060802
 30
0.0
 10
685.5460552115
 20
754.7476454373
 30
0.0
 10
686.0944417903
 20
754.4656415375
 30
0.0
 10
686.7379959026
 20
754.2976445802
 30
0.0
 10
687.1913611883
 20
754.2608323892
 30
0.0
 10
687.4202616337
 20
754.2608323892
 30
0.0
  0
SPLINE
  5
429
100
AcDbEntity
  8
0
100
AcDbSpline
 62
7
  6
CONTINUOUS
 70
0
 71
3
 72
11
 73
7
 74
0
 42
0.0000001
 43
0.0000001
 44
0.0000000001
 40
0.0
 40
0.0
 40
0.0
 40
0.0
 40
0.1982095123
 40
0.4411270907
 40
0.713172867
 40
1.0
 40
1.0
 40
1.0
 40
1.0
 10
690.4120492328
 20
756.2819300757
 30
0.0
 10
690.3159654808
 20
756.0697231058
 30
0.0
 10
690.1538920822
 20
755.5742040917
 30
0.0
 10
689.9980000455
 20
754.7496430862
 30
0.0
 10
689.897340154
 20
753.81181072
 30
0.0
 10
689.8760342198
 20
753.1546995067
 30
0.0
 10
689.8760472983
 20
752.8176053826
 30
0.0
  0
SPLINE
  5
42A
100
AcDbEntity
  8
0
100
AcDbSpline
 62
7
  6
CONTINUOUS
 70
0
 71
3
 72
12
 73
8
 74
0
 42
0.0000001
 43
0.0000001
 44
0.0000000001
 40
0.0
 40
0.0
 40
0.0
 40
0.0
 40
0.1054553173
 40
0.2483863409
 40
0.4493579399
 40
0.6856574404
 40
1.0
 40
1.0
 40
1.0
 40
1.0
 10
685.2621797355
 20
756.2522281008
 30
0.0
 10
685.3166848349
 20
756.3168838793
 30
0.0
 10
685.5179184557
 20
756.4086608672
 30
0.0
 10
685.878983721
 20
756.3183661316
 30
0.0
 10
686.3022529558
 20
756.1310696402
 30
0.0
 10
686.8290852624
 20
755.8348075104
 30
0.0
 10
687.2052944961
 20
755.6043950153
 30
0.0
 10
687.4202616337
 20
755.4727550657
 30
0.0
  0
SPLINE
  5
42B
100
AcDbEntity
  8
0
100
AcDbSpline
 62
7
  6
CONTINUOUS
 70
0
 71
3
 72
11
 73
7
 74
0
 42
0.0000001
 43
0.0000001
 44
0.0000000001
 40
0.0
 40
0.0
 40
0.0
 40
0.0
 40
0.2869475196
 40
0.5590259228
 40
0.8018899076
 40
1.0
 40
1.0
 40
1.0
 40
1.0
 10
672.1644759691
 20
752.8176053719
 30
0.0
 10
672.1644795595
 20
753.1548408137
 30
0.0
 10
672.1431618574
 20
753.8121313318
 30
0.0
 10
672.0424514715
 20
754.750077112
 30
0.0
 10
671.8865340116
 20
755.5744865929
 30
0.0
 10
671.7245203612
 20
756.0698349119
 30
0.0
 10
671.6284738957
 20
756.2819303749
 30
0.0
  0
SPLINE
  5
42C
100
AcDbEntity
  8
0
100
AcDbSpline
 62
7
  6
CONTINUOUS
 70
0
 71
3
 72
11
 73
7
 74
0
 42
0.0000001
 43
0.0000001
 44
0.0000000001
 40
0.0
 40
0.0
 40
0.0
 40
0.0
 40
0.1879660629
 40
0.4273373334
 40
0.7036400244
 40
1.0
 40
1.0
 40
1.0
 40
1.0
 10
688.4801974938
 20
758.014092271
 30
0.0
 10
688.3831775746
 20
757.7005688813
 30
0.0
 10
688.2248780441
 20
756.96904709
 30
0.0
 10
688.0690088244
 20
755.7499553875
 30
0.0
 10
687.9669352664
 20
754.3350958879
 30
0.0
 10
687.9442061509
 20
753.3350545113
 30
0.0
 10
687.9441956458
 20
752.8176053633
 30
0.0
  0
SPLINE
  5
42D
100
AcDbEntity
  8
0
100
AcDbSpline
 62
7
  6
CONTINUOUS
 70
0
 71
3
 72
11
 73
7
 74
0
 42
0.0000001
 43
0.0000001
 44
0.0000000001
 40
0.0
 40
0.0
 40
0.0
 40
0.0
 40
0.2273337603
 40
0.4846433426
 40
0.7511183785
 40
1.0
 40
1.0
 40
1.0
 40
1.0
 10
690.4120494187
 20
756.2819304767
 30
0.0
 10
690.3820884679
 20
756.48954066
 30
0.0
 10
690.2307371027
 20
756.9222085201
 30
0.0
 10
689.7849797398
 20
757.4694106237
 30
0.0
 10
689.1746525593
 20
757.8594084006
 30
0.0
 10
688.7083105449
 20
757.9876044204
 30
0.0
 10
688.4801972411
 20
758.0140675064
 30
0.0
  0
SPLINE
  5
42E
100
AcDbEntity
  8
0
100
AcDbSpline
 62
7
  6
CONTINUOUS
 70
0
 71
3
 72
11
 73
7
 74
0
 42
0.0000001
 43
0.0000001
 44
0.0000000001
 40
0.0
 40
0.0
 40
0.0
 40
0.0
 40
0.1863887738
 40
0.4255374321
 40
0.7027662613
 40
1.0
 40
1.0
 40
1.0
 40
1.0
 10
673.5603257518
 20
758.014092271
 30
0.0
 10
673.6592844296
 20
757.7040641495
 30
0.0
 10
673.8133756838
 20
756.9744346103
 30
0.0
 10
673.9704828323
 20
755.7574358752
 30
0.0
 10
674.074299966
 20
754.3397609575
 30
0.0
 10
674.0961134658
 20
753.3365814236
 30
0.0
 10
674.0963276215
 20
752.8176053633
 30
0.0
  0
SPLINE
  5
42F
100
AcDbEntity
  8
0
100
AcDbSpline
 62
7
  6
CONTINUOUS
 70
0
 71
3
 72
11
 73
7
 74
0
 42
0.0000001
 43
0.0000001
 44
0.0000000001
 40
0.0
 40
0.0
 40
0.0
 40
0.0
 40
0.2488816148
 40
0.5153566469
 40
0.7726662317
 40
1.0
 40
1.0
 40
1.0
 40
1.0
 10
673.5603259075
 20
758.0140678007
 30
0.0
 10
673.3322126054
 20
757.9876047171
 30
0.0
 10
672.8658705911
 20
757.8594086971
 30
0.0
 10
672.2555434127
 20
757.4694109044
 30
0.0
 10
671.8097860547
 20
756.9222087716
 30
0.0
 10
671.6584346959
 20
756.4895408907
 30
0.0
 10
671.628473747
 20
756.2819306958
 30
0.0
  0
ELLIPSE
  5
430
100
AcDbEntity
  8
0
100
AcDbEllipse
 62
7
  6
CONTINUOUS
 10
695.9590453611
 20
745.1623742385
 30
0.0
 11
0.2962303288
 21
2.9250169718
 31
0.0
 40
0.6793433418
 41
-0.0724394524
 42
0.0686920713
  0
ELLIPSE
  5
431
100
AcDbEntity
  8
0
100
AcDbEllipse
 62
7
  6
CONTINUOUS
 10
666.0814779063
 20
745.1623742391
 30
0.0
 11
-0.2962303288
 21
2.9250169713
 31
0.0
 40
0.6793433418
 41
-0.0686920685
 42
0.0724394524
  0
ELLIPSE
  5
432
100
AcDbEntity
  8
0
100
AcDbEllipse
 62
7
  6
CONTINUOUS
 10
697.2202616334
 20
769.2278143231
 30
0.0
 11
2.0027371788
 21
38.2145018581
 31
0.0
 40
0.0522644277
 41
-2.1018444419
 42
-2.092447466
  0
ELLIPSE
  5
433
100
AcDbEntity
  8
0
100
AcDbEllipse
 62
7
  6
CONTINUOUS
 10
681.0202616337
 20
757.6600169329
 30
0.0
 11
8.0
 21
0.0
 31
0.0
 40
0.1763269807
 41
1.2198889832
 42
1.9217036704
  0
ELLIPSE
  5
434
100
AcDbEntity
  8
0
100
AcDbEllipse
 62
7
  6
CONTINUOUS
 10
665.0593489305
 20
762.5943057978
 30
0.0
 11
6.01040764
 21
0.0
 31
0.0
 40
0.7071067812
 41
-0.9263240233
 42
0.9263240233
  0
ELLIPSE
  5
435
100
AcDbEntity
  8
0
100
AcDbEllipse
 62
7
  6
CONTINUOUS
 10
691.9811743369
 20
762.5943057978
 30
0.0
 11
6.01040764
 21
-0.0
 31
0.0
 40
0.7071067812
 41
2.3239812966
 42
3.9592040106
  0
ELLIPSE
  5
436
100
AcDbEntity
  8
0
100
AcDbEllipse
 62
7
  6
CONTINUOUS
 10
687.8702616337
 20
762.7305743927
 30
0.0
 11
4.9967896365
 21
0.9806777704
 31
0.0
 40
0.1826758137
 41
0.1052419438
 42
1.3938805986
  0
ELLIPSE
  5
437
100
AcDbEntity
  8
0
100
AcDbEllipse
 62
7
  6
CONTINUOUS
 10
688.9811743369
 20
762.5943057978
 30
0.0
 11
1.7677669529
 21
-0.0
 31
0.0
 40
0.7071067812
 41
2.2503258501
 42
4.0328594571
  0
ELLIPSE
  5
438
100
AcDbEntity
  8
0
100
AcDbEllipse
 62
7
  6
CONTINUOUS
 10
687.8702616337
 20
762.458037203
 30
0.0
 11
4.9967896365
 21
-0.9806777704
 31
0.0
 40
0.1826758137
 41
-1.3938805986
 42
-0.1052419438
  0
ELLIPSE
  5
439
100
AcDbEntity
  8
0
100
AcDbEllipse
 62
7
  6
CONTINUOUS
 10
681.1202616337
 20
836.9543057979
 30
0.0
 11
-0.0
 21
73.26
 31
0.0
 40
0.0675675676
 41
-3.788453248
 42
-3.7541473919
  0
ELLIPSE
  5
43A
100
AcDbEntity
  8
0
100
AcDbEllipse
 62
7
  6
CONTINUOUS
 10
681.1202616337
 20
836.9543057979
 30
0.0
 11
0.0
 21
73.26
 31
0.0
 40
0.0675675676
 41
-2.5290379153
 42
-2.4947320592
  0
ELLIPSE
  5
43B
100
AcDbEntity
  8
0
100
AcDbEllipse
 62
7
  6
CONTINUOUS
 10
674.6202616337
 20
761.4192473215
 30
0.0
 11
2.4
 21
0.0
 31
0.0
 40
0.5772016076
 41
-1.5707963268
 42
-0.2393824772
  0
ELLIPSE
  5
43C
100
AcDbEntity
  8
0
100
AcDbEllipse
 62
7
  6
CONTINUOUS
 10
689.1499670117
 20
757.7247110336
 30
0.0
 11
0.9981801974
 21
2.1502256058
 31
0.0
 40
0.8436615514
 41
-0.1884162412
 42
0.3732835679
  0
ELLIPSE
  5
43D
100
AcDbEntity
  8
0
100
AcDbEllipse
 62
7
  6
CONTINUOUS
 10
687.4202616337
 20
761.4192473215
 30
0.0
 11
2.4
 21
0.0
 31
0.0
 40
0.5772016076
 41
-2.9022101763
 42
-1.5707963268
  0
ELLIPSE
  5
43E
100
AcDbEntity
  8
0
100
AcDbEllipse
 62
7
  6
CONTINUOUS
 10
672.8905562554
 20
757.7247110338
 30
0.0
 11
-0.9981801973
 21
2.1502256056
 31
0.0
 40
0.8436615514
 41
-0.3732835681
 42
0.1884162411
  0
ENDSEC
  0
SECTION
  2
OBJECTS
  0
DICTIONARY
  5
C
100
AcDbDictionary
280
0
281
1
  3
ACAD_GROUP
350
D
  3
ACAD_MLINESTYLE
350
17
  3
ACAD_LAYOUT
350
1A
  3
ACAD_PLOTSETTINGS
350
19
  3
ACAD_PLOTSTYLENAME
350
E
  0
DICTIONARY
  5
D
102
{ACAD_REACTORS
330
C
102
}
100
AcDbDictionary
280
0
281
1
  0
ACDBDICTIONARYWDFLT
  5
E
102
{ACAD_REACTORS
330
C
102
}
100
AcDbDictionary
281
1
  3
Normal
350
F
100
AcDbDictionaryWithDefault
340
F
  0
DICTIONARY
  5
17
102
{ACAD_REACTORS
330
C
102
}
100
AcDbDictionary
280
0
281
1
  3
Standard
350
18
  0
DICTIONARY
  5
19
102
{ACAD_REACTORS
330
C
102
}
100
AcDbDictionary
281
1
  0
DICTIONARY
  5
1A
102
{ACAD_REACTORS
330
C
102
}
100
AcDbDictionary
281
1
  3
Model
350
43F
  3
Layout1
350
440
  0
ACDBPLACEHOLDER
  5
F
102
{ACAD_REACTORS
330
E
102
}
  0
MLINESTYLE
  5
18
102
{ACAD_REACTORS
330
17
102
}
100
AcDbMlineStyle
  2
STANDARD
 70
0
  3

 62
256
 51
90.0
 52
90.0
 71
2
 49
0.5
 62
256
  6
BYLAYER
 49
-0.5
 62
256
  6
BYLAYER
  0
LAYOUT
  5
43F
102
{ACAD_REACTORS
330
1A
102
}
100
AcDbPlotSettings
  1

  2
none_device
  4

  6

 40
0.0
 41
0.0
 42
0.0
 43
0.0
 44
210.0
 45
297.0
 46
0.0
 47
0.0
 48
0.0
 49
0.0
140
0.0
141
0.0
142
1.0
143
1.0
 70
1024
 72
1
 73
0
 74
0
  7

 75
0
147
1.0
148
0.0
149
0.0
100
AcDbLayout
  1
Model
 70
0
 71
0
 10
0.0
 20
0.0
 11
210.0
 21
297.0
 12
0.0
 22
0.0
 32
0.0
 14
0.0
 24
0.0
 34
0.0
 15
0.0
 25
0.0
 35
0.0
146
0.0
 13
0.0
 23
0.0
 33
0.0
 16
1.0
 26
0.0
 36
0.0
 17
0.0
 27
1.0
 37
0.0
 76
0
330
210
345
0
346
0
  0
LAYOUT
  5
440
102
{ACAD_REACTORS
330
1A
102
}
100
AcDbPlotSettings
  1

  2
none_device
  4

  6

 40
0.0
 41
0.0
 42
0.0
 43
0.0
 44
210.0
 45
297.0
 46
0.0
 47
0.0
 48
0.0
 49
0.0
140
0.0
141
0.0
142
1.0
143
1.0
 70
0
 72
1
 73
0
 74
0
  7

 75
0
147
1.0
148
0.0
149
0.0
100
AcDbLayout
  1
Layout1
 70
0
 71
1
 10
0.0
 20
0.0
 11
210.0
 21
297.0
 12
0.0
 22
0.0
 32
0.0
 14
0.0
 24
0.0
 34
0.0
 15
0.0
 25
0.0
 35
0.0
146
0.0
 13
0.0
 23
0.0
 33
0.0
 16
1.0
 26
0.0
 36
0.0
 17
0.0
 27
1.0
 37
0.0
 76
0
330
211
345
0
346
0
  0
ENDSEC
  0
EOF
