  0
SECTION
  2
HEADER
  9
$ACADVER
  1
AC1006
  9
$EXTMIN
 10
-2.338760
 20
-3.838000
  9
$EXTMAX
 10
2.327528
 20
3.838000
  9
$LTSCALE
 40
0.000394
  9
$PDMODE
 70
    35
  9
$PDSIZE
 40
0.000315
  0
ENDSEC
  0
SECTION
  2
TABLES
  0
TABLE
  2
LTYPE
 70
     9
  0
LTYPE
  2
CONTINUOUS
 70
    64
  3
Solid line
 72
    65
 73
     0
 40
0.000000
  0
LTYPE
  2
DASHED
 70
    64
  3
__ __ __ __ __ __ __ __ __ __ __ __ __ __ __
 72
    65
 73
     2
 40
0.000003
 49
0.000002
 49
-0.000001
  0
LTYPE
  2
HIDDEN
 70
    64
  3
 _ _ _ _ _ _ _ _ _ _ _ _ _ _ _ _ _ _ _ _ _ _
 72
    65
 73
     2
 40
0.000001
 49
0.000001
 49
-0.000000
  0
LTYPE
  2
CENTER
 70
    64
  3
____ _ ____ _ ____ _ ____ _ ____ _ ____ _ ____
 72
    65
 73
     4
 40
0.000008
 49
0.000005
 49
-0.000001
 49
0.000001
 49
-0.000001
  0
LTYPE
  2
PHANTOM
 70
    64
  3
_____ _ _ _____ _ _ _____ _ _ _____ _ _ ____
 72
    65
 73
     6
 40
0.000010
 49
0.000005
 49
-0.000001
 49
0.000001
 49
-0.000001
 49
0.000001
 49
-0.000001
  0
LTYPE
  2
DOT
 70
    64
  3
...............................................
 72
    65
 73
     2
 40
0.000001
 49
0.000000
 49
-0.000001
  0
LTYPE
  2
DASHDOT
 70
    64
  3
__ . __ . __ . __ . __ . __ . __ . __ . __ . __
 72
    65
 73
     4
 40
0.000004
 49
0.000002
 49
-0.000001
 49
0.000000
 49
-0.000001
  0
LTYPE
  2
BORDER
 70
    64
  3
__ __ . __ __ . __ __ . __ __ . __ __ . __ __
 72
    65
 73
     6
 40
0.000007
 49
0.000002
 49
-0.000001
 49
0.000002
 49
-0.000001
 49
0.000000
 49
-0.000001
  0
LTYPE
  2
DIVIDE
 70
    64
  3
__ . . __ . . __ . . __ . . __ . . __ . . __
 72
    65
 73
     6
 40
0.000005
 49
0.000002
 49
-0.000001
 49
0.000000
 49
-0.000001
 49
0.000000
 49
-0.000001
  0
LTYPE
  2
DOTDOT
 70
    64
  3
 . .  . .  . .  . .  . .  . . 
 72
    65
 73
     5
 40
0.000002
 49
-0.000001
 49
0.000000
 49
-0.000001
 49
0.000000
 49
-0.000001
  0
ENDTAB
  0
TABLE
  2
STYLE
 70
     0
  0
ENDTAB
  0
TABLE
  2
LAYER
 70
     3
  0
LAYER
  2
FOREGROUND
 70
    64
 62
     7
  6
CONTINUOUS
  0
LAYER
  2
BACKGROUND
 70
    65
 62
    -7
  6
CONTINUOUS
  0
LAYER
  2
PLAN_1
 70
    64
 62
     7
  6
CONTINUOUS
  0
ENDTAB
  0
ENDSEC
  0
SECTION
  2
ENTITIES
  0
POLYLINE
  8
PLAN_1
  6
CONTINUOUS
 66
     1
 40
0.003000
 41
0.003000
  0
VERTEX
  8
PLAN_1
  6
CONTINUOUS
 10
0.263646
 20
-3.832724
  0
VERTEX
  8
PLAN_1
  6
CONTINUOUS
 10
0.230063
 20
-3.832724
  0
VERTEX
  8
PLAN_1
  6
CONTINUOUS
 10
0.176807
 20
-3.750685
  0
VERTEX
  8
PLAN_1
  6
CONTINUOUS
 10
0.121638
 20
-3.832724
  0
VERTEX
  8
PLAN_1
  6
CONTINUOUS
 10
0.089016
 20
-3.832724
  0
VERTEX
  8
PLAN_1
  6
CONTINUOUS
 10
0.160496
 20
-3.730535
  0
VERTEX
  8
PLAN_1
  6
CONTINUOUS
 10
0.093331
 20
-3.633626
  0
VERTEX
  8
PLAN_1
  6
CONTINUOUS
 10
0.127394
 20
-3.633626
  0
VERTEX
  8
PLAN_1
  6
CONTINUOUS
 10
0.177768
 20
-3.709906
  0
VERTEX
  8
PLAN_1
  6
CONTINUOUS
 10
0.228142
 20
-3.633626
  0
VERTEX
  8
PLAN_1
  6
CONTINUOUS
 10
0.260287
 20
-3.633626
  0
VERTEX
  8
PLAN_1
  6
CONTINUOUS
 10
0.193598
 20
-3.730535
  0
VERTEX
  8
PLAN_1
  6
CONTINUOUS
 10
0.263646
 20
-3.832724
  0
SEQEND
  8
0
  0
POLYLINE
  8
PLAN_1
  6
CONTINUOUS
 66
     1
 40
0.003000
 41
0.003000
  0
VERTEX
  8
PLAN_1
  6
CONTINUOUS
 10
0.430118
 20
-3.693594
  0
VERTEX
  8
PLAN_1
  6
CONTINUOUS
 10
0.428197
 20
-3.687358
  0
VERTEX
  8
PLAN_1
  6
CONTINUOUS
 10
0.426280
 20
-3.681602
  0
VERTEX
  8
PLAN_1
  6
CONTINUOUS
 10
0.423402
 20
-3.676803
  0
VERTEX
  8
PLAN_1
  6
CONTINUOUS
 10
0.420524
 20
-3.672008
  0
VERTEX
  8
PLAN_1
  6
CONTINUOUS
 10
0.417642
 20
-3.668169
  0
VERTEX
  8
PLAN_1
  6
CONTINUOUS
 10
0.413807
 20
-3.664811
  0
VERTEX
  8
PLAN_1
  6
CONTINUOUS
 10
0.410449
 20
-3.661933
  0
VERTEX
  8
PLAN_1
  6
CONTINUOUS
 10
0.406130
 20
-3.659531
  0
VERTEX
  8
PLAN_1
  6
CONTINUOUS
 10
0.402291
 20
-3.657614
  0
VERTEX
  8
PLAN_1
  6
CONTINUOUS
 10
0.397972
 20
-3.655697
  0
VERTEX
  8
PLAN_1
  6
CONTINUOUS
 10
0.394134
 20
-3.654736
  0
VERTEX
  8
PLAN_1
  6
CONTINUOUS
 10
0.389819
 20
-3.653776
  0
VERTEX
  8
PLAN_1
  6
CONTINUOUS
 10
0.381661
 20
-3.652339
  0
VERTEX
  8
PLAN_1
  6
CONTINUOUS
 10
0.373988
 20
-3.651858
  0
VERTEX
  8
PLAN_1
  6
CONTINUOUS
 10
0.367272
 20
-3.652339
  0
VERTEX
  8
PLAN_1
  6
CONTINUOUS
 10
0.361031
 20
-3.653295
  0
VERTEX
  8
PLAN_1
  6
CONTINUOUS
 10
0.354795
 20
-3.654736
  0
VERTEX
  8
PLAN_1
  6
CONTINUOUS
 10
0.348559
 20
-3.657134
  0
VERTEX
  8
PLAN_1
  6
CONTINUOUS
 10
0.342803
 20
-3.660012
  0
VERTEX
  8
PLAN_1
  6
CONTINUOUS
 10
0.337524
 20
-3.663370
  0
VERTEX
  8
PLAN_1
  6
CONTINUOUS
 10
0.332728
 20
-3.667209
  0
VERTEX
  8
PLAN_1
  6
CONTINUOUS
 10
0.327929
 20
-3.672008
  0
VERTEX
  8
PLAN_1
  6
CONTINUOUS
 10
0.323614
 20
-3.677283
  0
VERTEX
  8
PLAN_1
  6
CONTINUOUS
 10
0.319776
 20
-3.683039
  0
VERTEX
  8
PLAN_1
  6
CONTINUOUS
 10
0.316898
 20
-3.689756
  0
VERTEX
  8
PLAN_1
  6
CONTINUOUS
 10
0.314016
 20
-3.696472
  0
VERTEX
  8
PLAN_1
  6
CONTINUOUS
 10
0.311618
 20
-3.704150
  0
VERTEX
  8
PLAN_1
  6
CONTINUOUS
 10
0.310181
 20
-3.712783
  0
VERTEX
  8
PLAN_1
  6
CONTINUOUS
 10
0.309220
 20
-3.721421
  0
VERTEX
  8
PLAN_1
  6
CONTINUOUS
 10
0.308740
 20
-3.731016
  0
VERTEX
  8
PLAN_1
  6
CONTINUOUS
 10
0.309220
 20
-3.739650
  0
VERTEX
  8
PLAN_1
  6
CONTINUOUS
 10
0.309701
 20
-3.748287
  0
VERTEX
  8
PLAN_1
  6
CONTINUOUS
 10
0.310657
 20
-3.756441
  0
VERTEX
  8
PLAN_1
  6
CONTINUOUS
 10
0.312098
 20
-3.764118
  0
VERTEX
  8
PLAN_1
  6
CONTINUOUS
 10
0.314016
 20
-3.771315
  0
VERTEX
  8
PLAN_1
  6
CONTINUOUS
 10
0.316898
 20
-3.778031
  0
VERTEX
  8
PLAN_1
  6
CONTINUOUS
 10
0.319776
 20
-3.784268
  0
VERTEX
  8
PLAN_1
  6
CONTINUOUS
 10
0.323134
 20
-3.790024
  0
VERTEX
  8
PLAN_1
  6
CONTINUOUS
 10
0.327449
 20
-3.795303
  0
VERTEX
  8
PLAN_1
  6
CONTINUOUS
 10
0.332248
 20
-3.800098
  0
VERTEX
  8
PLAN_1
  6
CONTINUOUS
 10
0.337524
 20
-3.804417
  0
VERTEX
  8
PLAN_1
  6
CONTINUOUS
 10
0.343764
 20
-3.807776
  0
VERTEX
  8
PLAN_1
  6
CONTINUOUS
 10
0.350480
 20
-3.810654
  0
VERTEX
  8
PLAN_1
  6
CONTINUOUS
 10
0.357673
 20
-3.812575
  0
VERTEX
  8
PLAN_1
  6
CONTINUOUS
 10
0.365831
 20
-3.813531
  0
VERTEX
  8
PLAN_1
  6
CONTINUOUS
 10
0.374945
 20
-3.814012
  0
VERTEX
  8
PLAN_1
  6
CONTINUOUS
 10
0.378303
 20
-3.814012
  0
VERTEX
  8
PLAN_1
  6
CONTINUOUS
 10
0.382142
 20
-3.813531
  0
VERTEX
  8
PLAN_1
  6
CONTINUOUS
 10
0.385980
 20
-3.813051
  0
VERTEX
  8
PLAN_1
  6
CONTINUOUS
 10
0.389819
 20
-3.812094
  0
VERTEX
  8
PLAN_1
  6
CONTINUOUS
 10
0.394134
 20
-3.810654
  0
VERTEX
  8
PLAN_1
  6
CONTINUOUS
 10
0.397972
 20
-3.809217
  0
VERTEX
  8
PLAN_1
  6
CONTINUOUS
 10
0.402291
 20
-3.806815
  0
VERTEX
  8
PLAN_1
  6
CONTINUOUS
 10
0.406610
 20
-3.803937
  0
VERTEX
  8
PLAN_1
  6
CONTINUOUS
 10
0.410449
 20
-3.801059
  0
VERTEX
  8
PLAN_1
  6
CONTINUOUS
 10
0.414283
 20
-3.797220
  0
VERTEX
  8
PLAN_1
  6
CONTINUOUS
 10
0.418122
 20
-3.792902
  0
VERTEX
  8
PLAN_1
  6
CONTINUOUS
 10
0.421480
 20
-3.787626
  0
VERTEX
  8
PLAN_1
  6
CONTINUOUS
 10
0.424839
 20
-3.781870
  0
VERTEX
  8
PLAN_1
  6
CONTINUOUS
 10
0.427240
 20
-3.775154
  0
VERTEX
  8
PLAN_1
  6
CONTINUOUS
 10
0.429638
 20
-3.767476
  0
VERTEX
  8
PLAN_1
  6
CONTINUOUS
 10
0.432035
 20
-3.759323
  0
VERTEX
  8
PLAN_1
  6
CONTINUOUS
 10
0.457941
 20
-3.759323
  0
VERTEX
  8
PLAN_1
  6
CONTINUOUS
 10
0.456504
 20
-3.766516
  0
VERTEX
  8
PLAN_1
  6
CONTINUOUS
 10
0.455063
 20
-3.772752
  0
VERTEX
  8
PLAN_1
  6
CONTINUOUS
 10
0.453626
 20
-3.778992
  0
VERTEX
  8
PLAN_1
  6
CONTINUOUS
 10
0.451705
 20
-3.784268
  0
VERTEX
  8
PLAN_1
  6
CONTINUOUS
 10
0.449307
 20
-3.789543
  0
VERTEX
  8
PLAN_1
  6
CONTINUOUS
 10
0.446909
 20
-3.794823
  0
VERTEX
  8
PLAN_1
  6
CONTINUOUS
 10
0.444508
 20
-3.799142
  0
VERTEX
  8
PLAN_1
  6
CONTINUOUS
 10
0.441630
 20
-3.803457
  0
VERTEX
  8
PLAN_1
  6
CONTINUOUS
 10
0.438752
 20
-3.807295
  0
VERTEX
  8
PLAN_1
  6
CONTINUOUS
 10
0.435874
 20
-3.811134
  0
VERTEX
  8
PLAN_1
  6
CONTINUOUS
 10
0.432516
 20
-3.814492
  0
VERTEX
  8
PLAN_1
  6
CONTINUOUS
 10
0.429638
 20
-3.817370
  0
VERTEX
  8
PLAN_1
  6
CONTINUOUS
 10
0.422921
 20
-3.822650
  0
VERTEX
  8
PLAN_1
  6
CONTINUOUS
 10
0.415724
 20
-3.826965
  0
VERTEX
  8
PLAN_1
  6
CONTINUOUS
 10
0.409008
 20
-3.830323
  0
VERTEX
  8
PLAN_1
  6
CONTINUOUS
 10
0.401811
 20
-3.833201
  0
VERTEX
  8
PLAN_1
  6
CONTINUOUS
 10
0.395575
 20
-3.835122
  0
VERTEX
  8
PLAN_1
  6
CONTINUOUS
 10
0.389339
 20
-3.836083
  0
VERTEX
  8
PLAN_1
  6
CONTINUOUS
 10
0.378303
 20
-3.837520
  0
VERTEX
  8
PLAN_1
  6
CONTINUOUS
 10
0.370630
 20
-3.838000
  0
VERTEX
  8
PLAN_1
  6
CONTINUOUS
 10
0.362472
 20
-3.837520
  0
VERTEX
  8
PLAN_1
  6
CONTINUOUS
 10
0.353839
 20
-3.836559
  0
VERTEX
  8
PLAN_1
  6
CONTINUOUS
 10
0.345681
 20
-3.834642
  0
VERTEX
  8
PLAN_1
  6
CONTINUOUS
 10
0.337524
 20
-3.832244
  0
VERTEX
  8
PLAN_1
  6
CONTINUOUS
 10
0.329850
 20
-3.828886
  0
VERTEX
  8
PLAN_1
  6
CONTINUOUS
 10
0.322654
 20
-3.824567
  0
VERTEX
  8
PLAN_1
  6
CONTINUOUS
 10
0.318815
 20
-3.822169
  0
VERTEX
  8
PLAN_1
  6
CONTINUOUS
 10
0.315457
 20
-3.819768
  0
VERTEX
  8
PLAN_1
  6
CONTINUOUS
 10
0.312098
 20
-3.816890
  0
VERTEX
  8
PLAN_1
  6
CONTINUOUS
 10
0.308740
 20
-3.813531
  0
VERTEX
  8
PLAN_1
  6
CONTINUOUS
 10
0.305862
 20
-3.810654
  0
VERTEX
  8
PLAN_1
  6
CONTINUOUS
 10
0.302984
 20
-3.806815
  0
VERTEX
  8
PLAN_1
  6
CONTINUOUS
 10
0.300106
 20
-3.802976
  0
VERTEX
  8
PLAN_1
  6
CONTINUOUS
 10
0.297705
 20
-3.799142
  0
VERTEX
  8
PLAN_1
  6
CONTINUOUS
 10
0.295307
 20
-3.794823
  0
VERTEX
  8
PLAN_1
  6
CONTINUOUS
 10
0.292909
 20
-3.790504
  0
VERTEX
  8
PLAN_1
  6
CONTINUOUS
 10
0.290508
 20
-3.785709
  0
VERTEX
  8
PLAN_1
  6
CONTINUOUS
 10
0.288591
 20
-3.780909
  0
VERTEX
  8
PLAN_1
  6
CONTINUOUS
 10
0.287150
 20
-3.775634
  0
VERTEX
  8
PLAN_1
  6
CONTINUOUS
 10
0.285713
 20
-3.770354
  0
VERTEX
  8
PLAN_1
  6
CONTINUOUS
 10
0.284272
 20
-3.764598
  0
VERTEX
  8
PLAN_1
  6
CONTINUOUS
 10
0.283315
 20
-3.758362
  0
VERTEX
  8
PLAN_1
  6
CONTINUOUS
 10
0.282354
 20
-3.752126
  0
VERTEX
  8
PLAN_1
  6
CONTINUOUS
 10
0.281394
 20
-3.745890
  0
VERTEX
  8
PLAN_1
  6
CONTINUOUS
 10
0.281394
 20
-3.739173
  0
VERTEX
  8
PLAN_1
  6
CONTINUOUS
 10
0.280913
 20
-3.731976
  0
VERTEX
  8
PLAN_1
  6
CONTINUOUS
 10
0.281394
 20
-3.720461
  0
VERTEX
  8
PLAN_1
  6
CONTINUOUS
 10
0.282835
 20
-3.709906
  0
VERTEX
  8
PLAN_1
  6
CONTINUOUS
 10
0.284752
 20
-3.699831
  0
VERTEX
  8
PLAN_1
  6
CONTINUOUS
 10
0.287630
 20
-3.689756
  0
VERTEX
  8
PLAN_1
  6
CONTINUOUS
 10
0.290988
 20
-3.680642
  0
VERTEX
  8
PLAN_1
  6
CONTINUOUS
 10
0.295307
 20
-3.672008
  0
VERTEX
  8
PLAN_1
  6
CONTINUOUS
 10
0.297705
 20
-3.668169
  0
VERTEX
  8
PLAN_1
  6
CONTINUOUS
 10
0.300106
 20
-3.664331
  0
VERTEX
  8
PLAN_1
  6
CONTINUOUS
 10
0.302984
 20
-3.660492
  0
VERTEX
  8
PLAN_1
  6
CONTINUOUS
 10
0.305862
 20
-3.657134
  0
VERTEX
  8
PLAN_1
  6
CONTINUOUS
 10
0.308740
 20
-3.653776
  0
VERTEX
  8
PLAN_1
  6
CONTINUOUS
 10
0.312098
 20
-3.650417
  0
VERTEX
  8
PLAN_1
  6
CONTINUOUS
 10
0.315457
 20
-3.647539
  0
VERTEX
  8
PLAN_1
  6
CONTINUOUS
 10
0.319295
 20
-3.644661
  0
VERTEX
  8
PLAN_1
  6
CONTINUOUS
 10
0.323134
 20
-3.642264
  0
VERTEX
  8
PLAN_1
  6
CONTINUOUS
 10
0.326972
 20
-3.639862
  0
VERTEX
  8
PLAN_1
  6
CONTINUOUS
 10
0.330807
 20
-3.637945
  0
VERTEX
  8
PLAN_1
  6
CONTINUOUS
 10
0.335126
 20
-3.635547
  0
VERTEX
  8
PLAN_1
  6
CONTINUOUS
 10
0.339445
 20
-3.634106
  0
VERTEX
  8
PLAN_1
  6
CONTINUOUS
 10
0.343764
 20
-3.632665
  0
VERTEX
  8
PLAN_1
  6
CONTINUOUS
 10
0.348559
 20
-3.631228
  0
VERTEX
  8
PLAN_1
  6
CONTINUOUS
 10
0.353358
 20
-3.630268
  0
VERTEX
  8
PLAN_1
  6
CONTINUOUS
 10
0.358154
 20
-3.629307
  0
VERTEX
  8
PLAN_1
  6
CONTINUOUS
 10
0.363433
 20
-3.628831
  0
VERTEX
  8
PLAN_1
  6
CONTINUOUS
 10
0.368709
 20
-3.628350
  0
VERTEX
  8
PLAN_1
  6
CONTINUOUS
 10
0.373988
 20
-3.628350
  0
VERTEX
  8
PLAN_1
  6
CONTINUOUS
 10
0.383583
 20
-3.628350
  0
VERTEX
  8
PLAN_1
  6
CONTINUOUS
 10
0.392217
 20
-3.629787
  0
VERTEX
  8
PLAN_1
  6
CONTINUOUS
 10
0.400374
 20
-3.631228
  0
VERTEX
  8
PLAN_1
  6
CONTINUOUS
 10
0.408047
 20
-3.633626
  0
VERTEX
  8
PLAN_1
  6
CONTINUOUS
 10
0.415244
 20
-3.636504
  0
VERTEX
  8
PLAN_1
  6
CONTINUOUS
 10
0.421480
 20
-3.639862
  0
VERTEX
  8
PLAN_1
  6
CONTINUOUS
 10
0.427240
 20
-3.643701
  0
VERTEX
  8
PLAN_1
  6
CONTINUOUS
 10
0.432996
 20
-3.648500
  0
VERTEX
  8
PLAN_1
  6
CONTINUOUS
 10
0.437791
 20
-3.652815
  0
VERTEX
  8
PLAN_1
  6
CONTINUOUS
 10
0.442110
 20
-3.658094
  0
VERTEX
  8
PLAN_1
  6
CONTINUOUS
 10
0.445469
 20
-3.663370
  0
VERTEX
  8
PLAN_1
  6
CONTINUOUS
 10
0.448827
 20
-3.669126
  0
VERTEX
  8
PLAN_1
  6
CONTINUOUS
 10
0.451224
 20
-3.674886
  0
VERTEX
  8
PLAN_1
  6
CONTINUOUS
 10
0.453626
 20
-3.681122
  0
VERTEX
  8
PLAN_1
  6
CONTINUOUS
 10
0.455063
 20
-3.687358
  0
VERTEX
  8
PLAN_1
  6
CONTINUOUS
 10
0.456024
 20
-3.693594
  0
VERTEX
  8
PLAN_1
  6
CONTINUOUS
 10
0.430118
 20
-3.693594
  0
SEQEND
  8
0
  0
POLYLINE
  8
PLAN_1
  6
CONTINUOUS
 66
     1
 40
0.003000
 41
0.003000
  0
VERTEX
  8
PLAN_1
  6
CONTINUOUS
 10
0.517433
 20
-3.832724
  0
VERTEX
  8
PLAN_1
  6
CONTINUOUS
 10
0.490567
 20
-3.832724
  0
VERTEX
  8
PLAN_1
  6
CONTINUOUS
 10
0.490567
 20
-3.633626
  0
VERTEX
  8
PLAN_1
  6
CONTINUOUS
 10
0.517433
 20
-3.633626
  0
VERTEX
  8
PLAN_1
  6
CONTINUOUS
 10
0.517433
 20
-3.730055
  0
VERTEX
  8
PLAN_1
  6
CONTINUOUS
 10
0.613862
 20
-3.633626
  0
VERTEX
  8
PLAN_1
  6
CONTINUOUS
 10
0.651283
 20
-3.633626
  0
VERTEX
  8
PLAN_1
  6
CONTINUOUS
 10
0.568283
 20
-3.713744
  0
VERTEX
  8
PLAN_1
  6
CONTINUOUS
 10
0.653201
 20
-3.832724
  0
VERTEX
  8
PLAN_1
  6
CONTINUOUS
 10
0.618657
 20
-3.832724
  0
VERTEX
  8
PLAN_1
  6
CONTINUOUS
 10
0.548614
 20
-3.732933
  0
VERTEX
  8
PLAN_1
  6
CONTINUOUS
 10
0.517433
 20
-3.762681
  0
VERTEX
  8
PLAN_1
  6
CONTINUOUS
 10
0.517433
 20
-3.832724
  0
SEQEND
  8
0
  0
POLYLINE
  8
PLAN_1
  6
CONTINUOUS
 66
     1
 40
0.003000
 41
0.003000
  0
VERTEX
  8
PLAN_1
  6
CONTINUOUS
 10
0.839823
 20
-3.832724
  0
VERTEX
  8
PLAN_1
  6
CONTINUOUS
 10
0.839823
 20
-3.715185
  0
VERTEX
  8
PLAN_1
  6
CONTINUOUS
 10
0.839823
 20
-3.711827
  0
VERTEX
  8
PLAN_1
  6
CONTINUOUS
 10
0.839823
 20
-3.707508
  0
VERTEX
  8
PLAN_1
  6
CONTINUOUS
 10
0.839823
 20
-3.701752
  0
VERTEX
  8
PLAN_1
  6
CONTINUOUS
 10
0.839823
 20
-3.695035
  0
VERTEX
  8
PLAN_1
  6
CONTINUOUS
 10
0.840303
 20
-3.687839
  0
VERTEX
  8
PLAN_1
  6
CONTINUOUS
 10
0.840303
 20
-3.680161
  0
VERTEX
  8
PLAN_1
  6
CONTINUOUS
 10
0.840303
 20
-3.672484
  0
VERTEX
  8
PLAN_1
  6
CONTINUOUS
 10
0.840303
 20
-3.665291
  0
VERTEX
  8
PLAN_1
  6
CONTINUOUS
 10
0.839823
 20
-3.665291
  0
VERTEX
  8
PLAN_1
  6
CONTINUOUS
 10
0.783693
 20
-3.832724
  0
VERTEX
  8
PLAN_1
  6
CONTINUOUS
 10
0.756827
 20
-3.832724
  0
VERTEX
  8
PLAN_1
  6
CONTINUOUS
 10
0.701177
 20
-3.665768
  0
VERTEX
  8
PLAN_1
  6
CONTINUOUS
 10
0.700217
 20
-3.665768
  0
VERTEX
  8
PLAN_1
  6
CONTINUOUS
 10
0.700217
 20
-3.672965
  0
VERTEX
  8
PLAN_1
  6
CONTINUOUS
 10
0.700697
 20
-3.680161
  0
VERTEX
  8
PLAN_1
  6
CONTINUOUS
 10
0.700697
 20
-3.687839
  0
VERTEX
  8
PLAN_1
  6
CONTINUOUS
 10
0.700697
 20
-3.695035
  0
VERTEX
  8
PLAN_1
  6
CONTINUOUS
 10
0.700697
 20
-3.701752
  0
VERTEX
  8
PLAN_1
  6
CONTINUOUS
 10
0.700697
 20
-3.707508
  0
VERTEX
  8
PLAN_1
  6
CONTINUOUS
 10
0.701177
 20
-3.711827
  0
VERTEX
  8
PLAN_1
  6
CONTINUOUS
 10
0.701177
 20
-3.715185
  0
VERTEX
  8
PLAN_1
  6
CONTINUOUS
 10
0.701177
 20
-3.832724
  0
VERTEX
  8
PLAN_1
  6
CONTINUOUS
 10
0.674791
 20
-3.832724
  0
VERTEX
  8
PLAN_1
  6
CONTINUOUS
 10
0.674791
 20
-3.633626
  0
VERTEX
  8
PLAN_1
  6
CONTINUOUS
 10
0.713650
 20
-3.633626
  0
VERTEX
  8
PLAN_1
  6
CONTINUOUS
 10
0.770260
 20
-3.802020
  0
VERTEX
  8
PLAN_1
  6
CONTINUOUS
 10
0.770740
 20
-3.802020
  0
VERTEX
  8
PLAN_1
  6
CONTINUOUS
 10
0.827350
 20
-3.633626
  0
VERTEX
  8
PLAN_1
  6
CONTINUOUS
 10
0.865728
 20
-3.633626
  0
VERTEX
  8
PLAN_1
  6
CONTINUOUS
 10
0.865728
 20
-3.832724
  0
VERTEX
  8
PLAN_1
  6
CONTINUOUS
 10
0.839823
 20
-3.832724
  0
SEQEND
  8
0
  0
POLYLINE
  8
PLAN_1
  6
CONTINUOUS
 66
     1
 40
0.003000
 41
0.003000
  0
VERTEX
  8
PLAN_1
  6
CONTINUOUS
 10
1.069622
 20
-3.678244
  0
VERTEX
  8
PLAN_1
  6
CONTINUOUS
 10
1.088335
 20
-3.678244
  0
VERTEX
  8
PLAN_1
  6
CONTINUOUS
 10
1.084496
 20
-3.693114
  0
VERTEX
  8
PLAN_1
  6
CONTINUOUS
 10
1.080177
 20
-3.707988
  0
VERTEX
  8
PLAN_1
  6
CONTINUOUS
 10
1.075862
 20
-3.721902
  0
VERTEX
  8
PLAN_1
  6
CONTINUOUS
 10
1.072024
 20
-3.735335
  0
VERTEX
  8
PLAN_1
  6
CONTINUOUS
 10
1.068665
 20
-3.747327
  0
VERTEX
  8
PLAN_1
  6
CONTINUOUS
 10
1.065787
 20
-3.756921
  0
VERTEX
  8
PLAN_1
  6
CONTINUOUS
 10
1.064346
 20
-3.764598
  0
VERTEX
  8
PLAN_1
  6
CONTINUOUS
 10
1.063386
 20
-3.768917
  0
VERTEX
  8
PLAN_1
  6
CONTINUOUS
 10
1.063386
 20
-3.770835
  0
VERTEX
  8
PLAN_1
  6
CONTINUOUS
 10
1.063866
 20
-3.772276
  0
VERTEX
  8
PLAN_1
  6
CONTINUOUS
 10
1.064346
 20
-3.773713
  0
VERTEX
  8
PLAN_1
  6
CONTINUOUS
 10
1.064827
 20
-3.774673
  0
VERTEX
  8
PLAN_1
  6
CONTINUOUS
 10
1.065307
 20
-3.775634
  0
VERTEX
  8
PLAN_1
  6
CONTINUOUS
 10
1.066744
 20
-3.776591
  0
VERTEX
  8
PLAN_1
  6
CONTINUOUS
 10
1.067705
 20
-3.776591
  0
VERTEX
  8
PLAN_1
  6
CONTINUOUS
 10
1.069146
 20
-3.777071
  0
VERTEX
  8
PLAN_1
  6
CONTINUOUS
 10
1.072980
 20
-3.776591
  0
VERTEX
  8
PLAN_1
  6
CONTINUOUS
 10
1.076339
 20
-3.775634
  0
VERTEX
  8
PLAN_1
  6
CONTINUOUS
 10
1.080177
 20
-3.774193
  0
VERTEX
  8
PLAN_1
  6
CONTINUOUS
 10
1.083535
 20
-3.771795
  0
VERTEX
  8
PLAN_1
  6
CONTINUOUS
 10
1.086894
 20
-3.768917
  0
VERTEX
  8
PLAN_1
  6
CONTINUOUS
 10
1.090252
 20
-3.766039
  0
VERTEX
  8
PLAN_1
  6
CONTINUOUS
 10
1.093130
 20
-3.762201
  0
VERTEX
  8
PLAN_1
  6
CONTINUOUS
 10
1.096012
 20
-3.757882
  0
VERTEX
  8
PLAN_1
  6
CONTINUOUS
 10
1.098890
 20
-3.753563
  0
VERTEX
  8
PLAN_1
  6
CONTINUOUS
 10
1.101287
 20
-3.748768
  0
VERTEX
  8
PLAN_1
  6
CONTINUOUS
 10
1.103205
 20
-3.743969
  0
VERTEX
  8
PLAN_1
  6
CONTINUOUS
 10
1.105126
 20
-3.738693
  0
VERTEX
  8
PLAN_1
  6
CONTINUOUS
 10
1.106563
 20
-3.733413
  0
VERTEX
  8
PLAN_1
  6
CONTINUOUS
 10
1.108004
 20
-3.728138
  0
VERTEX
  8
PLAN_1
  6
CONTINUOUS
 10
1.108484
 20
-3.722382
  0
VERTEX
  8
PLAN_1
  6
CONTINUOUS
 10
1.108965
 20
-3.717102
  0
VERTEX
  8
PLAN_1
  6
CONTINUOUS
 10
1.108484
 20
-3.708949
  0
VERTEX
  8
PLAN_1
  6
CONTINUOUS
 10
1.107043
 20
-3.701272
  0
VERTEX
  8
PLAN_1
  6
CONTINUOUS
 10
1.105126
 20
-3.694075
  0
VERTEX
  8
PLAN_1
  6
CONTINUOUS
 10
1.102728
 20
-3.686878
  0
VERTEX
  8
PLAN_1
  6
CONTINUOUS
 10
1.099370
 20
-3.680642
  0
VERTEX
  8
PLAN_1
  6
CONTINUOUS
 10
1.095531
 20
-3.674886
  0
VERTEX
  8
PLAN_1
  6
CONTINUOUS
 10
1.090732
 20
-3.669606
  0
VERTEX
  8
PLAN_1
  6
CONTINUOUS
 10
1.085937
 20
-3.664331
  0
VERTEX
  8
PLAN_1
  6
CONTINUOUS
 10
1.080177
 20
-3.660012
  0
VERTEX
  8
PLAN_1
  6
CONTINUOUS
 10
1.074421
 20
-3.656173
  0
VERTEX
  8
PLAN_1
  6
CONTINUOUS
 10
1.067705
 20
-3.652815
  0
VERTEX
  8
PLAN_1
  6
CONTINUOUS
 10
1.060988
 20
-3.650417
  0
VERTEX
  8
PLAN_1
  6
CONTINUOUS
 10
1.053791
 20
-3.648020
  0
VERTEX
  8
PLAN_1
  6
CONTINUOUS
 10
1.046594
 20
-3.646579
  0
VERTEX
  8
PLAN_1
  6
CONTINUOUS
 10
1.038921
 20
-3.645622
  0
VERTEX
  8
PLAN_1
  6
CONTINUOUS
 10
1.031244
 20
-3.645142
  0
VERTEX
  8
PLAN_1
  6
CONTINUOUS
 10
1.022130
 20
-3.645622
  0
VERTEX
  8
PLAN_1
  6
CONTINUOUS
 10
1.013492
 20
-3.647059
  0
VERTEX
  8
PLAN_1
  6
CONTINUOUS
 10
1.005339
 20
-3.649457
  0
VERTEX
  8
PLAN_1
  6
CONTINUOUS
 10
0.997181
 20
-3.652339
  0
VERTEX
  8
PLAN_1
  6
CONTINUOUS
 10
0.989984
 20
-3.656173
  0
VERTEX
  8
PLAN_1
  6
CONTINUOUS
 10
0.982787
 20
-3.660492
  0
VERTEX
  8
PLAN_1
  6
CONTINUOUS
 10
0.976551
 20
-3.665768
  0
VERTEX
  8
PLAN_1
  6
CONTINUOUS
 10
0.970795
 20
-3.671528
  0
VERTEX
  8
PLAN_1
  6
CONTINUOUS
 10
0.965520
 20
-3.677764
  0
VERTEX
  8
PLAN_1
  6
CONTINUOUS
 10
0.960720
 20
-3.684480
  0
VERTEX
  8
PLAN_1
  6
CONTINUOUS
 10
0.956402
 20
-3.691677
  0
VERTEX
  8
PLAN_1
  6
CONTINUOUS
 10
0.953043
 20
-3.699350
  0
VERTEX
  8
PLAN_1
  6
CONTINUOUS
 10
0.950646
 20
-3.707988
  0
VERTEX
  8
PLAN_1
  6
CONTINUOUS
 10
0.948728
 20
-3.716142
  0
VERTEX
  8
PLAN_1
  6
CONTINUOUS
 10
0.947287
 20
-3.725260
  0
VERTEX
  8
PLAN_1
  6
CONTINUOUS
 10
0.946807
 20
-3.734374
  0
VERTEX
  8
PLAN_1
  6
CONTINUOUS
 10
0.947287
 20
-3.743488
  0
VERTEX
  8
PLAN_1
  6
CONTINUOUS
 10
0.948728
 20
-3.752126
  0
VERTEX
  8
PLAN_1
  6
CONTINUOUS
 10
0.950646
 20
-3.760280
  0
VERTEX
  8
PLAN_1
  6
CONTINUOUS
 10
0.953524
 20
-3.768437
  0
VERTEX
  8
PLAN_1
  6
CONTINUOUS
 10
0.957362
 20
-3.776110
  0
VERTEX
  8
PLAN_1
  6
CONTINUOUS
 10
0.961681
 20
-3.783307
  0
VERTEX
  8
PLAN_1
  6
CONTINUOUS
 10
0.966476
 20
-3.790024
  0
VERTEX
  8
PLAN_1
  6
CONTINUOUS
 10
0.971756
 20
-3.795783
  0
VERTEX
  8
PLAN_1
  6
CONTINUOUS
 10
0.977992
 20
-3.801539
  0
VERTEX
  8
PLAN_1
  6
CONTINUOUS
 10
0.984709
 20
-3.806335
  0
VERTEX
  8
PLAN_1
  6
CONTINUOUS
 10
0.991906
 20
-3.810654
  0
VERTEX
  8
PLAN_1
  6
CONTINUOUS
 10
0.999102
 20
-3.814012
  0
VERTEX
  8
PLAN_1
  6
CONTINUOUS
 10
1.007256
 20
-3.816890
  0
VERTEX
  8
PLAN_1
  6
CONTINUOUS
 10
1.015413
 20
-3.819291
  0
VERTEX
  8
PLAN_1
  6
CONTINUOUS
 10
1.024528
 20
-3.820248
  0
VERTEX
  8
PLAN_1
  6
CONTINUOUS
 10
1.033161
 20
-3.820728
  0
VERTEX
  8
PLAN_1
  6
CONTINUOUS
 10
1.037961
 20
-3.820728
  0
VERTEX
  8
PLAN_1
  6
CONTINUOUS
 10
1.042756
 20
-3.820248
  0
VERTEX
  8
PLAN_1
  6
CONTINUOUS
 10
1.047555
 20
-3.819768
  0
VERTEX
  8
PLAN_1
  6
CONTINUOUS
 10
1.052354
 20
-3.818811
  0
VERTEX
  8
PLAN_1
  6
CONTINUOUS
 10
1.057150
 20
-3.817370
  0
VERTEX
  8
PLAN_1
  6
CONTINUOUS
 10
1.061949
 20
-3.815933
  0
VERTEX
  8
PLAN_1
  6
CONTINUOUS
 10
1.066264
 20
-3.814012
  0
VERTEX
  8
PLAN_1
  6
CONTINUOUS
 10
1.070583
 20
-3.812094
  0
VERTEX
  8
PLAN_1
  6
CONTINUOUS
 10
1.074902
 20
-3.810173
  0
VERTEX
  8
PLAN_1
  6
CONTINUOUS
 10
1.079220
 20
-3.807776
  0
VERTEX
  8
PLAN_1
  6
CONTINUOUS
 10
1.083055
 20
-3.804898
  0
VERTEX
  8
PLAN_1
  6
CONTINUOUS
 10
1.086894
 20
-3.802500
  0
VERTEX
  8
PLAN_1
  6
CONTINUOUS
 10
1.090732
 20
-3.799142
  0
VERTEX
  8
PLAN_1
  6
CONTINUOUS
 10
1.094091
 20
-3.796260
  0
VERTEX
  8
PLAN_1
  6
CONTINUOUS
 10
1.097449
 20
-3.792902
  0
VERTEX
  8
PLAN_1
  6
CONTINUOUS
 10
1.100807
 20
-3.789067
  0
VERTEX
  8
PLAN_1
  6
CONTINUOUS
 10
1.119516
 20
-3.789067
  0
VERTEX
  8
PLAN_1
  6
CONTINUOUS
 10
1.115681
 20
-3.794823
  0
VERTEX
  8
PLAN_1
  6
CONTINUOUS
 10
1.111843
 20
-3.800098
  0
VERTEX
  8
PLAN_1
  6
CONTINUOUS
 10
1.107524
 20
-3.804898
  0
VERTEX
  8
PLAN_1
  6
CONTINUOUS
 10
1.103205
 20
-3.809693
  0
VERTEX
  8
PLAN_1
  6
CONTINUOUS
 10
1.098409
 20
-3.814012
  0
VERTEX
  8
PLAN_1
  6
CONTINUOUS
 10
1.093130
 20
-3.817850
  0
VERTEX
  8
PLAN_1
  6
CONTINUOUS
 10
1.087854
 20
-3.821689
  0
VERTEX
  8
PLAN_1
  6
CONTINUOUS
 10
1.082579
 20
-3.825047
  0
VERTEX
  8
PLAN_1
  6
CONTINUOUS
 10
1.076819
 20
-3.827925
  0
VERTEX
  8
PLAN_1
  6
CONTINUOUS
 10
1.071063
 20
-3.830323
  0
VERTEX
  8
PLAN_1
  6
CONTINUOUS
 10
1.064827
 20
-3.832724
  0
VERTEX
  8
PLAN_1
  6
CONTINUOUS
 10
1.058591
 20
-3.834642
  0
VERTEX
  8
PLAN_1
  6
CONTINUOUS
 10
1.052354
 20
-3.836083
  0
VERTEX
  8
PLAN_1
  6
CONTINUOUS
 10
1.046114
 20
-3.837039
  0
VERTEX
  8
PLAN_1
  6
CONTINUOUS
 10
1.039398
 20
-3.838000
  0
VERTEX
  8
PLAN_1
  6
CONTINUOUS
 10
1.032681
 20
-3.838000
  0
VERTEX
  8
PLAN_1
  6
CONTINUOUS
 10
1.027406
 20
-3.838000
  0
VERTEX
  8
PLAN_1
  6
CONTINUOUS
 10
1.021650
 20
-3.837520
  0
VERTEX
  8
PLAN_1
  6
CONTINUOUS
 10
1.016370
 20
-3.837039
  0
VERTEX
  8
PLAN_1
  6
CONTINUOUS
 10
1.011094
 20
-3.836083
  0
VERTEX
  8
PLAN_1
  6
CONTINUOUS
 10
1.005819
 20
-3.834642
  0
VERTEX
  8
PLAN_1
  6
CONTINUOUS
 10
1.001020
 20
-3.833201
  0
VERTEX
  8
PLAN_1
  6
CONTINUOUS
 10
0.995744
 20
-3.831764
  0
VERTEX
  8
PLAN_1
  6
CONTINUOUS
 10
0.990945
 20
-3.829843
  0
VERTEX
  8
PLAN_1
  6
CONTINUOUS
 10
0.986146
 20
-3.827925
  0
VERTEX
  8
PLAN_1
  6
CONTINUOUS
 10
0.981831
 20
-3.825528
  0
VERTEX
  8
PLAN_1
  6
CONTINUOUS
 10
0.977512
 20
-3.823126
  0
VERTEX
  8
PLAN_1
  6
CONTINUOUS
 10
0.973193
 20
-3.820248
  0
VERTEX
  8
PLAN_1
  6
CONTINUOUS
 10
0.968878
 20
-3.817370
  0
VERTEX
  8
PLAN_1
  6
CONTINUOUS
 10
0.965039
 20
-3.814012
  0
VERTEX
  8
PLAN_1
  6
CONTINUOUS
 10
0.961201
 20
-3.811134
  0
VERTEX
  8
PLAN_1
  6
CONTINUOUS
 10
0.957362
 20
-3.807295
  0
VERTEX
  8
PLAN_1
  6
CONTINUOUS
 10
0.954004
 20
-3.803937
  0
VERTEX
  8
PLAN_1
  6
CONTINUOUS
 10
0.950646
 20
-3.800098
  0
VERTEX
  8
PLAN_1
  6
CONTINUOUS
 10
0.947287
 20
-3.795783
  0
VERTEX
  8
PLAN_1
  6
CONTINUOUS
 10
0.944409
 20
-3.791945
  0
VERTEX
  8
PLAN_1
  6
CONTINUOUS
 10
0.942012
 20
-3.787626
  0
VERTEX
  8
PLAN_1
  6
CONTINUOUS
 10
0.939130
 20
-3.783307
  0
VERTEX
  8
PLAN_1
  6
CONTINUOUS
 10
0.937213
 20
-3.778512
  0
VERTEX
  8
PLAN_1
  6
CONTINUOUS
 10
0.934815
 20
-3.773713
  0
VERTEX
  8
PLAN_1
  6
CONTINUOUS
 10
0.932894
 20
-3.768917
  0
VERTEX
  8
PLAN_1
  6
CONTINUOUS
 10
0.931457
 20
-3.764118
  0
VERTEX
  8
PLAN_1
  6
CONTINUOUS
 10
0.930016
 20
-3.759323
  0
VERTEX
  8
PLAN_1
  6
CONTINUOUS
 10
0.928579
 20
-3.754043
  0
VERTEX
  8
PLAN_1
  6
CONTINUOUS
 10
0.928098
 20
-3.748768
  0
VERTEX
  8
PLAN_1
  6
CONTINUOUS
 10
0.927138
 20
-3.743488
  0
VERTEX
  8
PLAN_1
  6
CONTINUOUS
 10
0.926657
 20
-3.738213
  0
VERTEX
  8
PLAN_1
  6
CONTINUOUS
 10
0.926657
 20
-3.732457
  0
VERTEX
  8
PLAN_1
  6
CONTINUOUS
 10
0.926657
 20
-3.727177
  0
VERTEX
  8
PLAN_1
  6
CONTINUOUS
 10
0.927138
 20
-3.721902
  0
VERTEX
  8
PLAN_1
  6
CONTINUOUS
 10
0.928098
 20
-3.716622
  0
VERTEX
  8
PLAN_1
  6
CONTINUOUS
 10
0.929055
 20
-3.711346
  0
VERTEX
  8
PLAN_1
  6
CONTINUOUS
 10
0.930016
 20
-3.706547
  0
VERTEX
  8
PLAN_1
  6
CONTINUOUS
 10
0.931457
 20
-3.701272
  0
VERTEX
  8
PLAN_1
  6
CONTINUOUS
 10
0.932894
 20
-3.696472
  0
VERTEX
  8
PLAN_1
  6
CONTINUOUS
 10
0.934815
 20
-3.691677
  0
VERTEX
  8
PLAN_1
  6
CONTINUOUS
 10
0.937213
 20
-3.687358
  0
VERTEX
  8
PLAN_1
  6
CONTINUOUS
 10
0.939610
 20
-3.682559
  0
VERTEX
  8
PLAN_1
  6
CONTINUOUS
 10
0.942012
 20
-3.678244
  0
VERTEX
  8
PLAN_1
  6
CONTINUOUS
 10
0.944890
 20
-3.673925
  0
VERTEX
  8
PLAN_1
  6
CONTINUOUS
 10
0.947768
 20
-3.670087
  0
VERTEX
  8
PLAN_1
  6
CONTINUOUS
 10
0.950646
 20
-3.665768
  0
VERTEX
  8
PLAN_1
  6
CONTINUOUS
 10
0.954004
 20
-3.662413
  0
VERTEX
  8
PLAN_1
  6
CONTINUOUS
 10
0.957362
 20
-3.658575
  0
VERTEX
  8
PLAN_1
  6
CONTINUOUS
 10
0.965039
 20
-3.651858
  0
VERTEX
  8
PLAN_1
  6
CONTINUOUS
 10
0.973193
 20
-3.646098
  0
VERTEX
  8
PLAN_1
  6
CONTINUOUS
 10
0.977512
 20
-3.643220
  0
VERTEX
  8
PLAN_1
  6
CONTINUOUS
 10
0.981831
 20
-3.640823
  0
VERTEX
  8
PLAN_1
  6
CONTINUOUS
 10
0.986146
 20
-3.638425
  0
VERTEX
  8
PLAN_1
  6
CONTINUOUS
 10
0.990945
 20
-3.636504
  0
VERTEX
  8
PLAN_1
  6
CONTINUOUS
 10
0.995744
 20
-3.634587
  0
VERTEX
  8
PLAN_1
  6
CONTINUOUS
 10
1.000539
 20
-3.632665
  0
VERTEX
  8
PLAN_1
  6
CONTINUOUS
 10
1.005339
 20
-3.631228
  0
VERTEX
  8
PLAN_1
  6
CONTINUOUS
 10
1.010614
 20
-3.630268
  0
VERTEX
  8
PLAN_1
  6
CONTINUOUS
 10
1.015413
 20
-3.629307
  0
VERTEX
  8
PLAN_1
  6
CONTINUOUS
 10
1.020689
 20
-3.628831
  0
VERTEX
  8
PLAN_1
  6
CONTINUOUS
 10
1.025965
 20
-3.628350
  0
VERTEX
  8
PLAN_1
  6
CONTINUOUS
 10
1.031244
 20
-3.628350
  0
VERTEX
  8
PLAN_1
  6
CONTINUOUS
 10
1.040839
 20
-3.628350
  0
VERTEX
  8
PLAN_1
  6
CONTINUOUS
 10
1.049953
 20
-3.629787
  0
VERTEX
  8
PLAN_1
  6
CONTINUOUS
 10
1.059071
 20
-3.631709
  0
VERTEX
  8
PLAN_1
  6
CONTINUOUS
 10
1.067705
 20
-3.634587
  0
VERTEX
  8
PLAN_1
  6
CONTINUOUS
 10
1.076339
 20
-3.637945
  0
VERTEX
  8
PLAN_1
  6
CONTINUOUS
 10
1.084016
 20
-3.642264
  0
VERTEX
  8
PLAN_1
  6
CONTINUOUS
 10
1.091693
 20
-3.647059
  0
VERTEX
  8
PLAN_1
  6
CONTINUOUS
 10
1.098409
 20
-3.652339
  0
VERTEX
  8
PLAN_1
  6
CONTINUOUS
 10
1.104646
 20
-3.658575
  0
VERTEX
  8
PLAN_1
  6
CONTINUOUS
 10
1.109921
 20
-3.665291
  0
VERTEX
  8
PLAN_1
  6
CONTINUOUS
 10
1.115201
 20
-3.672484
  0
VERTEX
  8
PLAN_1
  6
CONTINUOUS
 10
1.119039
 20
-3.679681
  0
VERTEX
  8
PLAN_1
  6
CONTINUOUS
 10
1.122398
 20
-3.687839
  0
VERTEX
  8
PLAN_1
  6
CONTINUOUS
 10
1.124795
 20
-3.696472
  0
VERTEX
  8
PLAN_1
  6
CONTINUOUS
 10
1.125756
 20
-3.700791
  0
VERTEX
  8
PLAN_1
  6
CONTINUOUS
 10
1.126232
 20
-3.705591
  0
VERTEX
  8
PLAN_1
  6
CONTINUOUS
 10
1.126713
 20
-3.709906
  0
VERTEX
  8
PLAN_1
  6
CONTINUOUS
 10
1.126713
 20
-3.714705
  0
VERTEX
  8
PLAN_1
  6
CONTINUOUS
 10
1.126232
 20
-3.723819
  0
VERTEX
  8
PLAN_1
  6
CONTINUOUS
 10
1.124795
 20
-3.732457
  0
VERTEX
  8
PLAN_1
  6
CONTINUOUS
 10
1.122874
 20
-3.740610
  0
VERTEX
  8
PLAN_1
  6
CONTINUOUS
 10
1.119996
 20
-3.748287
  0
VERTEX
  8
PLAN_1
  6
CONTINUOUS
 10
1.116161
 20
-3.755484
  0
VERTEX
  8
PLAN_1
  6
CONTINUOUS
 10
1.112323
 20
-3.762201
  0
VERTEX
  8
PLAN_1
  6
CONTINUOUS
 10
1.108004
 20
-3.768437
  0
VERTEX
  8
PLAN_1
  6
CONTINUOUS
 10
1.102728
 20
-3.773713
  0
VERTEX
  8
PLAN_1
  6
CONTINUOUS
 10
1.097929
 20
-3.778512
  0
VERTEX
  8
PLAN_1
  6
CONTINUOUS
 10
1.092173
 20
-3.782827
  0
VERTEX
  8
PLAN_1
  6
CONTINUOUS
 10
1.086894
 20
-3.786665
  0
VERTEX
  8
PLAN_1
  6
CONTINUOUS
 10
1.081138
 20
-3.789543
  0
VERTEX
  8
PLAN_1
  6
CONTINUOUS
 10
1.075862
 20
-3.791945
  0
VERTEX
  8
PLAN_1
  6
CONTINUOUS
 10
1.070583
 20
-3.793382
  0
VERTEX
  8
PLAN_1
  6
CONTINUOUS
 10
1.065307
 20
-3.794823
  0
VERTEX
  8
PLAN_1
  6
CONTINUOUS
 10
1.060508
 20
-3.794823
  0
VERTEX
  8
PLAN_1
  6
CONTINUOUS
 10
1.057150
 20
-3.794823
  0
VERTEX
  8
PLAN_1
  6
CONTINUOUS
 10
1.053791
 20
-3.793862
  0
VERTEX
  8
PLAN_1
  6
CONTINUOUS
 10
1.050913
 20
-3.792425
  0
VERTEX
  8
PLAN_1
  6
CONTINUOUS
 10
1.048035
 20
-3.790504
  0
VERTEX
  8
PLAN_1
  6
CONTINUOUS
 10
1.046114
 20
-3.788106
  0
VERTEX
  8
PLAN_1
  6
CONTINUOUS
 10
1.044197
 20
-3.785228
  0
VERTEX
  8
PLAN_1
  6
CONTINUOUS
 10
1.043236
 20
-3.781870
  0
VERTEX
  8
PLAN_1
  6
CONTINUOUS
 10
1.042756
 20
-3.777551
  0
VERTEX
  8
PLAN_1
  6
CONTINUOUS
 10
1.042280
 20
-3.777551
  0
VERTEX
  8
PLAN_1
  6
CONTINUOUS
 10
1.038921
 20
-3.780909
  0
VERTEX
  8
PLAN_1
  6
CONTINUOUS
 10
1.035563
 20
-3.784268
  0
VERTEX
  8
PLAN_1
  6
CONTINUOUS
 10
1.031724
 20
-3.787146
  0
VERTEX
  8
PLAN_1
  6
CONTINUOUS
 10
1.027406
 20
-3.789543
  0
VERTEX
  8
PLAN_1
  6
CONTINUOUS
 10
1.023087
 20
-3.791945
  0
VERTEX
  8
PLAN_1
  6
CONTINUOUS
 10
1.018291
 20
-3.793382
  0
VERTEX
  8
PLAN_1
  6
CONTINUOUS
 10
1.013492
 20
-3.794823
  0
VERTEX
  8
PLAN_1
  6
CONTINUOUS
 10
1.008697
 20
-3.794823
  0
VERTEX
  8
PLAN_1
  6
CONTINUOUS
 10
1.004378
 20
-3.794823
  0
VERTEX
  8
PLAN_1
  6
CONTINUOUS
 10
1.000059
 20
-3.793862
  0
VERTEX
  8
PLAN_1
  6
CONTINUOUS
 10
0.996220
 20
-3.792902
  0
VERTEX
  8
PLAN_1
  6
CONTINUOUS
 10
0.992386
 20
-3.791465
  0
VERTEX
  8
PLAN_1
  6
CONTINUOUS
 10
0.989028
 20
-3.789543
  0
VERTEX
  8
PLAN_1
  6
CONTINUOUS
 10
0.985669
 20
-3.787146
  0
VERTEX
  8
PLAN_1
  6
CONTINUOUS
 10
0.982311
 20
-3.784748
  0
VERTEX
  8
PLAN_1
  6
CONTINUOUS
 10
0.979429
 20
-3.781870
  0
VERTEX
  8
PLAN_1
  6
CONTINUOUS
 10
0.977031
 20
-3.778512
  0
VERTEX
  8
PLAN_1
  6
CONTINUOUS
 10
0.974634
 20
-3.775154
  0
VERTEX
  8
PLAN_1
  6
CONTINUOUS
 10
0.972713
 20
-3.771795
  0
VERTEX
  8
PLAN_1
  6
CONTINUOUS
 10
0.971276
 20
-3.767476
  0
VERTEX
  8
PLAN_1
  6
CONTINUOUS
 10
0.969835
 20
-3.763638
  0
VERTEX
  8
PLAN_1
  6
CONTINUOUS
 10
0.968878
 20
-3.759323
  0
VERTEX
  8
PLAN_1
  6
CONTINUOUS
 10
0.968398
 20
-3.755004
  0
VERTEX
  8
PLAN_1
  6
CONTINUOUS
 10
0.967917
 20
-3.750685
  0
VERTEX
  8
PLAN_1
  6
CONTINUOUS
 10
0.968398
 20
-3.743488
  0
VERTEX
  8
PLAN_1
  6
CONTINUOUS
 10
0.969354
 20
-3.736291
  0
VERTEX
  8
PLAN_1
  6
CONTINUOUS
 10
0.970795
 20
-3.729575
  0
VERTEX
  8
PLAN_1
  6
CONTINUOUS
 10
0.972713
 20
-3.722858
  0
VERTEX
  8
PLAN_1
  6
CONTINUOUS
 10
0.975114
 20
-3.716142
  0
VERTEX
  8
PLAN_1
  6
CONTINUOUS
 10
0.977992
 20
-3.709906
  0
VERTEX
  8
PLAN_1
  6
CONTINUOUS
 10
0.981831
 20
-3.703669
  0
VERTEX
  8
PLAN_1
  6
CONTINUOUS
 10
0.985669
 20
-3.698394
  0
VERTEX
  8
PLAN_1
  6
CONTINUOUS
 10
0.989984
 20
-3.693114
  0
VERTEX
  8
PLAN_1
  6
CONTINUOUS
 10
0.994783
 20
-3.688319
  0
VERTEX
  8
PLAN_1
  6
CONTINUOUS
 10
1.000059
 20
-3.684000
  0
VERTEX
  8
PLAN_1
  6
CONTINUOUS
 10
1.005819
 20
-3.680642
  0
VERTEX
  8
PLAN_1
  6
CONTINUOUS
 10
1.012055
 20
-3.677764
  0
VERTEX
  8
PLAN_1
  6
CONTINUOUS
 10
1.018291
 20
-3.675843
  0
VERTEX
  8
PLAN_1
  6
CONTINUOUS
 10
1.025008
 20
-3.674406
  0
VERTEX
  8
PLAN_1
  6
CONTINUOUS
 10
1.032205
 20
-3.673925
  0
VERTEX
  8
PLAN_1
  6
CONTINUOUS
 10
1.037000
 20
-3.674406
  0
VERTEX
  8
PLAN_1
  6
CONTINUOUS
 10
1.041799
 20
-3.675366
  0
VERTEX
  8
PLAN_1
  6
CONTINUOUS
 10
1.046114
 20
-3.676803
  0
VERTEX
  8
PLAN_1
  6
CONTINUOUS
 10
1.050433
 20
-3.678724
  0
VERTEX
  8
PLAN_1
  6
CONTINUOUS
 10
1.054272
 20
-3.682083
  0
VERTEX
  8
PLAN_1
  6
CONTINUOUS
 10
1.058110
 20
-3.685441
  0
VERTEX
  8
PLAN_1
  6
CONTINUOUS
 10
1.060988
 20
-3.690236
  0
VERTEX
  8
PLAN_1
  6
CONTINUOUS
 10
1.063866
 20
-3.695516
  0
VERTEX
  8
PLAN_1
  6
CONTINUOUS
 10
1.069622
 20
-3.678244
  0
SEQEND
  8
0
  0
POLYLINE
  8
PLAN_1
  6
CONTINUOUS
 66
     1
 40
0.003000
 41
0.003000
  0
VERTEX
  8
PLAN_1
  6
CONTINUOUS
 10
1.032681
 20
-3.694075
  0
VERTEX
  8
PLAN_1
  6
CONTINUOUS
 10
1.028366
 20
-3.694075
  0
VERTEX
  8
PLAN_1
  6
CONTINUOUS
 10
1.024047
 20
-3.695516
  0
VERTEX
  8
PLAN_1
  6
CONTINUOUS
 10
1.019728
 20
-3.696953
  0
VERTEX
  8
PLAN_1
  6
CONTINUOUS
 10
1.015890
 20
-3.699350
  0
VERTEX
  8
PLAN_1
  6
CONTINUOUS
 10
1.012055
 20
-3.701752
  0
VERTEX
  8
PLAN_1
  6
CONTINUOUS
 10
1.008697
 20
-3.705110
  0
VERTEX
  8
PLAN_1
  6
CONTINUOUS
 10
1.005339
 20
-3.708469
  0
VERTEX
  8
PLAN_1
  6
CONTINUOUS
 10
1.002461
 20
-3.712307
  0
VERTEX
  8
PLAN_1
  6
CONTINUOUS
 10
1.000059
 20
-3.716622
  0
VERTEX
  8
PLAN_1
  6
CONTINUOUS
 10
0.997661
 20
-3.720941
  0
VERTEX
  8
PLAN_1
  6
CONTINUOUS
 10
0.995744
 20
-3.725260
  0
VERTEX
  8
PLAN_1
  6
CONTINUOUS
 10
0.993823
 20
-3.730055
  0
VERTEX
  8
PLAN_1
  6
CONTINUOUS
 10
0.992386
 20
-3.734374
  0
VERTEX
  8
PLAN_1
  6
CONTINUOUS
 10
0.991425
 20
-3.739173
  0
VERTEX
  8
PLAN_1
  6
CONTINUOUS
 10
0.990945
 20
-3.743488
  0
VERTEX
  8
PLAN_1
  6
CONTINUOUS
 10
0.990945
 20
-3.748287
  0
VERTEX
  8
PLAN_1
  6
CONTINUOUS
 10
0.991425
 20
-3.753563
  0
VERTEX
  8
PLAN_1
  6
CONTINUOUS
 10
0.992386
 20
-3.758843
  0
VERTEX
  8
PLAN_1
  6
CONTINUOUS
 10
0.994303
 20
-3.763638
  0
VERTEX
  8
PLAN_1
  6
CONTINUOUS
 10
0.997181
 20
-3.767476
  0
VERTEX
  8
PLAN_1
  6
CONTINUOUS
 10
0.998622
 20
-3.768917
  0
VERTEX
  8
PLAN_1
  6
CONTINUOUS
 10
1.000539
 20
-3.770835
  0
VERTEX
  8
PLAN_1
  6
CONTINUOUS
 10
1.002461
 20
-3.771795
  0
VERTEX
  8
PLAN_1
  6
CONTINUOUS
 10
1.004378
 20
-3.773232
  0
VERTEX
  8
PLAN_1
  6
CONTINUOUS
 10
1.006776
 20
-3.773713
  0
VERTEX
  8
PLAN_1
  6
CONTINUOUS
 10
1.009177
 20
-3.774673
  0
VERTEX
  8
PLAN_1
  6
CONTINUOUS
 10
1.011575
 20
-3.774673
  0
VERTEX
  8
PLAN_1
  6
CONTINUOUS
 10
1.013972
 20
-3.775154
  0
VERTEX
  8
PLAN_1
  6
CONTINUOUS
 10
1.018291
 20
-3.774673
  0
VERTEX
  8
PLAN_1
  6
CONTINUOUS
 10
1.022606
 20
-3.773713
  0
VERTEX
  8
PLAN_1
  6
CONTINUOUS
 10
1.026445
 20
-3.771795
  0
VERTEX
  8
PLAN_1
  6
CONTINUOUS
 10
1.030764
 20
-3.769398
  0
VERTEX
  8
PLAN_1
  6
CONTINUOUS
 10
1.034122
 20
-3.766516
  0
VERTEX
  8
PLAN_1
  6
CONTINUOUS
 10
1.037480
 20
-3.763157
  0
VERTEX
  8
PLAN_1
  6
CONTINUOUS
 10
1.040839
 20
-3.759799
  0
VERTEX
  8
PLAN_1
  6
CONTINUOUS
 10
1.043717
 20
-3.755484
  0
VERTEX
  8
PLAN_1
  6
CONTINUOUS
 10
1.046114
 20
-3.751165
  0
VERTEX
  8
PLAN_1
  6
CONTINUOUS
 10
1.048516
 20
-3.746846
  0
VERTEX
  8
PLAN_1
  6
CONTINUOUS
 10
1.050433
 20
-3.742051
  0
VERTEX
  8
PLAN_1
  6
CONTINUOUS
 10
1.052354
 20
-3.737732
  0
VERTEX
  8
PLAN_1
  6
CONTINUOUS
 10
1.053791
 20
-3.732933
  0
VERTEX
  8
PLAN_1
  6
CONTINUOUS
 10
1.054752
 20
-3.728138
  0
VERTEX
  8
PLAN_1
  6
CONTINUOUS
 10
1.055232
 20
-3.723819
  0
VERTEX
  8
PLAN_1
  6
CONTINUOUS
 10
1.055713
 20
-3.719500
  0
VERTEX
  8
PLAN_1
  6
CONTINUOUS
 10
1.055232
 20
-3.714705
  0
VERTEX
  8
PLAN_1
  6
CONTINUOUS
 10
1.053791
 20
-3.709906
  0
VERTEX
  8
PLAN_1
  6
CONTINUOUS
 10
1.051394
 20
-3.705591
  0
VERTEX
  8
PLAN_1
  6
CONTINUOUS
 10
1.048516
 20
-3.701752
  0
VERTEX
  8
PLAN_1
  6
CONTINUOUS
 10
1.045157
 20
-3.698394
  0
VERTEX
  8
PLAN_1
  6
CONTINUOUS
 10
1.041319
 20
-3.695992
  0
VERTEX
  8
PLAN_1
  6
CONTINUOUS
 10
1.039398
 20
-3.695035
  0
VERTEX
  8
PLAN_1
  6
CONTINUOUS
 10
1.037000
 20
-3.694555
  0
VERTEX
  8
PLAN_1
  6
CONTINUOUS
 10
1.035083
 20
-3.694075
  0
VERTEX
  8
PLAN_1
  6
CONTINUOUS
 10
1.032681
 20
-3.694075
  0
SEQEND
  8
0
  0
POLYLINE
  8
PLAN_1
  6
CONTINUOUS
 66
     1
 40
0.003000
 41
0.003000
  0
VERTEX
  8
PLAN_1
  6
CONTINUOUS
 10
1.220264
 20
-3.774673
  0
VERTEX
  8
PLAN_1
  6
CONTINUOUS
 10
1.199157
 20
-3.832724
  0
VERTEX
  8
PLAN_1
  6
CONTINUOUS
 10
1.171811
 20
-3.832724
  0
VERTEX
  8
PLAN_1
  6
CONTINUOUS
 10
1.246650
 20
-3.633626
  0
VERTEX
  8
PLAN_1
  6
CONTINUOUS
 10
1.276874
 20
-3.633626
  0
VERTEX
  8
PLAN_1
  6
CONTINUOUS
 10
1.349319
 20
-3.832724
  0
VERTEX
  8
PLAN_1
  6
CONTINUOUS
 10
1.320055
 20
-3.832724
  0
VERTEX
  8
PLAN_1
  6
CONTINUOUS
 10
1.299906
 20
-3.774673
  0
VERTEX
  8
PLAN_1
  6
CONTINUOUS
 10
1.220264
 20
-3.774673
  0
SEQEND
  8
0
  0
SOLID
  8
PLAN_1
 10
1.290307
 20
-3.750685
 11
1.261043
 21
-3.662890
 12
1.228421
 22
-3.750685
 13
1.260563
 23
-3.662890
  0
POLYLINE
  8
PLAN_1
  6
CONTINUOUS
 66
     1
 40
0.003000
 41
0.003000
  0
VERTEX
  8
PLAN_1
  6
CONTINUOUS
 10
1.290307
 20
-3.750685
  0
VERTEX
  8
PLAN_1
  6
CONTINUOUS
 10
1.261043
 20
-3.662890
  0
VERTEX
  8
PLAN_1
  6
CONTINUOUS
 10
1.260563
 20
-3.662890
  0
VERTEX
  8
PLAN_1
  6
CONTINUOUS
 10
1.228421
 20
-3.750685
  0
VERTEX
  8
PLAN_1
  6
CONTINUOUS
 10
1.290307
 20
-3.750685
  0
SEQEND
  8
0
  0
POLYLINE
  8
PLAN_1
  6
CONTINUOUS
 66
     1
 40
0.003000
 41
0.003000
  0
VERTEX
  8
PLAN_1
  6
CONTINUOUS
 10
1.363232
 20
-3.641783
  0
VERTEX
  8
PLAN_1
  6
CONTINUOUS
 10
1.498039
 20
-3.641783
  0
VERTEX
  8
PLAN_1
  6
CONTINUOUS
 10
1.498039
 20
-3.662890
  0
VERTEX
  8
PLAN_1
  6
CONTINUOUS
 10
1.489886
 20
-3.672484
  0
VERTEX
  8
PLAN_1
  6
CONTINUOUS
 10
1.479331
 20
-3.685917
  0
VERTEX
  8
PLAN_1
  6
CONTINUOUS
 10
1.473575
 20
-3.694075
  0
VERTEX
  8
PLAN_1
  6
CONTINUOUS
 10
1.467815
 20
-3.702709
  0
VERTEX
  8
PLAN_1
  6
CONTINUOUS
 10
1.462059
 20
-3.712307
  0
VERTEX
  8
PLAN_1
  6
CONTINUOUS
 10
1.455823
 20
-3.722858
  0
VERTEX
  8
PLAN_1
  6
CONTINUOUS
 10
1.450067
 20
-3.733894
  0
VERTEX
  8
PLAN_1
  6
CONTINUOUS
 10
1.444307
 20
-3.745890
  0
VERTEX
  8
PLAN_1
  6
CONTINUOUS
 10
1.439031
 20
-3.758843
  0
VERTEX
  8
PLAN_1
  6
CONTINUOUS
 10
1.433756
 20
-3.772276
  0
VERTEX
  8
PLAN_1
  6
CONTINUOUS
 10
1.428957
 20
-3.786665
  0
VERTEX
  8
PLAN_1
  6
CONTINUOUS
 10
1.424638
 20
-3.801059
  0
VERTEX
  8
PLAN_1
  6
CONTINUOUS
 10
1.420799
 20
-3.816890
  0
VERTEX
  8
PLAN_1
  6
CONTINUOUS
 10
1.417921
 20
-3.832724
  0
VERTEX
  8
PLAN_1
  6
CONTINUOUS
 10
1.391055
 20
-3.832724
  0
VERTEX
  8
PLAN_1
  6
CONTINUOUS
 10
1.392496
 20
-3.822650
  0
VERTEX
  8
PLAN_1
  6
CONTINUOUS
 10
1.394894
 20
-3.812094
  0
VERTEX
  8
PLAN_1
  6
CONTINUOUS
 10
1.397772
 20
-3.801059
  0
VERTEX
  8
PLAN_1
  6
CONTINUOUS
 10
1.401130
 20
-3.790024
  0
VERTEX
  8
PLAN_1
  6
CONTINUOUS
 10
1.404969
 20
-3.778992
  0
VERTEX
  8
PLAN_1
  6
CONTINUOUS
 10
1.409287
 20
-3.767957
  0
VERTEX
  8
PLAN_1
  6
CONTINUOUS
 10
1.414083
 20
-3.756441
  0
VERTEX
  8
PLAN_1
  6
CONTINUOUS
 10
1.419362
 20
-3.745409
  0
VERTEX
  8
PLAN_1
  6
CONTINUOUS
 10
1.424638
 20
-3.734374
  0
VERTEX
  8
PLAN_1
  6
CONTINUOUS
 10
1.430874
 20
-3.723339
  0
VERTEX
  8
PLAN_1
  6
CONTINUOUS
 10
1.437114
 20
-3.712783
  0
VERTEX
  8
PLAN_1
  6
CONTINUOUS
 10
1.443350
 20
-3.702709
  0
VERTEX
  8
PLAN_1
  6
CONTINUOUS
 10
1.450067
 20
-3.692634
  0
VERTEX
  8
PLAN_1
  6
CONTINUOUS
 10
1.456783
 20
-3.683039
  0
VERTEX
  8
PLAN_1
  6
CONTINUOUS
 10
1.463500
 20
-3.673925
  0
VERTEX
  8
PLAN_1
  6
CONTINUOUS
 10
1.470693
 20
-3.665768
  0
VERTEX
  8
PLAN_1
  6
CONTINUOUS
 10
1.363232
 20
-3.665768
  0
VERTEX
  8
PLAN_1
  6
CONTINUOUS
 10
1.363232
 20
-3.641783
  0
SEQEND
  8
0
  0
POLYLINE
  8
PLAN_1
  6
CONTINUOUS
 66
     1
 40
0.003000
 41
0.003000
  0
VERTEX
  8
PLAN_1
  6
CONTINUOUS
 10
1.558488
 20
-3.832724
  0
VERTEX
  8
PLAN_1
  6
CONTINUOUS
 10
1.531622
 20
-3.832724
  0
VERTEX
  8
PLAN_1
  6
CONTINUOUS
 10
1.531622
 20
-3.633626
  0
VERTEX
  8
PLAN_1
  6
CONTINUOUS
 10
1.623736
 20
-3.633626
  0
VERTEX
  8
PLAN_1
  6
CONTINUOUS
 10
1.629972
 20
-3.633626
  0
VERTEX
  8
PLAN_1
  6
CONTINUOUS
 10
1.636209
 20
-3.634106
  0
VERTEX
  8
PLAN_1
  6
CONTINUOUS
 10
1.641965
 20
-3.634587
  0
VERTEX
  8
PLAN_1
  6
CONTINUOUS
 10
1.648201
 20
-3.636024
  0
VERTEX
  8
PLAN_1
  6
CONTINUOUS
 10
1.653480
 20
-3.637465
  0
VERTEX
  8
PLAN_1
  6
CONTINUOUS
 10
1.659236
 20
-3.639382
  0
VERTEX
  8
PLAN_1
  6
CONTINUOUS
 10
1.664035
 20
-3.641783
  0
VERTEX
  8
PLAN_1
  6
CONTINUOUS
 10
1.668831
 20
-3.644181
  0
VERTEX
  8
PLAN_1
  6
CONTINUOUS
 10
1.673150
 20
-3.647539
  0
VERTEX
  8
PLAN_1
  6
CONTINUOUS
 10
1.677469
 20
-3.651378
  0
VERTEX
  8
PLAN_1
  6
CONTINUOUS
 10
1.680827
 20
-3.655697
  0
VERTEX
  8
PLAN_1
  6
CONTINUOUS
 10
1.683705
 20
-3.660972
  0
VERTEX
  8
PLAN_1
  6
CONTINUOUS
 10
1.686102
 20
-3.666248
  0
VERTEX
  8
PLAN_1
  6
CONTINUOUS
 10
1.688020
 20
-3.672484
  0
VERTEX
  8
PLAN_1
  6
CONTINUOUS
 10
1.688980
 20
-3.679681
  0
VERTEX
  8
PLAN_1
  6
CONTINUOUS
 10
1.689461
 20
-3.686878
  0
VERTEX
  8
PLAN_1
  6
CONTINUOUS
 10
1.689461
 20
-3.692157
  0
VERTEX
  8
PLAN_1
  6
CONTINUOUS
 10
1.688980
 20
-3.697433
  0
VERTEX
  8
PLAN_1
  6
CONTINUOUS
 10
1.688020
 20
-3.701752
  0
VERTEX
  8
PLAN_1
  6
CONTINUOUS
 10
1.687063
 20
-3.705591
  0
VERTEX
  8
PLAN_1
  6
CONTINUOUS
 10
1.685622
 20
-3.709425
  0
VERTEX
  8
PLAN_1
  6
CONTINUOUS
 10
1.684185
 20
-3.713264
  0
VERTEX
  8
PLAN_1
  6
CONTINUOUS
 10
1.682264
 20
-3.716142
  0
VERTEX
  8
PLAN_1
  6
CONTINUOUS
 10
1.680346
 20
-3.719024
  0
VERTEX
  8
PLAN_1
  6
CONTINUOUS
 10
1.676028
 20
-3.724299
  0
VERTEX
  8
PLAN_1
  6
CONTINUOUS
 10
1.671228
 20
-3.728138
  0
VERTEX
  8
PLAN_1
  6
CONTINUOUS
 10
1.666433
 20
-3.731976
  0
VERTEX
  8
PLAN_1
  6
CONTINUOUS
 10
1.661634
 20
-3.734854
  0
VERTEX
  8
PLAN_1
  6
CONTINUOUS
 10
1.665953
 20
-3.736772
  0
VERTEX
  8
PLAN_1
  6
CONTINUOUS
 10
1.670272
 20
-3.738693
  0
VERTEX
  8
PLAN_1
  6
CONTINUOUS
 10
1.674110
 20
-3.741571
  0
VERTEX
  8
PLAN_1
  6
CONTINUOUS
 10
1.677469
 20
-3.744929
  0
VERTEX
  8
PLAN_1
  6
CONTINUOUS
 10
1.678906
 20
-3.746846
  0
VERTEX
  8
PLAN_1
  6
CONTINUOUS
 10
1.680346
 20
-3.749248
  0
VERTEX
  8
PLAN_1
  6
CONTINUOUS
 10
1.681783
 20
-3.752126
  0
VERTEX
  8
PLAN_1
  6
CONTINUOUS
 10
1.682744
 20
-3.755484
  0
VERTEX
  8
PLAN_1
  6
CONTINUOUS
 10
1.683705
 20
-3.758843
  0
VERTEX
  8
PLAN_1
  6
CONTINUOUS
 10
1.684661
 20
-3.762681
  0
VERTEX
  8
PLAN_1
  6
CONTINUOUS
 10
1.685142
 20
-3.767476
  0
VERTEX
  8
PLAN_1
  6
CONTINUOUS
 10
1.685622
 20
-3.772276
  0
VERTEX
  8
PLAN_1
  6
CONTINUOUS
 10
1.687063
 20
-3.808256
  0
VERTEX
  8
PLAN_1
  6
CONTINUOUS
 10
1.687543
 20
-3.812094
  0
VERTEX
  8
PLAN_1
  6
CONTINUOUS
 10
1.687543
 20
-3.815453
  0
VERTEX
  8
PLAN_1
  6
CONTINUOUS
 10
1.688500
 20
-3.818331
  0
VERTEX
  8
PLAN_1
  6
CONTINUOUS
 10
1.688980
 20
-3.820728
  0
VERTEX
  8
PLAN_1
  6
CONTINUOUS
 10
1.690421
 20
-3.822650
  0
VERTEX
  8
PLAN_1
  6
CONTINUOUS
 10
1.692339
 20
-3.824567
  0
VERTEX
  8
PLAN_1
  6
CONTINUOUS
 10
1.694260
 20
-3.826484
  0
VERTEX
  8
PLAN_1
  6
CONTINUOUS
 10
1.697138
 20
-3.828406
  0
VERTEX
  8
PLAN_1
  6
CONTINUOUS
 10
1.697138
 20
-3.832724
  0
VERTEX
  8
PLAN_1
  6
CONTINUOUS
 10
1.664035
 20
-3.832724
  0
VERTEX
  8
PLAN_1
  6
CONTINUOUS
 10
1.663075
 20
-3.827445
  0
VERTEX
  8
PLAN_1
  6
CONTINUOUS
 10
1.661634
 20
-3.820728
  0
VERTEX
  8
PLAN_1
  6
CONTINUOUS
 10
1.661154
 20
-3.813531
  0
VERTEX
  8
PLAN_1
  6
CONTINUOUS
 10
1.660197
 20
-3.805858
  0
VERTEX
  8
PLAN_1
  6
CONTINUOUS
 10
1.659717
 20
-3.798661
  0
VERTEX
  8
PLAN_1
  6
CONTINUOUS
 10
1.659717
 20
-3.791945
  0
VERTEX
  8
PLAN_1
  6
CONTINUOUS
 10
1.659717
 20
-3.786665
  0
VERTEX
  8
PLAN_1
  6
CONTINUOUS
 10
1.659236
 20
-3.782827
  0
VERTEX
  8
PLAN_1
  6
CONTINUOUS
 10
1.659236
 20
-3.776591
  0
VERTEX
  8
PLAN_1
  6
CONTINUOUS
 10
1.658276
 20
-3.770354
  0
VERTEX
  8
PLAN_1
  6
CONTINUOUS
 10
1.657795
 20
-3.767476
  0
VERTEX
  8
PLAN_1
  6
CONTINUOUS
 10
1.656839
 20
-3.764118
  0
VERTEX
  8
PLAN_1
  6
CONTINUOUS
 10
1.655398
 20
-3.761720
  0
VERTEX
  8
PLAN_1
  6
CONTINUOUS
 10
1.653961
 20
-3.758843
  0
VERTEX
  8
PLAN_1
  6
CONTINUOUS
 10
1.651559
 20
-3.756441
  0
VERTEX
  8
PLAN_1
  6
CONTINUOUS
 10
1.649161
 20
-3.754043
  0
VERTEX
  8
PLAN_1
  6
CONTINUOUS
 10
1.646283
 20
-3.752126
  0
VERTEX
  8
PLAN_1
  6
CONTINUOUS
 10
1.642925
 20
-3.750685
  0
VERTEX
  8
PLAN_1
  6
CONTINUOUS
 10
1.639087
 20
-3.749248
  0
VERTEX
  8
PLAN_1
  6
CONTINUOUS
 10
1.634768
 20
-3.748287
  0
VERTEX
  8
PLAN_1
  6
CONTINUOUS
 10
1.629492
 20
-3.747327
  0
VERTEX
  8
PLAN_1
  6
CONTINUOUS
 10
1.623736
 20
-3.747327
  0
VERTEX
  8
PLAN_1
  6
CONTINUOUS
 10
1.558488
 20
-3.747327
  0
VERTEX
  8
PLAN_1
  6
CONTINUOUS
 10
1.558488
 20
-3.832724
  0
SEQEND
  8
0
  0
POLYLINE
  8
PLAN_1
  6
CONTINUOUS
 66
     1
 40
0.003000
 41
0.003000
  0
VERTEX
  8
PLAN_1
  6
CONTINUOUS
 10
1.558488
 20
-3.724299
  0
VERTEX
  8
PLAN_1
  6
CONTINUOUS
 10
1.621335
 20
-3.724299
  0
VERTEX
  8
PLAN_1
  6
CONTINUOUS
 10
1.628531
 20
-3.723819
  0
VERTEX
  8
PLAN_1
  6
CONTINUOUS
 10
1.635728
 20
-3.722858
  0
VERTEX
  8
PLAN_1
  6
CONTINUOUS
 10
1.639087
 20
-3.722382
  0
VERTEX
  8
PLAN_1
  6
CONTINUOUS
 10
1.642445
 20
-3.720941
  0
VERTEX
  8
PLAN_1
  6
CONTINUOUS
 10
1.645803
 20
-3.719500
  0
VERTEX
  8
PLAN_1
  6
CONTINUOUS
 10
1.648681
 20
-3.718063
  0
VERTEX
  8
PLAN_1
  6
CONTINUOUS
 10
1.651559
 20
-3.716142
  0
VERTEX
  8
PLAN_1
  6
CONTINUOUS
 10
1.653961
 20
-3.713744
  0
VERTEX
  8
PLAN_1
  6
CONTINUOUS
 10
1.656358
 20
-3.710866
  0
VERTEX
  8
PLAN_1
  6
CONTINUOUS
 10
1.658276
 20
-3.707508
  0
VERTEX
  8
PLAN_1
  6
CONTINUOUS
 10
1.659717
 20
-3.703669
  0
VERTEX
  8
PLAN_1
  6
CONTINUOUS
 10
1.660677
 20
-3.699831
  0
VERTEX
  8
PLAN_1
  6
CONTINUOUS
 10
1.661634
 20
-3.695035
  0
VERTEX
  8
PLAN_1
  6
CONTINUOUS
 10
1.661634
 20
-3.689756
  0
VERTEX
  8
PLAN_1
  6
CONTINUOUS
 10
1.661634
 20
-3.684480
  0
VERTEX
  8
PLAN_1
  6
CONTINUOUS
 10
1.660677
 20
-3.679681
  0
VERTEX
  8
PLAN_1
  6
CONTINUOUS
 10
1.659717
 20
-3.675366
  0
VERTEX
  8
PLAN_1
  6
CONTINUOUS
 10
1.657795
 20
-3.671528
  0
VERTEX
  8
PLAN_1
  6
CONTINUOUS
 10
1.655878
 20
-3.668169
  0
VERTEX
  8
PLAN_1
  6
CONTINUOUS
 10
1.653961
 20
-3.665768
  0
VERTEX
  8
PLAN_1
  6
CONTINUOUS
 10
1.651559
 20
-3.663370
  0
VERTEX
  8
PLAN_1
  6
CONTINUOUS
 10
1.648681
 20
-3.661453
  0
VERTEX
  8
PLAN_1
  6
CONTINUOUS
 10
1.645803
 20
-3.660012
  0
VERTEX
  8
PLAN_1
  6
CONTINUOUS
 10
1.642925
 20
-3.659055
  0
VERTEX
  8
PLAN_1
  6
CONTINUOUS
 10
1.640047
 20
-3.658094
  0
VERTEX
  8
PLAN_1
  6
CONTINUOUS
 10
1.637169
 20
-3.657134
  0
VERTEX
  8
PLAN_1
  6
CONTINUOUS
 10
1.631409
 20
-3.656654
  0
VERTEX
  8
PLAN_1
  6
CONTINUOUS
 10
1.625654
 20
-3.656654
  0
VERTEX
  8
PLAN_1
  6
CONTINUOUS
 10
1.558488
 20
-3.656654
  0
VERTEX
  8
PLAN_1
  6
CONTINUOUS
 10
1.558488
 20
-3.724299
  0
SEQEND
  8
0
  0
SOLID
  8
PLAN_1
 10
1.760945
 20
-3.832724
 11
1.732157
 21
-3.832724
 12
1.760945
 22
-3.803457
 13
1.732157
 23
-3.803457
  0
POLYLINE
  8
PLAN_1
  6
CONTINUOUS
 66
     1
 40
0.003000
 41
0.003000
  0
VERTEX
  8
PLAN_1
  6
CONTINUOUS
 10
1.760945
 20
-3.832724
  0
VERTEX
  8
PLAN_1
  6
CONTINUOUS
 10
1.732157
 20
-3.832724
  0
VERTEX
  8
PLAN_1
  6
CONTINUOUS
 10
1.732157
 20
-3.803457
  0
VERTEX
  8
PLAN_1
  6
CONTINUOUS
 10
1.760945
 20
-3.803457
  0
VERTEX
  8
PLAN_1
  6
CONTINUOUS
 10
1.760945
 20
-3.832724
  0
SEQEND
  8
0
  0
POLYLINE
  8
PLAN_1
  6
CONTINUOUS
 66
     1
 40
0.003000
 41
0.003000
  0
VERTEX
  8
PLAN_1
  6
CONTINUOUS
 10
1.955720
 20
-3.832724
  0
VERTEX
  8
PLAN_1
  6
CONTINUOUS
 10
1.808917
 20
-3.832724
  0
VERTEX
  8
PLAN_1
  6
CONTINUOUS
 10
1.808917
 20
-3.633626
  0
VERTEX
  8
PLAN_1
  6
CONTINUOUS
 10
1.953803
 20
-3.633626
  0
VERTEX
  8
PLAN_1
  6
CONTINUOUS
 10
1.953803
 20
-3.657134
  0
VERTEX
  8
PLAN_1
  6
CONTINUOUS
 10
1.835783
 20
-3.657134
  0
VERTEX
  8
PLAN_1
  6
CONTINUOUS
 10
1.835783
 20
-3.718543
  0
VERTEX
  8
PLAN_1
  6
CONTINUOUS
 10
1.944689
 20
-3.718543
  0
VERTEX
  8
PLAN_1
  6
CONTINUOUS
 10
1.944689
 20
-3.742051
  0
VERTEX
  8
PLAN_1
  6
CONTINUOUS
 10
1.835783
 20
-3.742051
  0
VERTEX
  8
PLAN_1
  6
CONTINUOUS
 10
1.835783
 20
-3.808736
  0
VERTEX
  8
PLAN_1
  6
CONTINUOUS
 10
1.955720
 20
-3.808736
  0
VERTEX
  8
PLAN_1
  6
CONTINUOUS
 10
1.955720
 20
-3.832724
  0
SEQEND
  8
0
  0
POLYLINE
  8
PLAN_1
  6
CONTINUOUS
 66
     1
 40
0.003000
 41
0.003000
  0
VERTEX
  8
PLAN_1
  6
CONTINUOUS
 10
2.020969
 20
-3.832724
  0
VERTEX
  8
PLAN_1
  6
CONTINUOUS
 10
1.994102
 20
-3.832724
  0
VERTEX
  8
PLAN_1
  6
CONTINUOUS
 10
1.994102
 20
-3.633626
  0
VERTEX
  8
PLAN_1
  6
CONTINUOUS
 10
2.083815
 20
-3.633626
  0
VERTEX
  8
PLAN_1
  6
CONTINUOUS
 10
2.090531
 20
-3.633626
  0
VERTEX
  8
PLAN_1
  6
CONTINUOUS
 10
2.096768
 20
-3.634587
  0
VERTEX
  8
PLAN_1
  6
CONTINUOUS
 10
2.103004
 20
-3.636024
  0
VERTEX
  8
PLAN_1
  6
CONTINUOUS
 10
2.108764
 20
-3.637465
  0
VERTEX
  8
PLAN_1
  6
CONTINUOUS
 10
2.113559
 20
-3.639862
  0
VERTEX
  8
PLAN_1
  6
CONTINUOUS
 10
2.118839
 20
-3.642740
  0
VERTEX
  8
PLAN_1
  6
CONTINUOUS
 10
2.123154
 20
-3.645622
  0
VERTEX
  8
PLAN_1
  6
CONTINUOUS
 10
2.126992
 20
-3.649457
  0
VERTEX
  8
PLAN_1
  6
CONTINUOUS
 10
2.130831
 20
-3.653295
  0
VERTEX
  8
PLAN_1
  6
CONTINUOUS
 10
2.133709
 20
-3.657614
  0
VERTEX
  8
PLAN_1
  6
CONTINUOUS
 10
2.136587
 20
-3.662413
  0
VERTEX
  8
PLAN_1
  6
CONTINUOUS
 10
2.138988
 20
-3.667209
  0
VERTEX
  8
PLAN_1
  6
CONTINUOUS
 10
2.140425
 20
-3.672484
  0
VERTEX
  8
PLAN_1
  6
CONTINUOUS
 10
2.141866
 20
-3.677764
  0
VERTEX
  8
PLAN_1
  6
CONTINUOUS
 10
2.142823
 20
-3.683520
  0
VERTEX
  8
PLAN_1
  6
CONTINUOUS
 10
2.142823
 20
-3.689276
  0
VERTEX
  8
PLAN_1
  6
CONTINUOUS
 10
2.142823
 20
-3.694555
  0
VERTEX
  8
PLAN_1
  6
CONTINUOUS
 10
2.141866
 20
-3.699831
  0
VERTEX
  8
PLAN_1
  6
CONTINUOUS
 10
2.140906
 20
-3.705110
  0
VERTEX
  8
PLAN_1
  6
CONTINUOUS
 10
2.139465
 20
-3.710386
  0
VERTEX
  8
PLAN_1
  6
CONTINUOUS
 10
2.138028
 20
-3.715665
  0
VERTEX
  8
PLAN_1
  6
CONTINUOUS
 10
2.135630
 20
-3.720461
  0
VERTEX
  8
PLAN_1
  6
CONTINUOUS
 10
2.132748
 20
-3.725260
  0
VERTEX
  8
PLAN_1
  6
CONTINUOUS
 10
2.129390
 20
-3.729575
  0
VERTEX
  8
PLAN_1
  6
CONTINUOUS
 10
2.125555
 20
-3.733413
  0
VERTEX
  8
PLAN_1
  6
CONTINUOUS
 10
2.121236
 20
-3.737252
  0
VERTEX
  8
PLAN_1
  6
CONTINUOUS
 10
2.116437
 20
-3.740610
  0
VERTEX
  8
PLAN_1
  6
CONTINUOUS
 10
2.111161
 20
-3.743488
  0
VERTEX
  8
PLAN_1
  6
CONTINUOUS
 10
2.105406
 20
-3.745409
  0
VERTEX
  8
PLAN_1
  6
CONTINUOUS
 10
2.098689
 20
-3.747327
  0
VERTEX
  8
PLAN_1
  6
CONTINUOUS
 10
2.091492
 20
-3.748287
  0
VERTEX
  8
PLAN_1
  6
CONTINUOUS
 10
2.083815
 20
-3.748768
  0
VERTEX
  8
PLAN_1
  6
CONTINUOUS
 10
2.020969
 20
-3.748768
  0
VERTEX
  8
PLAN_1
  6
CONTINUOUS
 10
2.020969
 20
-3.832724
  0
SEQEND
  8
0
  0
POLYLINE
  8
PLAN_1
  6
CONTINUOUS
 66
     1
 40
0.003000
 41
0.003000
  0
VERTEX
  8
PLAN_1
  6
CONTINUOUS
 10
2.020969
 20
-3.725740
  0
VERTEX
  8
PLAN_1
  6
CONTINUOUS
 10
2.074701
 20
-3.725740
  0
VERTEX
  8
PLAN_1
  6
CONTINUOUS
 10
2.079016
 20
-3.725260
  0
VERTEX
  8
PLAN_1
  6
CONTINUOUS
 10
2.083335
 20
-3.725260
  0
VERTEX
  8
PLAN_1
  6
CONTINUOUS
 10
2.087173
 20
-3.724780
  0
VERTEX
  8
PLAN_1
  6
CONTINUOUS
 10
2.091012
 20
-3.723819
  0
VERTEX
  8
PLAN_1
  6
CONTINUOUS
 10
2.094850
 20
-3.722858
  0
VERTEX
  8
PLAN_1
  6
CONTINUOUS
 10
2.098209
 20
-3.721421
  0
VERTEX
  8
PLAN_1
  6
CONTINUOUS
 10
2.101087
 20
-3.719500
  0
VERTEX
  8
PLAN_1
  6
CONTINUOUS
 10
2.103965
 20
-3.717583
  0
VERTEX
  8
PLAN_1
  6
CONTINUOUS
 10
2.106362
 20
-3.715665
  0
VERTEX
  8
PLAN_1
  6
CONTINUOUS
 10
2.108764
 20
-3.712783
  0
VERTEX
  8
PLAN_1
  6
CONTINUOUS
 10
2.110681
 20
-3.709906
  0
VERTEX
  8
PLAN_1
  6
CONTINUOUS
 10
2.112122
 20
-3.706547
  0
VERTEX
  8
PLAN_1
  6
CONTINUOUS
 10
2.113559
 20
-3.703189
  0
VERTEX
  8
PLAN_1
  6
CONTINUOUS
 10
2.114520
 20
-3.698874
  0
VERTEX
  8
PLAN_1
  6
CONTINUOUS
 10
2.115000
 20
-3.694555
  0
VERTEX
  8
PLAN_1
  6
CONTINUOUS
 10
2.115000
 20
-3.689756
  0
VERTEX
  8
PLAN_1
  6
CONTINUOUS
 10
2.115000
 20
-3.685441
  0
VERTEX
  8
PLAN_1
  6
CONTINUOUS
 10
2.114520
 20
-3.681122
  0
VERTEX
  8
PLAN_1
  6
CONTINUOUS
 10
2.113559
 20
-3.677283
  0
VERTEX
  8
PLAN_1
  6
CONTINUOUS
 10
2.112122
 20
-3.673925
  0
VERTEX
  8
PLAN_1
  6
CONTINUOUS
 10
2.110201
 20
-3.671047
  0
VERTEX
  8
PLAN_1
  6
CONTINUOUS
 10
2.108283
 20
-3.668169
  0
VERTEX
  8
PLAN_1
  6
CONTINUOUS
 10
2.106362
 20
-3.665768
  0
VERTEX
  8
PLAN_1
  6
CONTINUOUS
 10
2.103484
 20
-3.663850
  0
VERTEX
  8
PLAN_1
  6
CONTINUOUS
 10
2.101087
 20
-3.661933
  0
VERTEX
  8
PLAN_1
  6
CONTINUOUS
 10
2.097728
 20
-3.660492
  0
VERTEX
  8
PLAN_1
  6
CONTINUOUS
 10
2.094850
 20
-3.659055
  0
VERTEX
  8
PLAN_1
  6
CONTINUOUS
 10
2.091012
 20
-3.658094
  0
VERTEX
  8
PLAN_1
  6
CONTINUOUS
 10
2.083815
 20
-3.656654
  0
VERTEX
  8
PLAN_1
  6
CONTINUOUS
 10
2.075661
 20
-3.656654
  0
VERTEX
  8
PLAN_1
  6
CONTINUOUS
 10
2.020969
 20
-3.656654
  0
VERTEX
  8
PLAN_1
  6
CONTINUOUS
 10
2.020969
 20
-3.725740
  0
SEQEND
  8
0
  0
POLYLINE
  8
PLAN_1
  6
CONTINUOUS
 66
     1
 40
0.003000
 41
0.003000
  0
VERTEX
  8
PLAN_1
  6
CONTINUOUS
 10
2.296823
 20
-3.691677
  0
VERTEX
  8
PLAN_1
  6
CONTINUOUS
 10
2.296343
 20
-3.686398
  0
VERTEX
  8
PLAN_1
  6
CONTINUOUS
 10
2.294906
 20
-3.681122
  0
VERTEX
  8
PLAN_1
  6
CONTINUOUS
 10
2.293465
 20
-3.676323
  0
VERTEX
  8
PLAN_1
  6
CONTINUOUS
 10
2.291547
 20
-3.672484
  0
VERTEX
  8
PLAN_1
  6
CONTINUOUS
 10
2.289150
 20
-3.668650
  0
VERTEX
  8
PLAN_1
  6
CONTINUOUS
 10
2.286272
 20
-3.665291
  0
VERTEX
  8
PLAN_1
  6
CONTINUOUS
 10
2.283390
 20
-3.662413
  0
VERTEX
  8
PLAN_1
  6
CONTINUOUS
 10
2.280031
 20
-3.660012
  0
VERTEX
  8
PLAN_1
  6
CONTINUOUS
 10
2.276197
 20
-3.657614
  0
VERTEX
  8
PLAN_1
  6
CONTINUOUS
 10
2.272358
 20
-3.655697
  0
VERTEX
  8
PLAN_1
  6
CONTINUOUS
 10
2.268520
 20
-3.654256
  0
VERTEX
  8
PLAN_1
  6
CONTINUOUS
 10
2.264201
 20
-3.653295
  0
VERTEX
  8
PLAN_1
  6
CONTINUOUS
 10
2.259882
 20
-3.652339
  0
VERTEX
  8
PLAN_1
  6
CONTINUOUS
 10
2.256047
 20
-3.651858
  0
VERTEX
  8
PLAN_1
  6
CONTINUOUS
 10
2.251728
 20
-3.651378
  0
VERTEX
  8
PLAN_1
  6
CONTINUOUS
 10
2.247409
 20
-3.651378
  0
VERTEX
  8
PLAN_1
  6
CONTINUOUS
 10
2.240693
 20
-3.651378
  0
VERTEX
  8
PLAN_1
  6
CONTINUOUS
 10
2.233016
 20
-3.652339
  0
VERTEX
  8
PLAN_1
  6
CONTINUOUS
 10
2.229181
 20
-3.653295
  0
VERTEX
  8
PLAN_1
  6
CONTINUOUS
 10
2.225343
 20
-3.654256
  0
VERTEX
  8
PLAN_1
  6
CONTINUOUS
 10
2.221984
 20
-3.655697
  0
VERTEX
  8
PLAN_1
  6
CONTINUOUS
 10
2.218146
 20
-3.657134
  0
VERTEX
  8
PLAN_1
  6
CONTINUOUS
 10
2.214787
 20
-3.659531
  0
VERTEX
  8
PLAN_1
  6
CONTINUOUS
 10
2.211909
 20
-3.661933
  0
VERTEX
  8
PLAN_1
  6
CONTINUOUS
 10
2.209031
 20
-3.664811
  0
VERTEX
  8
PLAN_1
  6
CONTINUOUS
 10
2.206630
 20
-3.668169
  0
VERTEX
  8
PLAN_1
  6
CONTINUOUS
 10
2.204713
 20
-3.671528
  0
VERTEX
  8
PLAN_1
  6
CONTINUOUS
 10
2.203272
 20
-3.675843
  0
VERTEX
  8
PLAN_1
  6
CONTINUOUS
 10
2.202315
 20
-3.680642
  0
VERTEX
  8
PLAN_1
  6
CONTINUOUS
 10
2.201835
 20
-3.686398
  0
VERTEX
  8
PLAN_1
  6
CONTINUOUS
 10
2.201835
 20
-3.689276
  0
VERTEX
  8
PLAN_1
  6
CONTINUOUS
 10
2.202315
 20
-3.692157
  0
VERTEX
  8
PLAN_1
  6
CONTINUOUS
 10
2.202791
 20
-3.694555
  0
VERTEX
  8
PLAN_1
  6
CONTINUOUS
 10
2.203752
 20
-3.696953
  0
VERTEX
  8
PLAN_1
  6
CONTINUOUS
 10
2.204713
 20
-3.698874
  0
VERTEX
  8
PLAN_1
  6
CONTINUOUS
 10
2.206150
 20
-3.700791
  0
VERTEX
  8
PLAN_1
  6
CONTINUOUS
 10
2.207591
 20
-3.702709
  0
VERTEX
  8
PLAN_1
  6
CONTINUOUS
 10
2.209031
 20
-3.704150
  0
VERTEX
  8
PLAN_1
  6
CONTINUOUS
 10
2.212866
 20
-3.706547
  0
VERTEX
  8
PLAN_1
  6
CONTINUOUS
 10
2.216705
 20
-3.708469
  0
VERTEX
  8
PLAN_1
  6
CONTINUOUS
 10
2.221024
 20
-3.710386
  0
VERTEX
  8
PLAN_1
  6
CONTINUOUS
 10
2.225343
 20
-3.711346
  0
VERTEX
  8
PLAN_1
  6
CONTINUOUS
 10
2.282433
 20
-3.724299
  0
VERTEX
  8
PLAN_1
  6
CONTINUOUS
 10
2.287228
 20
-3.725740
  0
VERTEX
  8
PLAN_1
  6
CONTINUOUS
 10
2.291547
 20
-3.727177
  0
VERTEX
  8
PLAN_1
  6
CONTINUOUS
 10
2.295866
 20
-3.729098
  0
VERTEX
  8
PLAN_1
  6
CONTINUOUS
 10
2.300181
 20
-3.731016
  0
VERTEX
  8
PLAN_1
  6
CONTINUOUS
 10
2.304020
 20
-3.732933
  0
VERTEX
  8
PLAN_1
  6
CONTINUOUS
 10
2.307858
 20
-3.735815
  0
VERTEX
  8
PLAN_1
  6
CONTINUOUS
 10
2.311217
 20
-3.738693
  0
VERTEX
  8
PLAN_1
  6
CONTINUOUS
 10
2.314575
 20
-3.741571
  0
VERTEX
  8
PLAN_1
  6
CONTINUOUS
 10
2.317453
 20
-3.744929
  0
VERTEX
  8
PLAN_1
  6
CONTINUOUS
 10
2.319850
 20
-3.748768
  0
VERTEX
  8
PLAN_1
  6
CONTINUOUS
 10
2.322252
 20
-3.752606
  0
VERTEX
  8
PLAN_1
  6
CONTINUOUS
 10
2.324169
 20
-3.756921
  0
VERTEX
  8
PLAN_1
  6
CONTINUOUS
 10
2.325610
 20
-3.761720
  0
VERTEX
  8
PLAN_1
  6
CONTINUOUS
 10
2.326567
 20
-3.766516
  0
VERTEX
  8
PLAN_1
  6
CONTINUOUS
 10
2.327528
 20
-3.771795
  0
VERTEX
  8
PLAN_1
  6
CONTINUOUS
 10
2.327528
 20
-3.777551
  0
VERTEX
  8
PLAN_1
  6
CONTINUOUS
 10
2.327528
 20
-3.781870
  0
VERTEX
  8
PLAN_1
  6
CONTINUOUS
 10
2.327047
 20
-3.786185
  0
VERTEX
  8
PLAN_1
  6
CONTINUOUS
 10
2.326567
 20
-3.790024
  0
VERTEX
  8
PLAN_1
  6
CONTINUOUS
 10
2.325610
 20
-3.793862
  0
VERTEX
  8
PLAN_1
  6
CONTINUOUS
 10
2.324650
 20
-3.797701
  0
VERTEX
  8
PLAN_1
  6
CONTINUOUS
 10
2.323209
 20
-3.801059
  0
VERTEX
  8
PLAN_1
  6
CONTINUOUS
 10
2.321772
 20
-3.803937
  0
VERTEX
  8
PLAN_1
  6
CONTINUOUS
 10
2.320331
 20
-3.807295
  0
VERTEX
  8
PLAN_1
  6
CONTINUOUS
 10
2.316492
 20
-3.812575
  0
VERTEX
  8
PLAN_1
  6
CONTINUOUS
 10
2.311697
 20
-3.817370
  0
VERTEX
  8
PLAN_1
  6
CONTINUOUS
 10
2.306898
 20
-3.821689
  0
VERTEX
  8
PLAN_1
  6
CONTINUOUS
 10
2.301142
 20
-3.825528
  0
VERTEX
  8
PLAN_1
  6
CONTINUOUS
 10
2.295386
 20
-3.828886
  0
VERTEX
  8
PLAN_1
  6
CONTINUOUS
 10
2.289150
 20
-3.831283
  0
VERTEX
  8
PLAN_1
  6
CONTINUOUS
 10
2.282913
 20
-3.833681
  0
VERTEX
  8
PLAN_1
  6
CONTINUOUS
 10
2.276197
 20
-3.835122
  0
VERTEX
  8
PLAN_1
  6
CONTINUOUS
 10
2.269480
 20
-3.836559
  0
VERTEX
  8
PLAN_1
  6
CONTINUOUS
 10
2.262764
 20
-3.837520
  0
VERTEX
  8
PLAN_1
  6
CONTINUOUS
 10
2.256047
 20
-3.838000
  0
VERTEX
  8
PLAN_1
  6
CONTINUOUS
 10
2.249331
 20
-3.838000
  0
VERTEX
  8
PLAN_1
  6
CONTINUOUS
 10
2.243091
 20
-3.838000
  0
VERTEX
  8
PLAN_1
  6
CONTINUOUS
 10
2.236854
 20
-3.837520
  0
VERTEX
  8
PLAN_1
  6
CONTINUOUS
 10
2.231098
 20
-3.837039
  0
VERTEX
  8
PLAN_1
  6
CONTINUOUS
 10
2.225823
 20
-3.836083
  0
VERTEX
  8
PLAN_1
  6
CONTINUOUS
 10
2.216705
 20
-3.834161
  0
VERTEX
  8
PLAN_1
  6
CONTINUOUS
 10
2.209031
 20
-3.831283
  0
VERTEX
  8
PLAN_1
  6
CONTINUOUS
 10
2.202315
 20
-3.828406
  0
VERTEX
  8
PLAN_1
  6
CONTINUOUS
 10
2.197035
 20
-3.825047
  0
VERTEX
  8
PLAN_1
  6
CONTINUOUS
 10
2.192717
 20
-3.822169
  0
VERTEX
  8
PLAN_1
  6
CONTINUOUS
 10
2.189358
 20
-3.818811
  0
VERTEX
  8
PLAN_1
  6
CONTINUOUS
 10
2.186480
 20
-3.815933
  0
VERTEX
  8
PLAN_1
  6
CONTINUOUS
 10
2.183602
 20
-3.813051
  0
VERTEX
  8
PLAN_1
  6
CONTINUOUS
 10
2.181205
 20
-3.810173
  0
VERTEX
  8
PLAN_1
  6
CONTINUOUS
 10
2.178807
 20
-3.807295
  0
VERTEX
  8
PLAN_1
  6
CONTINUOUS
 10
2.175449
 20
-3.801059
  0
VERTEX
  8
PLAN_1
  6
CONTINUOUS
 10
2.173047
 20
-3.794823
  0
VERTEX
  8
PLAN_1
  6
CONTINUOUS
 10
2.171130
 20
-3.788587
  0
VERTEX
  8
PLAN_1
  6
CONTINUOUS
 10
2.169689
 20
-3.781870
  0
VERTEX
  8
PLAN_1
  6
CONTINUOUS
 10
2.169213
 20
-3.775154
  0
VERTEX
  8
PLAN_1
  6
CONTINUOUS
 10
2.169213
 20
-3.768437
  0
VERTEX
  8
PLAN_1
  6
CONTINUOUS
 10
2.194157
 20
-3.768437
  0
VERTEX
  8
PLAN_1
  6
CONTINUOUS
 10
2.194638
 20
-3.774673
  0
VERTEX
  8
PLAN_1
  6
CONTINUOUS
 10
2.195598
 20
-3.780909
  0
VERTEX
  8
PLAN_1
  6
CONTINUOUS
 10
2.197035
 20
-3.786185
  0
VERTEX
  8
PLAN_1
  6
CONTINUOUS
 10
2.199433
 20
-3.790984
  0
VERTEX
  8
PLAN_1
  6
CONTINUOUS
 10
2.201835
 20
-3.795303
  0
VERTEX
  8
PLAN_1
  6
CONTINUOUS
 10
2.204713
 20
-3.799142
  0
VERTEX
  8
PLAN_1
  6
CONTINUOUS
 10
2.208551
 20
-3.802500
  0
VERTEX
  8
PLAN_1
  6
CONTINUOUS
 10
2.212390
 20
-3.805378
  0
VERTEX
  8
PLAN_1
  6
CONTINUOUS
 10
2.216224
 20
-3.807776
  0
VERTEX
  8
PLAN_1
  6
CONTINUOUS
 10
2.220543
 20
-3.809693
  0
VERTEX
  8
PLAN_1
  6
CONTINUOUS
 10
2.225343
 20
-3.811614
  0
VERTEX
  8
PLAN_1
  6
CONTINUOUS
 10
2.229657
 20
-3.812575
  0
VERTEX
  8
PLAN_1
  6
CONTINUOUS
 10
2.234457
 20
-3.813531
  0
VERTEX
  8
PLAN_1
  6
CONTINUOUS
 10
2.239732
 20
-3.814492
  0
VERTEX
  8
PLAN_1
  6
CONTINUOUS
 10
2.244531
 20
-3.814972
  0
VERTEX
  8
PLAN_1
  6
CONTINUOUS
 10
2.249331
 20
-3.814972
  0
VERTEX
  8
PLAN_1
  6
CONTINUOUS
 10
2.257004
 20
-3.814492
  0
VERTEX
  8
PLAN_1
  6
CONTINUOUS
 10
2.265642
 20
-3.813531
  0
VERTEX
  8
PLAN_1
  6
CONTINUOUS
 10
2.269957
 20
-3.813051
  0
VERTEX
  8
PLAN_1
  6
CONTINUOUS
 10
2.274276
 20
-3.812094
  0
VERTEX
  8
PLAN_1
  6
CONTINUOUS
 10
2.278594
 20
-3.810654
  0
VERTEX
  8
PLAN_1
  6
CONTINUOUS
 10
2.282433
 20
-3.808736
  0
VERTEX
  8
PLAN_1
  6
CONTINUOUS
 10
2.286272
 20
-3.806815
  0
VERTEX
  8
PLAN_1
  6
CONTINUOUS
 10
2.290106
 20
-3.804417
  0
VERTEX
  8
PLAN_1
  6
CONTINUOUS
 10
2.293465
 20
-3.802020
  0
VERTEX
  8
PLAN_1
  6
CONTINUOUS
 10
2.295866
 20
-3.798661
  0
VERTEX
  8
PLAN_1
  6
CONTINUOUS
 10
2.298264
 20
-3.795303
  0
VERTEX
  8
PLAN_1
  6
CONTINUOUS
 10
2.300181
 20
-3.790984
  0
VERTEX
  8
PLAN_1
  6
CONTINUOUS
 10
2.301142
 20
-3.786665
  0
VERTEX
  8
PLAN_1
  6
CONTINUOUS
 10
2.301622
 20
-3.781390
  0
VERTEX
  8
PLAN_1
  6
CONTINUOUS
 10
2.301142
 20
-3.777551
  0
VERTEX
  8
PLAN_1
  6
CONTINUOUS
 10
2.301142
 20
-3.774193
  0
VERTEX
  8
PLAN_1
  6
CONTINUOUS
 10
2.300181
 20
-3.770835
  0
VERTEX
  8
PLAN_1
  6
CONTINUOUS
 10
2.299224
 20
-3.767957
  0
VERTEX
  8
PLAN_1
  6
CONTINUOUS
 10
2.298264
 20
-3.765559
  0
VERTEX
  8
PLAN_1
  6
CONTINUOUS
 10
2.296823
 20
-3.763157
  0
VERTEX
  8
PLAN_1
  6
CONTINUOUS
 10
2.294906
 20
-3.760760
  0
VERTEX
  8
PLAN_1
  6
CONTINUOUS
 10
2.292508
 20
-3.758843
  0
VERTEX
  8
PLAN_1
  6
CONTINUOUS
 10
2.289626
 20
-3.756921
  0
VERTEX
  8
PLAN_1
  6
CONTINUOUS
 10
2.286748
 20
-3.755004
  0
VERTEX
  8
PLAN_1
  6
CONTINUOUS
 10
2.283390
 20
-3.753563
  0
VERTEX
  8
PLAN_1
  6
CONTINUOUS
 10
2.279555
 20
-3.752126
  0
VERTEX
  8
PLAN_1
  6
CONTINUOUS
 10
2.269957
 20
-3.749248
  0
VERTEX
  8
PLAN_1
  6
CONTINUOUS
 10
2.258925
 20
-3.745890
  0
VERTEX
  8
PLAN_1
  6
CONTINUOUS
 10
2.218146
 20
-3.736772
  0
VERTEX
  8
PLAN_1
  6
CONTINUOUS
 10
2.212390
 20
-3.735335
  0
VERTEX
  8
PLAN_1
  6
CONTINUOUS
 10
2.206150
 20
-3.732933
  0
VERTEX
  8
PLAN_1
  6
CONTINUOUS
 10
2.202315
 20
-3.731496
  0
VERTEX
  8
PLAN_1
  6
CONTINUOUS
 10
2.198957
 20
-3.729575
  0
VERTEX
  8
PLAN_1
  6
CONTINUOUS
 10
2.195598
 20
-3.727657
  0
VERTEX
  8
PLAN_1
  6
CONTINUOUS
 10
2.192240
 20
-3.725260
  0
VERTEX
  8
PLAN_1
  6
CONTINUOUS
 10
2.188882
 20
-3.722382
  0
VERTEX
  8
PLAN_1
  6
CONTINUOUS
 10
2.185524
 20
-3.719024
  0
VERTEX
  8
PLAN_1
  6
CONTINUOUS
 10
2.183122
 20
-3.715185
  0
VERTEX
  8
PLAN_1
  6
CONTINUOUS
 10
2.180724
 20
-3.711346
  0
VERTEX
  8
PLAN_1
  6
CONTINUOUS
 10
2.178327
 20
-3.706547
  0
VERTEX
  8
PLAN_1
  6
CONTINUOUS
 10
2.176886
 20
-3.701752
  0
VERTEX
  8
PLAN_1
  6
CONTINUOUS
 10
2.175929
 20
-3.695992
  0
VERTEX
  8
PLAN_1
  6
CONTINUOUS
 10
2.175929
 20
-3.689756
  0
VERTEX
  8
PLAN_1
  6
CONTINUOUS
 10
2.175929
 20
-3.684000
  0
VERTEX
  8
PLAN_1
  6
CONTINUOUS
 10
2.176886
 20
-3.678244
  0
VERTEX
  8
PLAN_1
  6
CONTINUOUS
 10
2.177846
 20
-3.672484
  0
VERTEX
  8
PLAN_1
  6
CONTINUOUS
 10
2.179764
 20
-3.667209
  0
VERTEX
  8
PLAN_1
  6
CONTINUOUS
 10
2.181685
 20
-3.661933
  0
VERTEX
  8
PLAN_1
  6
CONTINUOUS
 10
2.184563
 20
-3.656654
  0
VERTEX
  8
PLAN_1
  6
CONTINUOUS
 10
2.187921
 20
-3.651858
  0
VERTEX
  8
PLAN_1
  6
CONTINUOUS
 10
2.191760
 20
-3.647539
  0
VERTEX
  8
PLAN_1
  6
CONTINUOUS
 10
2.196075
 20
-3.643220
  0
VERTEX
  8
PLAN_1
  6
CONTINUOUS
 10
2.201354
 20
-3.639382
  0
VERTEX
  8
PLAN_1
  6
CONTINUOUS
 10
2.207110
 20
-3.636024
  0
VERTEX
  8
PLAN_1
  6
CONTINUOUS
 10
2.213346
 20
-3.633626
  0
VERTEX
  8
PLAN_1
  6
CONTINUOUS
 10
2.220063
 20
-3.631228
  0
VERTEX
  8
PLAN_1
  6
CONTINUOUS
 10
2.227260
 20
-3.629307
  0
VERTEX
  8
PLAN_1
  6
CONTINUOUS
 10
2.235417
 20
-3.628350
  0
VERTEX
  8
PLAN_1
  6
CONTINUOUS
 10
2.244051
 20
-3.628350
  0
VERTEX
  8
PLAN_1
  6
CONTINUOUS
 10
2.250768
 20
-3.628350
  0
VERTEX
  8
PLAN_1
  6
CONTINUOUS
 10
2.256524
 20
-3.628831
  0
VERTEX
  8
PLAN_1
  6
CONTINUOUS
 10
2.262283
 20
-3.629307
  0
VERTEX
  8
PLAN_1
  6
CONTINUOUS
 10
2.267559
 20
-3.629787
  0
VERTEX
  8
PLAN_1
  6
CONTINUOUS
 10
2.272358
 20
-3.630748
  0
VERTEX
  8
PLAN_1
  6
CONTINUOUS
 10
2.277154
 20
-3.632189
  0
VERTEX
  8
PLAN_1
  6
CONTINUOUS
 10
2.281472
 20
-3.633626
  0
VERTEX
  8
PLAN_1
  6
CONTINUOUS
 10
2.285791
 20
-3.635067
  0
VERTEX
  8
PLAN_1
  6
CONTINUOUS
 10
2.289626
 20
-3.636504
  0
VERTEX
  8
PLAN_1
  6
CONTINUOUS
 10
2.292984
 20
-3.638425
  0
VERTEX
  8
PLAN_1
  6
CONTINUOUS
 10
2.296343
 20
-3.640343
  0
VERTEX
  8
PLAN_1
  6
CONTINUOUS
 10
2.299224
 20
-3.642264
  0
VERTEX
  8
PLAN_1
  6
CONTINUOUS
 10
2.304500
 20
-3.647059
  0
VERTEX
  8
PLAN_1
  6
CONTINUOUS
 10
2.308819
 20
-3.651858
  0
VERTEX
  8
PLAN_1
  6
CONTINUOUS
 10
2.312177
 20
-3.656654
  0
VERTEX
  8
PLAN_1
  6
CONTINUOUS
 10
2.315055
 20
-3.661933
  0
VERTEX
  8
PLAN_1
  6
CONTINUOUS
 10
2.317453
 20
-3.667209
  0
VERTEX
  8
PLAN_1
  6
CONTINUOUS
 10
2.319374
 20
-3.672484
  0
VERTEX
  8
PLAN_1
  6
CONTINUOUS
 10
2.320331
 20
-3.677764
  0
VERTEX
  8
PLAN_1
  6
CONTINUOUS
 10
2.321291
 20
-3.682559
  0
VERTEX
  8
PLAN_1
  6
CONTINUOUS
 10
2.321772
 20
-3.687358
  0
VERTEX
  8
PLAN_1
  6
CONTINUOUS
 10
2.321772
 20
-3.691677
  0
VERTEX
  8
PLAN_1
  6
CONTINUOUS
 10
2.296823
 20
-3.691677
  0
SEQEND
  8
0
  0
POLYLINE
  8
PLAN_1
  6
CONTINUOUS
 66
     1
 40
0.008154
 41
0.008154
  0
VERTEX
  8
PLAN_1
  6
CONTINUOUS
 10
-1.156898
 20
0.018709
  0
VERTEX
  8
PLAN_1
  6
CONTINUOUS
 10
-1.156898
 20
2.599287
  0
VERTEX
  8
PLAN_1
  6
CONTINUOUS
 10
-2.254083
 20
2.599287
  0
VERTEX
  8
PLAN_1
  6
CONTINUOUS
 10
-2.254083
 20
0.018709
  0
VERTEX
  8
PLAN_1
  6
CONTINUOUS
 10
-1.156898
 20
0.018709
  0
SEQEND
  8
0
  0
POLYLINE
  8
PLAN_1
  6
CONTINUOUS
 66
     1
 40
0.008154
 41
0.008154
  0
VERTEX
  8
PLAN_1
  6
CONTINUOUS
 10
-2.199874
 20
0.283051
  0
VERTEX
  8
PLAN_1
  6
CONTINUOUS
 10
-2.199874
 20
2.153118
  0
VERTEX
  8
PLAN_1
  6
CONTINUOUS
 10
-2.253606
 20
2.153118
  0
VERTEX
  8
PLAN_1
  6
CONTINUOUS
 10
-2.253606
 20
0.283051
  0
VERTEX
  8
PLAN_1
  6
CONTINUOUS
 10
-2.199874
 20
0.283051
  0
SEQEND
  8
0
  0
POLYLINE
  8
PLAN_1
  6
CONTINUOUS
 66
     1
 40
0.008154
 41
0.008154
  0
VERTEX
  8
PLAN_1
  6
CONTINUOUS
 10
-2.146142
 20
0.283051
  0
VERTEX
  8
PLAN_1
  6
CONTINUOUS
 10
-2.146142
 20
1.868626
  0
VERTEX
  8
PLAN_1
  6
CONTINUOUS
 10
-2.199874
 20
1.868626
  0
VERTEX
  8
PLAN_1
  6
CONTINUOUS
 10
-2.199874
 20
0.283051
  0
VERTEX
  8
PLAN_1
  6
CONTINUOUS
 10
-2.146142
 20
0.283051
  0
SEQEND
  8
0
  0
POLYLINE
  8
PLAN_1
  6
CONTINUOUS
 66
     1
 40
0.008154
 41
0.008154
  0
VERTEX
  8
PLAN_1
  6
CONTINUOUS
 10
-2.254083
 20
2.153118
  0
VERTEX
  8
PLAN_1
  6
CONTINUOUS
 10
-1.360311
 20
2.153118
  0
VERTEX
  8
PLAN_1
  6
CONTINUOUS
 10
-1.360311
 20
2.599287
  0
SEQEND
  8
0
  0
POLYLINE
  8
PLAN_1
  6
CONTINUOUS
 66
     1
 40
0.008154
 41
0.008154
  0
VERTEX
  8
PLAN_1
  6
CONTINUOUS
 10
-2.253606
 20
1.831685
  0
VERTEX
  8
PLAN_1
  6
CONTINUOUS
 10
-2.253606
 20
2.055248
  0
VERTEX
  8
PLAN_1
  6
CONTINUOUS
 10
-2.334681
 20
2.055248
  0
VERTEX
  8
PLAN_1
  6
CONTINUOUS
 10
-2.334681
 20
1.831685
  0
VERTEX
  8
PLAN_1
  6
CONTINUOUS
 10
-2.253606
 20
1.831685
  0
SEQEND
  8
0
  0
POLYLINE
  8
PLAN_1
  6
CONTINUOUS
 66
     1
 40
0.008154
 41
0.008154
  0
VERTEX
  8
PLAN_1
  6
CONTINUOUS
 10
-1.218303
 20
-0.042217
  0
VERTEX
  8
PLAN_1
  6
CONTINUOUS
 10
-1.218303
 20
0.018709
  0
VERTEX
  8
PLAN_1
  6
CONTINUOUS
 10
-2.112079
 20
0.018709
  0
VERTEX
  8
PLAN_1
  6
CONTINUOUS
 10
-2.112079
 20
-0.042217
  0
VERTEX
  8
PLAN_1
  6
CONTINUOUS
 10
-1.218303
 20
-0.042217
  0
SEQEND
  8
0
  0
POLYLINE
  8
PLAN_1
  6
CONTINUOUS
 66
     1
 40
0.008154
 41
0.008154
  0
VERTEX
  8
PLAN_1
  6
CONTINUOUS
 10
-1.651996
 20
0.220685
  0
VERTEX
  8
PLAN_1
  6
CONTINUOUS
 10
-1.630890
 20
0.221165
  0
VERTEX
  8
PLAN_1
  6
CONTINUOUS
 10
-1.610260
 20
0.222602
  0
VERTEX
  8
PLAN_1
  6
CONTINUOUS
 10
-1.590110
 20
0.225484
  0
VERTEX
  8
PLAN_1
  6
CONTINUOUS
 10
-1.569961
 20
0.228843
  0
VERTEX
  8
PLAN_1
  6
CONTINUOUS
 10
-1.550291
 20
0.233638
  0
VERTEX
  8
PLAN_1
  6
CONTINUOUS
 10
-1.531102
 20
0.238917
  0
VERTEX
  8
PLAN_1
  6
CONTINUOUS
 10
-1.511909
 20
0.245634
  0
VERTEX
  8
PLAN_1
  6
CONTINUOUS
 10
-1.493681
 20
0.252827
  0
VERTEX
  8
PLAN_1
  6
CONTINUOUS
 10
-1.475449
 20
0.260984
  0
VERTEX
  8
PLAN_1
  6
CONTINUOUS
 10
-1.458177
 20
0.269618
  0
VERTEX
  8
PLAN_1
  6
CONTINUOUS
 10
-1.440909
 20
0.279693
  0
VERTEX
  8
PLAN_1
  6
CONTINUOUS
 10
-1.424598
 20
0.290248
  0
VERTEX
  8
PLAN_1
  6
CONTINUOUS
 10
-1.408764
 20
0.301283
  0
VERTEX
  8
PLAN_1
  6
CONTINUOUS
 10
-1.393413
 20
0.313756
  0
VERTEX
  8
PLAN_1
  6
CONTINUOUS
 10
-1.378539
 20
0.326228
  0
VERTEX
  8
PLAN_1
  6
CONTINUOUS
 10
-1.364626
 20
0.339661
  0
VERTEX
  8
PLAN_1
  6
CONTINUOUS
 10
-1.351193
 20
0.354055
  0
VERTEX
  8
PLAN_1
  6
CONTINUOUS
 10
-1.338240
 20
0.368449
  0
VERTEX
  8
PLAN_1
  6
CONTINUOUS
 10
-1.326248
 20
0.383799
  0
VERTEX
  8
PLAN_1
  6
CONTINUOUS
 10
-1.314732
 20
0.400110
  0
VERTEX
  8
PLAN_1
  6
CONTINUOUS
 10
-1.304181
 20
0.416421
  0
VERTEX
  8
PLAN_1
  6
CONTINUOUS
 10
-1.294583
 20
0.433213
  0
VERTEX
  8
PLAN_1
  6
CONTINUOUS
 10
-1.285469
 20
0.450965
  0
VERTEX
  8
PLAN_1
  6
CONTINUOUS
 10
-1.277315
 20
0.468717
  0
VERTEX
  8
PLAN_1
  6
CONTINUOUS
 10
-1.270118
 20
0.487425
  0
VERTEX
  8
PLAN_1
  6
CONTINUOUS
 10
-1.263882
 20
0.506138
  0
VERTEX
  8
PLAN_1
  6
CONTINUOUS
 10
-1.258122
 20
0.525327
  0
VERTEX
  8
PLAN_1
  6
CONTINUOUS
 10
-1.253807
 20
0.544996
  0
VERTEX
  8
PLAN_1
  6
CONTINUOUS
 10
-1.249969
 20
0.565146
  0
VERTEX
  8
PLAN_1
  6
CONTINUOUS
 10
-1.247567
 20
0.585776
  0
VERTEX
  8
PLAN_1
  6
CONTINUOUS
 10
-1.246130
 20
0.606406
  0
VERTEX
  8
PLAN_1
  6
CONTINUOUS
 10
-1.245650
 20
0.627031
  0
VERTEX
  8
PLAN_1
  6
CONTINUOUS
 10
-1.246130
 20
0.648142
  0
VERTEX
  8
PLAN_1
  6
CONTINUOUS
 10
-1.247567
 20
0.668772
  0
VERTEX
  8
PLAN_1
  6
CONTINUOUS
 10
-1.249969
 20
0.688921
  0
VERTEX
  8
PLAN_1
  6
CONTINUOUS
 10
-1.253807
 20
0.709071
  0
VERTEX
  8
PLAN_1
  6
CONTINUOUS
 10
-1.258122
 20
0.728740
  0
VERTEX
  8
PLAN_1
  6
CONTINUOUS
 10
-1.263882
 20
0.747929
  0
VERTEX
  8
PLAN_1
  6
CONTINUOUS
 10
-1.270118
 20
0.766642
  0
VERTEX
  8
PLAN_1
  6
CONTINUOUS
 10
-1.277315
 20
0.785350
  0
VERTEX
  8
PLAN_1
  6
CONTINUOUS
 10
-1.285469
 20
0.803102
  0
VERTEX
  8
PLAN_1
  6
CONTINUOUS
 10
-1.294583
 20
0.820850
  0
VERTEX
  8
PLAN_1
  6
CONTINUOUS
 10
-1.304181
 20
0.837642
  0
VERTEX
  8
PLAN_1
  6
CONTINUOUS
 10
-1.314732
 20
0.854433
  0
VERTEX
  8
PLAN_1
  6
CONTINUOUS
 10
-1.326248
 20
0.870268
  0
VERTEX
  8
PLAN_1
  6
CONTINUOUS
 10
-1.338240
 20
0.885618
  0
VERTEX
  8
PLAN_1
  6
CONTINUOUS
 10
-1.351193
 20
0.900492
  0
VERTEX
  8
PLAN_1
  6
CONTINUOUS
 10
-1.364626
 20
0.914402
  0
VERTEX
  8
PLAN_1
  6
CONTINUOUS
 10
-1.378539
 20
0.927835
  0
VERTEX
  8
PLAN_1
  6
CONTINUOUS
 10
-1.393413
 20
0.940791
  0
VERTEX
  8
PLAN_1
  6
CONTINUOUS
 10
-1.408764
 20
0.952783
  0
VERTEX
  8
PLAN_1
  6
CONTINUOUS
 10
-1.424598
 20
0.964299
  0
VERTEX
  8
PLAN_1
  6
CONTINUOUS
 10
-1.440909
 20
0.974850
  0
VERTEX
  8
PLAN_1
  6
CONTINUOUS
 10
-1.458177
 20
0.984449
  0
VERTEX
  8
PLAN_1
  6
CONTINUOUS
 10
-1.475449
 20
0.993563
  0
VERTEX
  8
PLAN_1
  6
CONTINUOUS
 10
-1.493681
 20
1.001717
  0
VERTEX
  8
PLAN_1
  6
CONTINUOUS
 10
-1.511909
 20
1.008913
  0
VERTEX
  8
PLAN_1
  6
CONTINUOUS
 10
-1.531102
 20
1.015150
  0
VERTEX
  8
PLAN_1
  6
CONTINUOUS
 10
-1.550291
 20
1.020429
  0
VERTEX
  8
PLAN_1
  6
CONTINUOUS
 10
-1.569961
 20
1.025224
  0
VERTEX
  8
PLAN_1
  6
CONTINUOUS
 10
-1.590110
 20
1.028583
  0
VERTEX
  8
PLAN_1
  6
CONTINUOUS
 10
-1.610260
 20
1.031461
  0
VERTEX
  8
PLAN_1
  6
CONTINUOUS
 10
-1.630890
 20
1.032902
  0
VERTEX
  8
PLAN_1
  6
CONTINUOUS
 10
-1.651996
 20
1.033382
  0
VERTEX
  8
PLAN_1
  6
CONTINUOUS
 10
-1.672626
 20
1.032902
  0
VERTEX
  8
PLAN_1
  6
CONTINUOUS
 10
-1.693256
 20
1.031461
  0
VERTEX
  8
PLAN_1
  6
CONTINUOUS
 10
-1.713886
 20
1.028583
  0
VERTEX
  8
PLAN_1
  6
CONTINUOUS
 10
-1.733555
 20
1.025224
  0
VERTEX
  8
PLAN_1
  6
CONTINUOUS
 10
-1.753224
 20
1.020429
  0
VERTEX
  8
PLAN_1
  6
CONTINUOUS
 10
-1.772413
 20
1.015150
  0
VERTEX
  8
PLAN_1
  6
CONTINUOUS
 10
-1.791606
 20
1.008913
  0
VERTEX
  8
PLAN_1
  6
CONTINUOUS
 10
-1.809835
 20
1.001717
  0
VERTEX
  8
PLAN_1
  6
CONTINUOUS
 10
-1.828067
 20
0.993563
  0
VERTEX
  8
PLAN_1
  6
CONTINUOUS
 10
-1.845339
 20
0.984449
  0
VERTEX
  8
PLAN_1
  6
CONTINUOUS
 10
-1.862606
 20
0.974850
  0
VERTEX
  8
PLAN_1
  6
CONTINUOUS
 10
-1.878921
 20
0.964299
  0
VERTEX
  8
PLAN_1
  6
CONTINUOUS
 10
-1.894752
 20
0.952783
  0
VERTEX
  8
PLAN_1
  6
CONTINUOUS
 10
-1.910102
 20
0.940791
  0
VERTEX
  8
PLAN_1
  6
CONTINUOUS
 10
-1.924976
 20
0.927835
  0
VERTEX
  8
PLAN_1
  6
CONTINUOUS
 10
-1.939370
 20
0.914402
  0
VERTEX
  8
PLAN_1
  6
CONTINUOUS
 10
-1.952803
 20
0.900492
  0
VERTEX
  8
PLAN_1
  6
CONTINUOUS
 10
-1.965276
 20
0.885618
  0
VERTEX
  8
PLAN_1
  6
CONTINUOUS
 10
-1.977268
 20
0.870268
  0
VERTEX
  8
PLAN_1
  6
CONTINUOUS
 10
-1.988783
 20
0.854433
  0
VERTEX
  8
PLAN_1
  6
CONTINUOUS
 10
-1.999339
 20
0.837642
  0
VERTEX
  8
PLAN_1
  6
CONTINUOUS
 10
-2.008933
 20
0.820850
  0
VERTEX
  8
PLAN_1
  6
CONTINUOUS
 10
-2.018047
 20
0.803102
  0
VERTEX
  8
PLAN_1
  6
CONTINUOUS
 10
-2.026205
 20
0.785350
  0
VERTEX
  8
PLAN_1
  6
CONTINUOUS
 10
-2.033398
 20
0.766642
  0
VERTEX
  8
PLAN_1
  6
CONTINUOUS
 10
-2.040114
 20
0.747929
  0
VERTEX
  8
PLAN_1
  6
CONTINUOUS
 10
-2.045394
 20
0.728740
  0
VERTEX
  8
PLAN_1
  6
CONTINUOUS
 10
-2.049713
 20
0.709071
  0
VERTEX
  8
PLAN_1
  6
CONTINUOUS
 10
-2.053547
 20
0.688921
  0
VERTEX
  8
PLAN_1
  6
CONTINUOUS
 10
-2.055949
 20
0.668772
  0
VERTEX
  8
PLAN_1
  6
CONTINUOUS
 10
-2.057866
 20
0.648142
  0
VERTEX
  8
PLAN_1
  6
CONTINUOUS
 10
-2.058346
 20
0.627031
  0
VERTEX
  8
PLAN_1
  6
CONTINUOUS
 10
-2.057866
 20
0.606406
  0
VERTEX
  8
PLAN_1
  6
CONTINUOUS
 10
-2.055949
 20
0.585776
  0
VERTEX
  8
PLAN_1
  6
CONTINUOUS
 10
-2.053547
 20
0.565146
  0
VERTEX
  8
PLAN_1
  6
CONTINUOUS
 10
-2.049713
 20
0.544996
  0
VERTEX
  8
PLAN_1
  6
CONTINUOUS
 10
-2.045394
 20
0.525327
  0
VERTEX
  8
PLAN_1
  6
CONTINUOUS
 10
-2.040114
 20
0.506138
  0
VERTEX
  8
PLAN_1
  6
CONTINUOUS
 10
-2.033398
 20
0.487425
  0
VERTEX
  8
PLAN_1
  6
CONTINUOUS
 10
-2.026205
 20
0.468717
  0
VERTEX
  8
PLAN_1
  6
CONTINUOUS
 10
-2.018047
 20
0.450965
  0
VERTEX
  8
PLAN_1
  6
CONTINUOUS
 10
-2.008933
 20
0.433213
  0
VERTEX
  8
PLAN_1
  6
CONTINUOUS
 10
-1.999339
 20
0.416421
  0
VERTEX
  8
PLAN_1
  6
CONTINUOUS
 10
-1.988783
 20
0.400110
  0
VERTEX
  8
PLAN_1
  6
CONTINUOUS
 10
-1.977268
 20
0.383799
  0
VERTEX
  8
PLAN_1
  6
CONTINUOUS
 10
-1.965276
 20
0.368449
  0
VERTEX
  8
PLAN_1
  6
CONTINUOUS
 10
-1.952803
 20
0.354055
  0
VERTEX
  8
PLAN_1
  6
CONTINUOUS
 10
-1.939370
 20
0.339661
  0
VERTEX
  8
PLAN_1
  6
CONTINUOUS
 10
-1.924976
 20
0.326228
  0
VERTEX
  8
PLAN_1
  6
CONTINUOUS
 10
-1.910102
 20
0.313756
  0
VERTEX
  8
PLAN_1
  6
CONTINUOUS
 10
-1.894752
 20
0.301283
  0
VERTEX
  8
PLAN_1
  6
CONTINUOUS
 10
-1.878921
 20
0.290248
  0
VERTEX
  8
PLAN_1
  6
CONTINUOUS
 10
-1.862606
 20
0.279693
  0
VERTEX
  8
PLAN_1
  6
CONTINUOUS
 10
-1.845339
 20
0.269618
  0
VERTEX
  8
PLAN_1
  6
CONTINUOUS
 10
-1.828067
 20
0.260984
  0
VERTEX
  8
PLAN_1
  6
CONTINUOUS
 10
-1.809835
 20
0.252827
  0
VERTEX
  8
PLAN_1
  6
CONTINUOUS
 10
-1.791606
 20
0.245634
  0
VERTEX
  8
PLAN_1
  6
CONTINUOUS
 10
-1.772413
 20
0.238917
  0
VERTEX
  8
PLAN_1
  6
CONTINUOUS
 10
-1.753224
 20
0.233638
  0
VERTEX
  8
PLAN_1
  6
CONTINUOUS
 10
-1.733555
 20
0.228843
  0
VERTEX
  8
PLAN_1
  6
CONTINUOUS
 10
-1.713886
 20
0.225484
  0
VERTEX
  8
PLAN_1
  6
CONTINUOUS
 10
-1.693256
 20
0.222602
  0
VERTEX
  8
PLAN_1
  6
CONTINUOUS
 10
-1.672626
 20
0.221165
  0
VERTEX
  8
PLAN_1
  6
CONTINUOUS
 10
-1.651996
 20
0.220685
  0
SEQEND
  8
0
  0
POLYLINE
  8
PLAN_1
  6
CONTINUOUS
 66
     1
 40
0.008154
 41
0.008154
  0
VERTEX
  8
PLAN_1
  6
CONTINUOUS
 10
-1.976787
 20
0.596807
  0
VERTEX
  8
PLAN_1
  6
CONTINUOUS
 10
-1.976787
 20
0.657736
  0
VERTEX
  8
PLAN_1
  6
CONTINUOUS
 10
-1.682220
 20
0.657736
  0
VERTEX
  8
PLAN_1
  6
CONTINUOUS
 10
-1.682220
 20
0.952303
  0
VERTEX
  8
PLAN_1
  6
CONTINUOUS
 10
-1.621295
 20
0.952303
  0
VERTEX
  8
PLAN_1
  6
CONTINUOUS
 10
-1.621295
 20
0.657736
  0
VERTEX
  8
PLAN_1
  6
CONTINUOUS
 10
-1.326728
 20
0.657736
  0
VERTEX
  8
PLAN_1
  6
CONTINUOUS
 10
-1.326728
 20
0.596807
  0
VERTEX
  8
PLAN_1
  6
CONTINUOUS
 10
-1.621295
 20
0.596807
  0
VERTEX
  8
PLAN_1
  6
CONTINUOUS
 10
-1.621295
 20
0.302244
  0
VERTEX
  8
PLAN_1
  6
CONTINUOUS
 10
-1.682220
 20
0.302244
  0
VERTEX
  8
PLAN_1
  6
CONTINUOUS
 10
-1.682220
 20
0.596807
  0
VERTEX
  8
PLAN_1
  6
CONTINUOUS
 10
-1.976787
 20
0.596807
  0
SEQEND
  8
0
  0
POLYLINE
  8
PLAN_1
  6
CONTINUOUS
 66
     1
 40
0.008154
 41
0.008154
  0
VERTEX
  8
PLAN_1
  6
CONTINUOUS
 10
-1.928815
 20
2.193898
  0
VERTEX
  8
PLAN_1
  6
CONTINUOUS
 10
-1.928815
 20
2.417461
  0
VERTEX
  8
PLAN_1
  6
CONTINUOUS
 10
-2.212827
 20
2.417461
  0
VERTEX
  8
PLAN_1
  6
CONTINUOUS
 10
-2.212827
 20
2.193898
  0
VERTEX
  8
PLAN_1
  6
CONTINUOUS
 10
-1.928815
 20
2.193898
  0
SEQEND
  8
0
  0
POLYLINE
  8
PLAN_1
  6
CONTINUOUS
 66
     1
 40
0.008154
 41
0.008154
  0
VERTEX
  8
PLAN_1
  6
CONTINUOUS
 10
-1.156898
 20
2.599287
  0
VERTEX
  8
PLAN_1
  6
CONTINUOUS
 10
-1.156898
 20
2.924075
  0
VERTEX
  8
PLAN_1
  6
CONTINUOUS
 10
-2.254083
 20
2.924075
  0
VERTEX
  8
PLAN_1
  6
CONTINUOUS
 10
-2.254083
 20
2.599287
  0
VERTEX
  8
PLAN_1
  6
CONTINUOUS
 10
-1.156898
 20
2.599287
  0
SEQEND
  8
0
  0
POLYLINE
  8
PLAN_1
  6
CONTINUOUS
 66
     1
 40
0.008154
 41
0.008154
  0
VERTEX
  8
PLAN_1
  6
CONTINUOUS
 10
-1.299382
 20
2.989323
  0
VERTEX
  8
PLAN_1
  6
CONTINUOUS
 10
-1.299382
 20
3.026264
  0
VERTEX
  8
PLAN_1
  6
CONTINUOUS
 10
-1.350717
 20
3.235433
  0
SEQEND
  8
0
  0
POLYLINE
  8
PLAN_1
  6
CONTINUOUS
 66
     1
 40
0.008154
 41
0.008154
  0
VERTEX
  8
PLAN_1
  6
CONTINUOUS
 10
-1.350717
 20
3.235433
  0
VERTEX
  8
PLAN_1
  6
CONTINUOUS
 10
-1.351193
 20
3.238791
  0
VERTEX
  8
PLAN_1
  6
CONTINUOUS
 10
-1.351673
 20
3.242150
  0
VERTEX
  8
PLAN_1
  6
CONTINUOUS
 10
-1.352634
 20
3.245508
  0
VERTEX
  8
PLAN_1
  6
CONTINUOUS
 10
-1.353594
 20
3.248866
  0
VERTEX
  8
PLAN_1
  6
CONTINUOUS
 10
-1.355031
 20
3.251744
  0
VERTEX
  8
PLAN_1
  6
CONTINUOUS
 10
-1.356953
 20
3.254622
  0
VERTEX
  8
PLAN_1
  6
CONTINUOUS
 10
-1.358870
 20
3.257504
  0
VERTEX
  8
PLAN_1
  6
CONTINUOUS
 10
-1.361268
 20
3.259902
  0
VERTEX
  8
PLAN_1
  6
CONTINUOUS
 10
-1.363669
 20
3.262299
  0
VERTEX
  8
PLAN_1
  6
CONTINUOUS
 10
-1.366067
 20
3.264220
  0
VERTEX
  8
PLAN_1
  6
CONTINUOUS
 10
-1.368945
 20
3.266138
  0
VERTEX
  8
PLAN_1
  6
CONTINUOUS
 10
-1.372303
 20
3.267579
  0
VERTEX
  8
PLAN_1
  6
CONTINUOUS
 10
-1.375181
 20
3.268535
  0
VERTEX
  8
PLAN_1
  6
CONTINUOUS
 10
-1.378539
 20
3.269496
  0
VERTEX
  8
PLAN_1
  6
CONTINUOUS
 10
-1.382378
 20
3.269976
  0
VERTEX
  8
PLAN_1
  6
CONTINUOUS
 10
-1.385736
 20
3.269976
  0
SEQEND
  8
0
  0
POLYLINE
  8
PLAN_1
  6
CONTINUOUS
 66
     1
 40
0.008154
 41
0.008154
  0
VERTEX
  8
PLAN_1
  6
CONTINUOUS
 10
-1.385736
 20
3.269976
  0
VERTEX
  8
PLAN_1
  6
CONTINUOUS
 10
-2.024283
 20
3.269976
  0
SEQEND
  8
0
  0
POLYLINE
  8
PLAN_1
  6
CONTINUOUS
 66
     1
 40
0.008154
 41
0.008154
  0
VERTEX
  8
PLAN_1
  6
CONTINUOUS
 10
-2.024283
 20
3.269976
  0
VERTEX
  8
PLAN_1
  6
CONTINUOUS
 10
-2.030039
 20
3.269496
  0
VERTEX
  8
PLAN_1
  6
CONTINUOUS
 10
-2.035799
 20
3.268535
  0
VERTEX
  8
PLAN_1
  6
CONTINUOUS
 10
-2.040594
 20
3.266138
  0
VERTEX
  8
PLAN_1
  6
CONTINUOUS
 10
-2.045394
 20
3.263260
  0
VERTEX
  8
PLAN_1
  6
CONTINUOUS
 10
-2.049232
 20
3.259902
  0
VERTEX
  8
PLAN_1
  6
CONTINUOUS
 10
-2.052591
 20
3.255583
  0
VERTEX
  8
PLAN_1
  6
CONTINUOUS
 10
-2.055469
 20
3.251268
  0
VERTEX
  8
PLAN_1
  6
CONTINUOUS
 10
-2.057866
 20
3.245988
  0
SEQEND
  8
0
  0
POLYLINE
  8
PLAN_1
  6
CONTINUOUS
 66
     1
 40
0.008154
 41
0.008154
  0
VERTEX
  8
PLAN_1
  6
CONTINUOUS
 10
-2.057866
 20
3.245988
  0
VERTEX
  8
PLAN_1
  6
CONTINUOUS
 10
-2.112079
 20
3.026264
  0
VERTEX
  8
PLAN_1
  6
CONTINUOUS
 10
-2.112079
 20
2.987882
  0
SEQEND
  8
0
  0
POLYLINE
  8
PLAN_1
  6
CONTINUOUS
 66
     1
 40
0.008154
 41
0.008154
  0
VERTEX
  8
PLAN_1
  6
CONTINUOUS
 10
-1.502315
 20
3.513689
  0
VERTEX
  8
PLAN_1
  6
CONTINUOUS
 10
-1.511909
 20
3.521846
  0
VERTEX
  8
PLAN_1
  6
CONTINUOUS
 10
-1.521508
 20
3.529039
  0
VERTEX
  8
PLAN_1
  6
CONTINUOUS
 10
-1.532059
 20
3.536236
  0
VERTEX
  8
PLAN_1
  6
CONTINUOUS
 10
-1.543094
 20
3.542953
  0
VERTEX
  8
PLAN_1
  6
CONTINUOUS
 10
-1.554610
 20
3.549189
  0
VERTEX
  8
PLAN_1
  6
CONTINUOUS
 10
-1.566122
 20
3.554949
  0
VERTEX
  8
PLAN_1
  6
CONTINUOUS
 10
-1.578594
 20
3.560224
  0
VERTEX
  8
PLAN_1
  6
CONTINUOUS
 10
-1.591551
 20
3.565024
  0
VERTEX
  8
PLAN_1
  6
CONTINUOUS
 10
-1.604504
 20
3.569339
  0
VERTEX
  8
PLAN_1
  6
CONTINUOUS
 10
-1.617937
 20
3.572697
  0
VERTEX
  8
PLAN_1
  6
CONTINUOUS
 10
-1.631850
 20
3.576055
  0
VERTEX
  8
PLAN_1
  6
CONTINUOUS
 10
-1.646240
 20
3.578933
  0
VERTEX
  8
PLAN_1
  6
CONTINUOUS
 10
-1.660634
 20
3.580854
  0
VERTEX
  8
PLAN_1
  6
CONTINUOUS
 10
-1.675504
 20
3.582291
  0
VERTEX
  8
PLAN_1
  6
CONTINUOUS
 10
-1.690378
 20
3.583252
  0
VERTEX
  8
PLAN_1
  6
CONTINUOUS
 10
-1.705728
 20
3.583732
  0
VERTEX
  8
PLAN_1
  6
CONTINUOUS
 10
-1.720602
 20
3.583252
  0
VERTEX
  8
PLAN_1
  6
CONTINUOUS
 10
-1.735953
 20
3.582291
  0
VERTEX
  8
PLAN_1
  6
CONTINUOUS
 10
-1.750827
 20
3.580854
  0
VERTEX
  8
PLAN_1
  6
CONTINUOUS
 10
-1.765220
 20
3.578933
  0
VERTEX
  8
PLAN_1
  6
CONTINUOUS
 10
-1.779130
 20
3.576055
  0
VERTEX
  8
PLAN_1
  6
CONTINUOUS
 10
-1.793043
 20
3.572697
  0
VERTEX
  8
PLAN_1
  6
CONTINUOUS
 10
-1.806476
 20
3.568862
  0
VERTEX
  8
PLAN_1
  6
CONTINUOUS
 10
-1.819909
 20
3.565024
  0
VERTEX
  8
PLAN_1
  6
CONTINUOUS
 10
-1.832386
 20
3.559744
  0
VERTEX
  8
PLAN_1
  6
CONTINUOUS
 10
-1.844858
 20
3.554469
  0
VERTEX
  8
PLAN_1
  6
CONTINUOUS
 10
-1.856850
 20
3.548713
  0
VERTEX
  8
PLAN_1
  6
CONTINUOUS
 10
-1.868366
 20
3.542472
  0
VERTEX
  8
PLAN_1
  6
CONTINUOUS
 10
-1.879398
 20
3.536236
  0
VERTEX
  8
PLAN_1
  6
CONTINUOUS
 10
-1.889472
 20
3.529039
  0
VERTEX
  8
PLAN_1
  6
CONTINUOUS
 10
-1.899547
 20
3.521366
  0
VERTEX
  8
PLAN_1
  6
CONTINUOUS
 10
-1.909146
 20
3.513689
  0
SEQEND
  8
0
  0
POLYLINE
  8
PLAN_1
  6
CONTINUOUS
 66
     1
 40
0.008154
 41
0.008154
  0
VERTEX
  8
PLAN_1
  6
CONTINUOUS
 10
-1.909146
 20
3.513689
  0
VERTEX
  8
PLAN_1
  6
CONTINUOUS
 10
-1.908665
 20
3.269976
  0
VERTEX
  8
PLAN_1
  6
CONTINUOUS
 10
-1.502315
 20
3.269976
  0
VERTEX
  8
PLAN_1
  6
CONTINUOUS
 10
-1.502315
 20
3.513689
  0
SEQEND
  8
0
  0
POLYLINE
  8
PLAN_1
  6
CONTINUOUS
 66
     1
 40
0.008154
 41
0.008154
  0
VERTEX
  8
PLAN_1
  6
CONTINUOUS
 10
-2.030039
 20
2.985004
  0
VERTEX
  8
PLAN_1
  6
CONTINUOUS
 10
-2.030039
 20
2.924075
  0
VERTEX
  8
PLAN_1
  6
CONTINUOUS
 10
-2.253606
 20
2.924075
  0
VERTEX
  8
PLAN_1
  6
CONTINUOUS
 10
-2.253606
 20
2.985004
  0
VERTEX
  8
PLAN_1
  6
CONTINUOUS
 10
-2.162933
 20
2.987882
  0
VERTEX
  8
PLAN_1
  6
CONTINUOUS
 10
-2.162933
 20
2.953343
  0
VERTEX
  8
PLAN_1
  6
CONTINUOUS
 10
-2.120713
 20
2.953343
  0
VERTEX
  8
PLAN_1
  6
CONTINUOUS
 10
-2.120713
 20
2.987882
  0
VERTEX
  8
PLAN_1
  6
CONTINUOUS
 10
-2.030039
 20
2.985004
  0
SEQEND
  8
0
  0
POLYLINE
  8
PLAN_1
  6
CONTINUOUS
 66
     1
 40
0.008154
 41
0.008154
  0
VERTEX
  8
PLAN_1
  6
CONTINUOUS
 10
-1.157374
 20
2.985004
  0
VERTEX
  8
PLAN_1
  6
CONTINUOUS
 10
-1.157374
 20
2.924075
  0
VERTEX
  8
PLAN_1
  6
CONTINUOUS
 10
-1.380941
 20
2.924075
  0
VERTEX
  8
PLAN_1
  6
CONTINUOUS
 10
-1.380941
 20
2.985004
  0
VERTEX
  8
PLAN_1
  6
CONTINUOUS
 10
-1.290748
 20
2.987882
  0
VERTEX
  8
PLAN_1
  6
CONTINUOUS
 10
-1.290748
 20
2.953343
  0
VERTEX
  8
PLAN_1
  6
CONTINUOUS
 10
-1.248047
 20
2.953343
  0
VERTEX
  8
PLAN_1
  6
CONTINUOUS
 10
-1.248047
 20
2.987882
  0
VERTEX
  8
PLAN_1
  6
CONTINUOUS
 10
-1.157374
 20
2.985004
  0
SEQEND
  8
0
  0
POLYLINE
  8
PLAN_1
  6
CONTINUOUS
 66
     1
 40
0.008154
 41
0.008154
  0
VERTEX
  8
PLAN_1
  6
CONTINUOUS
 10
-2.213783
 20
2.598807
  0
VERTEX
  8
PLAN_1
  6
CONTINUOUS
 10
-2.213783
 20
2.679882
  0
VERTEX
  8
PLAN_1
  6
CONTINUOUS
 10
-2.254083
 20
2.680362
  0
SEQEND
  8
0
  0
POLYLINE
  8
PLAN_1
  6
CONTINUOUS
 66
     1
 40
0.008154
 41
0.008154
  0
VERTEX
  8
PLAN_1
  6
CONTINUOUS
 10
-1.199594
 20
2.598807
  0
VERTEX
  8
PLAN_1
  6
CONTINUOUS
 10
-1.199594
 20
2.679882
  0
VERTEX
  8
PLAN_1
  6
CONTINUOUS
 10
-1.158335
 20
2.680362
  0
SEQEND
  8
0
  0
POLYLINE
  8
PLAN_1
  6
CONTINUOUS
 66
     1
 40
0.008154
 41
0.008154
  0
VERTEX
  8
PLAN_1
  6
CONTINUOUS
 10
-1.502315
 20
3.514169
  0
VERTEX
  8
PLAN_1
  6
CONTINUOUS
 10
-1.908665
 20
3.514169
  0
SEQEND
  8
0
  0
POLYLINE
  8
PLAN_1
  6
CONTINUOUS
 66
     1
 40
0.008154
 41
0.008154
  0
VERTEX
  8
PLAN_1
  6
CONTINUOUS
 10
-1.299382
 20
3.026264
  0
VERTEX
  8
PLAN_1
  6
CONTINUOUS
 10
-2.112079
 20
3.026264
  0
SEQEND
  8
0
  0
POLYLINE
  8
PLAN_1
 62
     2
  6
CONTINUOUS
 66
     1
 40
0.004315
 41
0.004315
  0
VERTEX
  8
PLAN_1
 62
     2
  6
CONTINUOUS
 10
-1.675984
 20
3.741091
  0
VERTEX
  8
PLAN_1
 62
     2
  6
CONTINUOUS
 10
-1.186161
 20
3.741091
  0
SEQEND
  8
0
  0
SOLID
  8
PLAN_1
 62
     2
 10
-1.156898
 20
3.741091
 11
-1.215906
 21
3.756921
 12
-1.156898
 22
3.741091
 13
-1.215906
 23
3.725260
  0
POLYLINE
  8
PLAN_1
 62
     2
  6
CONTINUOUS
 66
     1
 40
0.003000
 41
0.003000
  0
VERTEX
  8
PLAN_1
 62
     2
  6
CONTINUOUS
 10
-1.156898
 20
3.741091
  0
VERTEX
  8
PLAN_1
 62
     2
  6
CONTINUOUS
 10
-1.215906
 20
3.756921
  0
VERTEX
  8
PLAN_1
 62
     2
  6
CONTINUOUS
 10
-1.215906
 20
3.725260
  0
VERTEX
  8
PLAN_1
 62
     2
  6
CONTINUOUS
 10
-1.156898
 20
3.741091
  0
SEQEND
  8
0
  0
SOLID
  8
PLAN_1
 62
     2
 10
-1.705728
 20
3.741091
 11
-1.646720
 21
3.756921
 12
-1.705728
 22
3.741091
 13
-1.646720
 23
3.725260
  0
POLYLINE
  8
PLAN_1
 62
     2
  6
CONTINUOUS
 66
     1
 40
0.003000
 41
0.003000
  0
VERTEX
  8
PLAN_1
 62
     2
  6
CONTINUOUS
 10
-1.705728
 20
3.741091
  0
VERTEX
  8
PLAN_1
 62
     2
  6
CONTINUOUS
 10
-1.646720
 20
3.756921
  0
VERTEX
  8
PLAN_1
 62
     2
  6
CONTINUOUS
 10
-1.646720
 20
3.725260
  0
VERTEX
  8
PLAN_1
 62
     2
  6
CONTINUOUS
 10
-1.705728
 20
3.741091
  0
SEQEND
  8
0
  0
POLYLINE
  8
PLAN_1
 62
     2
  6
CONTINUOUS
 66
     1
 40
0.003000
 41
0.003000
  0
VERTEX
  8
PLAN_1
 62
     2
  6
CONTINUOUS
 10
-1.451941
 20
3.765079
  0
VERTEX
  8
PLAN_1
 62
     2
  6
CONTINUOUS
 10
-1.461535
 20
3.765079
  0
VERTEX
  8
PLAN_1
 62
     2
  6
CONTINUOUS
 10
-1.461535
 20
3.816890
  0
VERTEX
  8
PLAN_1
 62
     2
  6
CONTINUOUS
 10
-1.478807
 20
3.816890
  0
VERTEX
  8
PLAN_1
 62
     2
  6
CONTINUOUS
 10
-1.478807
 20
3.824087
  0
VERTEX
  8
PLAN_1
 62
     2
  6
CONTINUOUS
 10
-1.474492
 20
3.824567
  0
VERTEX
  8
PLAN_1
 62
     2
  6
CONTINUOUS
 10
-1.471134
 20
3.825047
  0
VERTEX
  8
PLAN_1
 62
     2
  6
CONTINUOUS
 10
-1.467776
 20
3.825528
  0
VERTEX
  8
PLAN_1
 62
     2
  6
CONTINUOUS
 10
-1.465374
 20
3.826965
  0
VERTEX
  8
PLAN_1
 62
     2
  6
CONTINUOUS
 10
-1.463457
 20
3.828406
  0
VERTEX
  8
PLAN_1
 62
     2
  6
CONTINUOUS
 10
-1.461535
 20
3.830803
  0
VERTEX
  8
PLAN_1
 62
     2
  6
CONTINUOUS
 10
-1.460098
 20
3.834161
  0
VERTEX
  8
PLAN_1
 62
     2
  6
CONTINUOUS
 10
-1.459138
 20
3.838000
  0
VERTEX
  8
PLAN_1
 62
     2
  6
CONTINUOUS
 10
-1.451941
 20
3.838000
  0
VERTEX
  8
PLAN_1
 62
     2
  6
CONTINUOUS
 10
-1.451941
 20
3.765079
  0
SEQEND
  8
0
  0
POLYLINE
  8
PLAN_1
 62
     2
  6
CONTINUOUS
 66
     1
 40
0.003000
 41
0.003000
  0
VERTEX
  8
PLAN_1
 62
     2
  6
CONTINUOUS
 10
-1.387657
 20
3.782831
  0
VERTEX
  8
PLAN_1
 62
     2
  6
CONTINUOUS
 10
-1.387657
 20
3.765079
  0
VERTEX
  8
PLAN_1
 62
     2
  6
CONTINUOUS
 10
-1.396772
 20
3.765079
  0
VERTEX
  8
PLAN_1
 62
     2
  6
CONTINUOUS
 10
-1.396772
 20
3.782831
  0
VERTEX
  8
PLAN_1
 62
     2
  6
CONTINUOUS
 10
-1.428433
 20
3.782831
  0
VERTEX
  8
PLAN_1
 62
     2
  6
CONTINUOUS
 10
-1.428433
 20
3.791465
  0
VERTEX
  8
PLAN_1
 62
     2
  6
CONTINUOUS
 10
-1.395331
 20
3.838000
  0
VERTEX
  8
PLAN_1
 62
     2
  6
CONTINUOUS
 10
-1.387657
 20
3.838000
  0
VERTEX
  8
PLAN_1
 62
     2
  6
CONTINUOUS
 10
-1.387657
 20
3.790504
  0
VERTEX
  8
PLAN_1
 62
     2
  6
CONTINUOUS
 10
-1.376622
 20
3.790504
  0
VERTEX
  8
PLAN_1
 62
     2
  6
CONTINUOUS
 10
-1.376622
 20
3.782831
  0
VERTEX
  8
PLAN_1
 62
     2
  6
CONTINUOUS
 10
-1.387657
 20
3.782831
  0
SEQEND
  8
0
  0
SOLID
  8
PLAN_1
 62
     2
 10
-1.420280
 20
3.790504
 11
-1.396772
 21
3.790504
 12
-1.420280
 22
3.790504
 13
-1.396772
 23
3.823606
  0
POLYLINE
  8
PLAN_1
 62
     2
  6
CONTINUOUS
 66
     1
 40
0.003000
 41
0.003000
  0
VERTEX
  8
PLAN_1
 62
     2
  6
CONTINUOUS
 10
-1.420280
 20
3.790504
  0
VERTEX
  8
PLAN_1
 62
     2
  6
CONTINUOUS
 10
-1.396772
 20
3.790504
  0
VERTEX
  8
PLAN_1
 62
     2
  6
CONTINUOUS
 10
-1.396772
 20
3.823606
  0
VERTEX
  8
PLAN_1
 62
     2
  6
CONTINUOUS
 10
-1.420280
 20
3.790504
  0
SEQEND
  8
0
  0
POLYLINE
  8
PLAN_1
 62
     2
  6
CONTINUOUS
 66
     1
 40
0.004315
 41
0.004315
  0
VERTEX
  8
PLAN_1
 62
     2
  6
CONTINUOUS
 10
-1.705728
 20
3.607240
  0
VERTEX
  8
PLAN_1
 62
     2
  6
CONTINUOUS
 10
-1.705728
 20
3.765079
  0
SEQEND
  8
0
  0
POLYLINE
  8
PLAN_1
 62
     2
  6
CONTINUOUS
 66
     1
 40
0.004315
 41
0.004315
  0
VERTEX
  8
PLAN_1
 62
     2
  6
CONTINUOUS
 10
-1.156898
 20
3.607720
  0
VERTEX
  8
PLAN_1
 62
     2
  6
CONTINUOUS
 10
-1.156898
 20
3.765079
  0
SEQEND
  8
0
  0
POLYLINE
  8
PLAN_1
 62
     2
  6
CONTINUOUS
 66
     1
 40
0.004315
 41
0.004315
  0
VERTEX
  8
PLAN_1
 62
     2
  6
CONTINUOUS
 10
-1.156898
 20
3.008512
  0
VERTEX
  8
PLAN_1
 62
     2
  6
CONTINUOUS
 10
-1.156898
 20
3.560224
  0
SEQEND
  8
0
  0
POLYLINE
  8
PLAN_1
 62
     2
  6
CONTINUOUS
 66
     1
 40
0.004315
 41
0.004315
  0
VERTEX
  8
PLAN_1
 62
     2
  6
CONTINUOUS
 10
-2.305417
 20
-0.331508
  0
VERTEX
  8
PLAN_1
 62
     2
  6
CONTINUOUS
 10
-1.186161
 20
-0.331508
  0
SEQEND
  8
0
  0
SOLID
  8
PLAN_1
 62
     2
 10
-1.156898
 20
-0.331508
 11
-1.215906
 21
-0.315677
 12
-1.156898
 22
-0.331508
 13
-1.215906
 23
-0.347339
  0
POLYLINE
  8
PLAN_1
 62
     2
  6
CONTINUOUS
 66
     1
 40
0.003000
 41
0.003000
  0
VERTEX
  8
PLAN_1
 62
     2
  6
CONTINUOUS
 10
-1.156898
 20
-0.331508
  0
VERTEX
  8
PLAN_1
 62
     2
  6
CONTINUOUS
 10
-1.215906
 20
-0.315677
  0
VERTEX
  8
PLAN_1
 62
     2
  6
CONTINUOUS
 10
-1.215906
 20
-0.347339
  0
VERTEX
  8
PLAN_1
 62
     2
  6
CONTINUOUS
 10
-1.156898
 20
-0.331508
  0
SEQEND
  8
0
  0
SOLID
  8
PLAN_1
 62
     2
 10
-2.335161
 20
-0.331508
 11
-2.276154
 21
-0.315677
 12
-2.335161
 22
-0.331508
 13
-2.276154
 23
-0.347339
  0
POLYLINE
  8
PLAN_1
 62
     2
  6
CONTINUOUS
 66
     1
 40
0.003000
 41
0.003000
  0
VERTEX
  8
PLAN_1
 62
     2
  6
CONTINUOUS
 10
-2.335161
 20
-0.331508
  0
VERTEX
  8
PLAN_1
 62
     2
  6
CONTINUOUS
 10
-2.276154
 20
-0.315677
  0
VERTEX
  8
PLAN_1
 62
     2
  6
CONTINUOUS
 10
-2.276154
 20
-0.347339
  0
VERTEX
  8
PLAN_1
 62
     2
  6
CONTINUOUS
 10
-2.335161
 20
-0.331508
  0
SEQEND
  8
0
  0
POLYLINE
  8
PLAN_1
 62
     2
  6
CONTINUOUS
 66
     1
 40
0.003000
 41
0.003000
  0
VERTEX
  8
PLAN_1
 62
     2
  6
CONTINUOUS
 10
-1.780571
 20
-0.266260
  0
VERTEX
  8
PLAN_1
 62
     2
  6
CONTINUOUS
 10
-1.780091
 20
-0.266260
  0
VERTEX
  8
PLAN_1
 62
     2
  6
CONTINUOUS
 10
-1.779130
 20
-0.266260
  0
VERTEX
  8
PLAN_1
 62
     2
  6
CONTINUOUS
 10
-1.778654
 20
-0.266260
  0
VERTEX
  8
PLAN_1
 62
     2
  6
CONTINUOUS
 10
-1.778173
 20
-0.266260
  0
VERTEX
  8
PLAN_1
 62
     2
  6
CONTINUOUS
 10
-1.777693
 20
-0.266260
  0
VERTEX
  8
PLAN_1
 62
     2
  6
CONTINUOUS
 10
-1.776732
 20
-0.266740
  0
VERTEX
  8
PLAN_1
 62
     2
  6
CONTINUOUS
 10
-1.776252
 20
-0.266740
  0
VERTEX
  8
PLAN_1
 62
     2
  6
CONTINUOUS
 10
-1.775772
 20
-0.266740
  0
VERTEX
  8
PLAN_1
 62
     2
  6
CONTINUOUS
 10
-1.772894
 20
-0.266260
  0
VERTEX
  8
PLAN_1
 62
     2
  6
CONTINUOUS
 10
-1.770496
 20
-0.265780
  0
VERTEX
  8
PLAN_1
 62
     2
  6
CONTINUOUS
 10
-1.768098
 20
-0.265303
  0
VERTEX
  8
PLAN_1
 62
     2
  6
CONTINUOUS
 10
-1.766177
 20
-0.263862
  0
VERTEX
  8
PLAN_1
 62
     2
  6
CONTINUOUS
 10
-1.764260
 20
-0.262421
  0
VERTEX
  8
PLAN_1
 62
     2
  6
CONTINUOUS
 10
-1.762819
 20
-0.260504
  0
VERTEX
  8
PLAN_1
 62
     2
  6
CONTINUOUS
 10
-1.762339
 20
-0.257626
  0
VERTEX
  8
PLAN_1
 62
     2
  6
CONTINUOUS
 10
-1.761862
 20
-0.254748
  0
VERTEX
  8
PLAN_1
 62
     2
  6
CONTINUOUS
 10
-1.761862
 20
-0.252827
  0
VERTEX
  8
PLAN_1
 62
     2
  6
CONTINUOUS
 10
-1.762339
 20
-0.250909
  0
VERTEX
  8
PLAN_1
 62
     2
  6
CONTINUOUS
 10
-1.763299
 20
-0.248992
  0
VERTEX
  8
PLAN_1
 62
     2
  6
CONTINUOUS
 10
-1.764260
 20
-0.247071
  0
VERTEX
  8
PLAN_1
 62
     2
  6
CONTINUOUS
 10
-1.766177
 20
-0.245634
  0
VERTEX
  8
PLAN_1
 62
     2
  6
CONTINUOUS
 10
-1.768579
 20
-0.244193
  0
VERTEX
  8
PLAN_1
 62
     2
  6
CONTINUOUS
 10
-1.771457
 20
-0.243232
  0
VERTEX
  8
PLAN_1
 62
     2
  6
CONTINUOUS
 10
-1.775295
 20
-0.243232
  0
VERTEX
  8
PLAN_1
 62
     2
  6
CONTINUOUS
 10
-1.777693
 20
-0.243232
  0
VERTEX
  8
PLAN_1
 62
     2
  6
CONTINUOUS
 10
-1.779610
 20
-0.243713
  0
VERTEX
  8
PLAN_1
 62
     2
  6
CONTINUOUS
 10
-1.781531
 20
-0.244193
  0
VERTEX
  8
PLAN_1
 62
     2
  6
CONTINUOUS
 10
-1.782969
 20
-0.244673
  0
VERTEX
  8
PLAN_1
 62
     2
  6
CONTINUOUS
 10
-1.785370
 20
-0.246591
  0
VERTEX
  8
PLAN_1
 62
     2
  6
CONTINUOUS
 10
-1.787287
 20
-0.248992
  0
VERTEX
  8
PLAN_1
 62
     2
  6
CONTINUOUS
 10
-1.788248
 20
-0.251390
  0
VERTEX
  8
PLAN_1
 62
     2
  6
CONTINUOUS
 10
-1.789205
 20
-0.254268
  0
VERTEX
  8
PLAN_1
 62
     2
  6
CONTINUOUS
 10
-1.789205
 20
-0.256665
  0
VERTEX
  8
PLAN_1
 62
     2
  6
CONTINUOUS
 10
-1.789685
 20
-0.258587
  0
VERTEX
  8
PLAN_1
 62
     2
  6
CONTINUOUS
 10
-1.798323
 20
-0.258587
  0
VERTEX
  8
PLAN_1
 62
     2
  6
CONTINUOUS
 10
-1.798323
 20
-0.254748
  0
VERTEX
  8
PLAN_1
 62
     2
  6
CONTINUOUS
 10
-1.797362
 20
-0.250429
  0
VERTEX
  8
PLAN_1
 62
     2
  6
CONTINUOUS
 10
-1.795921
 20
-0.246591
  0
VERTEX
  8
PLAN_1
 62
     2
  6
CONTINUOUS
 10
-1.794004
 20
-0.242752
  0
VERTEX
  8
PLAN_1
 62
     2
  6
CONTINUOUS
 10
-1.792563
 20
-0.241315
  0
VERTEX
  8
PLAN_1
 62
     2
  6
CONTINUOUS
 10
-1.790646
 20
-0.239394
  0
VERTEX
  8
PLAN_1
 62
     2
  6
CONTINUOUS
 10
-1.788728
 20
-0.237957
  0
VERTEX
  8
PLAN_1
 62
     2
  6
CONTINUOUS
 10
-1.786807
 20
-0.236996
  0
VERTEX
  8
PLAN_1
 62
     2
  6
CONTINUOUS
 10
-1.784409
 20
-0.236035
  0
VERTEX
  8
PLAN_1
 62
     2
  6
CONTINUOUS
 10
-1.781531
 20
-0.235559
  0
VERTEX
  8
PLAN_1
 62
     2
  6
CONTINUOUS
 10
-1.778173
 20
-0.235079
  0
VERTEX
  8
PLAN_1
 62
     2
  6
CONTINUOUS
 10
-1.774815
 20
-0.234598
  0
VERTEX
  8
PLAN_1
 62
     2
  6
CONTINUOUS
 10
-1.770016
 20
-0.235079
  0
VERTEX
  8
PLAN_1
 62
     2
  6
CONTINUOUS
 10
-1.765220
 20
-0.236035
  0
VERTEX
  8
PLAN_1
 62
     2
  6
CONTINUOUS
 10
-1.761382
 20
-0.237957
  0
VERTEX
  8
PLAN_1
 62
     2
  6
CONTINUOUS
 10
-1.758504
 20
-0.240354
  0
VERTEX
  8
PLAN_1
 62
     2
  6
CONTINUOUS
 10
-1.755622
 20
-0.243232
  0
VERTEX
  8
PLAN_1
 62
     2
  6
CONTINUOUS
 10
-1.753705
 20
-0.246110
  0
VERTEX
  8
PLAN_1
 62
     2
  6
CONTINUOUS
 10
-1.752744
 20
-0.249949
  0
VERTEX
  8
PLAN_1
 62
     2
  6
CONTINUOUS
 10
-1.752268
 20
-0.254268
  0
VERTEX
  8
PLAN_1
 62
     2
  6
CONTINUOUS
 10
-1.752744
 20
-0.257146
  0
VERTEX
  8
PLAN_1
 62
     2
  6
CONTINUOUS
 10
-1.753224
 20
-0.260024
  0
VERTEX
  8
PLAN_1
 62
     2
  6
CONTINUOUS
 10
-1.754185
 20
-0.262421
  0
VERTEX
  8
PLAN_1
 62
     2
  6
CONTINUOUS
 10
-1.755622
 20
-0.264823
  0
VERTEX
  8
PLAN_1
 62
     2
  6
CONTINUOUS
 10
-1.757063
 20
-0.266260
  0
VERTEX
  8
PLAN_1
 62
     2
  6
CONTINUOUS
 10
-1.758504
 20
-0.267701
  0
VERTEX
  8
PLAN_1
 62
     2
  6
CONTINUOUS
 10
-1.759941
 20
-0.268661
  0
VERTEX
  8
PLAN_1
 62
     2
  6
CONTINUOUS
 10
-1.761862
 20
-0.269138
  0
VERTEX
  8
PLAN_1
 62
     2
  6
CONTINUOUS
 10
-1.758980
 20
-0.270098
  0
VERTEX
  8
PLAN_1
 62
     2
  6
CONTINUOUS
 10
-1.756583
 20
-0.271539
  0
VERTEX
  8
PLAN_1
 62
     2
  6
CONTINUOUS
 10
-1.754665
 20
-0.272976
  0
VERTEX
  8
PLAN_1
 62
     2
  6
CONTINUOUS
 10
-1.752744
 20
-0.274898
  0
VERTEX
  8
PLAN_1
 62
     2
  6
CONTINUOUS
 10
-1.751307
 20
-0.277295
  0
VERTEX
  8
PLAN_1
 62
     2
  6
CONTINUOUS
 10
-1.750346
 20
-0.280173
  0
VERTEX
  8
PLAN_1
 62
     2
  6
CONTINUOUS
 10
-1.749866
 20
-0.283051
  0
VERTEX
  8
PLAN_1
 62
     2
  6
CONTINUOUS
 10
-1.749386
 20
-0.286409
  0
VERTEX
  8
PLAN_1
 62
     2
  6
CONTINUOUS
 10
-1.749866
 20
-0.290728
  0
VERTEX
  8
PLAN_1
 62
     2
  6
CONTINUOUS
 10
-1.750827
 20
-0.295047
  0
VERTEX
  8
PLAN_1
 62
     2
  6
CONTINUOUS
 10
-1.752744
 20
-0.298886
  0
VERTEX
  8
PLAN_1
 62
     2
  6
CONTINUOUS
 10
-1.755622
 20
-0.302720
  0
VERTEX
  8
PLAN_1
 62
     2
  6
CONTINUOUS
 10
-1.757543
 20
-0.304161
  0
VERTEX
  8
PLAN_1
 62
     2
  6
CONTINUOUS
 10
-1.759461
 20
-0.305602
  0
VERTEX
  8
PLAN_1
 62
     2
  6
CONTINUOUS
 10
-1.761382
 20
-0.307039
  0
VERTEX
  8
PLAN_1
 62
     2
  6
CONTINUOUS
 10
-1.763780
 20
-0.308000
  0
VERTEX
  8
PLAN_1
 62
     2
  6
CONTINUOUS
 10
-1.766657
 20
-0.308961
  0
VERTEX
  8
PLAN_1
 62
     2
  6
CONTINUOUS
 10
-1.769535
 20
-0.309437
  0
VERTEX
  8
PLAN_1
 62
     2
  6
CONTINUOUS
 10
-1.772413
 20
-0.309917
  0
VERTEX
  8
PLAN_1
 62
     2
  6
CONTINUOUS
 10
-1.775772
 20
-0.309917
  0
VERTEX
  8
PLAN_1
 62
     2
  6
CONTINUOUS
 10
-1.777693
 20
-0.309917
  0
VERTEX
  8
PLAN_1
 62
     2
  6
CONTINUOUS
 10
-1.779610
 20
-0.309917
  0
VERTEX
  8
PLAN_1
 62
     2
  6
CONTINUOUS
 10
-1.781531
 20
-0.309437
  0
VERTEX
  8
PLAN_1
 62
     2
  6
CONTINUOUS
 10
-1.783449
 20
-0.308961
  0
VERTEX
  8
PLAN_1
 62
     2
  6
CONTINUOUS
 10
-1.784890
 20
-0.308480
  0
VERTEX
  8
PLAN_1
 62
     2
  6
CONTINUOUS
 10
-1.786327
 20
-0.308000
  0
VERTEX
  8
PLAN_1
 62
     2
  6
CONTINUOUS
 10
-1.787768
 20
-0.307520
  0
VERTEX
  8
PLAN_1
 62
     2
  6
CONTINUOUS
 10
-1.789205
 20
-0.306559
  0
VERTEX
  8
PLAN_1
 62
     2
  6
CONTINUOUS
 10
-1.792087
 20
-0.305122
  0
VERTEX
  8
PLAN_1
 62
     2
  6
CONTINUOUS
 10
-1.794484
 20
-0.302720
  0
VERTEX
  8
PLAN_1
 62
     2
  6
CONTINUOUS
 10
-1.796402
 20
-0.300323
  0
VERTEX
  8
PLAN_1
 62
     2
  6
CONTINUOUS
 10
-1.797843
 20
-0.297925
  0
VERTEX
  8
PLAN_1
 62
     2
  6
CONTINUOUS
 10
-1.798803
 20
-0.295047
  0
VERTEX
  8
PLAN_1
 62
     2
  6
CONTINUOUS
 10
-1.799280
 20
-0.291689
  0
VERTEX
  8
PLAN_1
 62
     2
  6
CONTINUOUS
 10
-1.799760
 20
-0.288811
  0
VERTEX
  8
PLAN_1
 62
     2
  6
CONTINUOUS
 10
-1.800240
 20
-0.285453
  0
VERTEX
  8
PLAN_1
 62
     2
  6
CONTINUOUS
 10
-1.790646
 20
-0.285453
  0
VERTEX
  8
PLAN_1
 62
     2
  6
CONTINUOUS
 10
-1.790646
 20
-0.288331
  0
VERTEX
  8
PLAN_1
 62
     2
  6
CONTINUOUS
 10
-1.790165
 20
-0.291209
  0
VERTEX
  8
PLAN_1
 62
     2
  6
CONTINUOUS
 10
-1.789205
 20
-0.293606
  0
VERTEX
  8
PLAN_1
 62
     2
  6
CONTINUOUS
 10
-1.788248
 20
-0.296004
  0
VERTEX
  8
PLAN_1
 62
     2
  6
CONTINUOUS
 10
-1.785846
 20
-0.298406
  0
VERTEX
  8
PLAN_1
 62
     2
  6
CONTINUOUS
 10
-1.783449
 20
-0.300323
  0
VERTEX
  8
PLAN_1
 62
     2
  6
CONTINUOUS
 10
-1.779610
 20
-0.301283
  0
VERTEX
  8
PLAN_1
 62
     2
  6
CONTINUOUS
 10
-1.775295
 20
-0.301764
  0
VERTEX
  8
PLAN_1
 62
     2
  6
CONTINUOUS
 10
-1.771937
 20
-0.301283
  0
VERTEX
  8
PLAN_1
 62
     2
  6
CONTINUOUS
 10
-1.768579
 20
-0.300803
  0
VERTEX
  8
PLAN_1
 62
     2
  6
CONTINUOUS
 10
-1.766177
 20
-0.299362
  0
VERTEX
  8
PLAN_1
 62
     2
  6
CONTINUOUS
 10
-1.763780
 20
-0.297925
  0
VERTEX
  8
PLAN_1
 62
     2
  6
CONTINUOUS
 10
-1.761862
 20
-0.295528
  0
VERTEX
  8
PLAN_1
 62
     2
  6
CONTINUOUS
 10
-1.760421
 20
-0.293126
  0
VERTEX
  8
PLAN_1
 62
     2
  6
CONTINUOUS
 10
-1.759461
 20
-0.290728
  0
VERTEX
  8
PLAN_1
 62
     2
  6
CONTINUOUS
 10
-1.759461
 20
-0.287370
  0
VERTEX
  8
PLAN_1
 62
     2
  6
CONTINUOUS
 10
-1.759461
 20
-0.285453
  0
VERTEX
  8
PLAN_1
 62
     2
  6
CONTINUOUS
 10
-1.759941
 20
-0.283531
  0
VERTEX
  8
PLAN_1
 62
     2
  6
CONTINUOUS
 10
-1.760421
 20
-0.281614
  0
VERTEX
  8
PLAN_1
 62
     2
  6
CONTINUOUS
 10
-1.760902
 20
-0.280173
  0
VERTEX
  8
PLAN_1
 62
     2
  6
CONTINUOUS
 10
-1.763299
 20
-0.277776
  0
VERTEX
  8
PLAN_1
 62
     2
  6
CONTINUOUS
 10
-1.765697
 20
-0.276335
  0
VERTEX
  8
PLAN_1
 62
     2
  6
CONTINUOUS
 10
-1.768098
 20
-0.275378
  0
VERTEX
  8
PLAN_1
 62
     2
  6
CONTINUOUS
 10
-1.770976
 20
-0.274417
  0
VERTEX
  8
PLAN_1
 62
     2
  6
CONTINUOUS
 10
-1.773854
 20
-0.274417
  0
VERTEX
  8
PLAN_1
 62
     2
  6
CONTINUOUS
 10
-1.776252
 20
-0.273937
  0
VERTEX
  8
PLAN_1
 62
     2
  6
CONTINUOUS
 10
-1.776732
 20
-0.273937
  0
VERTEX
  8
PLAN_1
 62
     2
  6
CONTINUOUS
 10
-1.777213
 20
-0.273937
  0
VERTEX
  8
PLAN_1
 62
     2
  6
CONTINUOUS
 10
-1.778173
 20
-0.273937
  0
VERTEX
  8
PLAN_1
 62
     2
  6
CONTINUOUS
 10
-1.778654
 20
-0.273937
  0
VERTEX
  8
PLAN_1
 62
     2
  6
CONTINUOUS
 10
-1.779130
 20
-0.274417
  0
VERTEX
  8
PLAN_1
 62
     2
  6
CONTINUOUS
 10
-1.779610
 20
-0.274417
  0
VERTEX
  8
PLAN_1
 62
     2
  6
CONTINUOUS
 10
-1.780091
 20
-0.274417
  0
VERTEX
  8
PLAN_1
 62
     2
  6
CONTINUOUS
 10
-1.780571
 20
-0.274417
  0
VERTEX
  8
PLAN_1
 62
     2
  6
CONTINUOUS
 10
-1.780571
 20
-0.266260
  0
SEQEND
  8
0
  0
POLYLINE
  8
PLAN_1
 62
     2
  6
CONTINUOUS
 66
     1
 40
0.003000
 41
0.003000
  0
VERTEX
  8
PLAN_1
 62
     2
  6
CONTINUOUS
 10
-1.717244
 20
-0.309917
  0
VERTEX
  8
PLAN_1
 62
     2
  6
CONTINUOUS
 10
-1.720602
 20
-0.309437
  0
VERTEX
  8
PLAN_1
 62
     2
  6
CONTINUOUS
 10
-1.723961
 20
-0.308961
  0
VERTEX
  8
PLAN_1
 62
     2
  6
CONTINUOUS
 10
-1.727319
 20
-0.308000
  0
VERTEX
  8
PLAN_1
 62
     2
  6
CONTINUOUS
 10
-1.729717
 20
-0.306079
  0
VERTEX
  8
PLAN_1
 62
     2
  6
CONTINUOUS
 10
-1.732118
 20
-0.304161
  0
VERTEX
  8
PLAN_1
 62
     2
  6
CONTINUOUS
 10
-1.734035
 20
-0.302244
  0
VERTEX
  8
PLAN_1
 62
     2
  6
CONTINUOUS
 10
-1.735953
 20
-0.299362
  0
VERTEX
  8
PLAN_1
 62
     2
  6
CONTINUOUS
 10
-1.737394
 20
-0.296965
  0
VERTEX
  8
PLAN_1
 62
     2
  6
CONTINUOUS
 10
-1.739791
 20
-0.290728
  0
VERTEX
  8
PLAN_1
 62
     2
  6
CONTINUOUS
 10
-1.741232
 20
-0.284492
  0
VERTEX
  8
PLAN_1
 62
     2
  6
CONTINUOUS
 10
-1.741713
 20
-0.278256
  0
VERTEX
  8
PLAN_1
 62
     2
  6
CONTINUOUS
 10
-1.742193
 20
-0.272496
  0
VERTEX
  8
PLAN_1
 62
     2
  6
CONTINUOUS
 10
-1.741713
 20
-0.266260
  0
VERTEX
  8
PLAN_1
 62
     2
  6
CONTINUOUS
 10
-1.741232
 20
-0.260024
  0
VERTEX
  8
PLAN_1
 62
     2
  6
CONTINUOUS
 10
-1.739791
 20
-0.253787
  0
VERTEX
  8
PLAN_1
 62
     2
  6
CONTINUOUS
 10
-1.737394
 20
-0.248031
  0
VERTEX
  8
PLAN_1
 62
     2
  6
CONTINUOUS
 10
-1.735953
 20
-0.245154
  0
VERTEX
  8
PLAN_1
 62
     2
  6
CONTINUOUS
 10
-1.734035
 20
-0.242752
  0
VERTEX
  8
PLAN_1
 62
     2
  6
CONTINUOUS
 10
-1.732118
 20
-0.240354
  0
VERTEX
  8
PLAN_1
 62
     2
  6
CONTINUOUS
 10
-1.729717
 20
-0.238437
  0
VERTEX
  8
PLAN_1
 62
     2
  6
CONTINUOUS
 10
-1.727319
 20
-0.236996
  0
VERTEX
  8
PLAN_1
 62
     2
  6
CONTINUOUS
 10
-1.723961
 20
-0.235559
  0
VERTEX
  8
PLAN_1
 62
     2
  6
CONTINUOUS
 10
-1.720602
 20
-0.235079
  0
VERTEX
  8
PLAN_1
 62
     2
  6
CONTINUOUS
 10
-1.717244
 20
-0.234598
  0
VERTEX
  8
PLAN_1
 62
     2
  6
CONTINUOUS
 10
-1.713406
 20
-0.235079
  0
VERTEX
  8
PLAN_1
 62
     2
  6
CONTINUOUS
 10
-1.710047
 20
-0.235559
  0
VERTEX
  8
PLAN_1
 62
     2
  6
CONTINUOUS
 10
-1.706689
 20
-0.236996
  0
VERTEX
  8
PLAN_1
 62
     2
  6
CONTINUOUS
 10
-1.704291
 20
-0.238437
  0
VERTEX
  8
PLAN_1
 62
     2
  6
CONTINUOUS
 10
-1.701894
 20
-0.240354
  0
VERTEX
  8
PLAN_1
 62
     2
  6
CONTINUOUS
 10
-1.699972
 20
-0.242752
  0
VERTEX
  8
PLAN_1
 62
     2
  6
CONTINUOUS
 10
-1.698055
 20
-0.245154
  0
VERTEX
  8
PLAN_1
 62
     2
  6
CONTINUOUS
 10
-1.696614
 20
-0.248031
  0
VERTEX
  8
PLAN_1
 62
     2
  6
CONTINUOUS
 10
-1.694217
 20
-0.253787
  0
VERTEX
  8
PLAN_1
 62
     2
  6
CONTINUOUS
 10
-1.692776
 20
-0.260024
  0
VERTEX
  8
PLAN_1
 62
     2
  6
CONTINUOUS
 10
-1.692295
 20
-0.266260
  0
VERTEX
  8
PLAN_1
 62
     2
  6
CONTINUOUS
 10
-1.691819
 20
-0.272496
  0
VERTEX
  8
PLAN_1
 62
     2
  6
CONTINUOUS
 10
-1.692295
 20
-0.278256
  0
VERTEX
  8
PLAN_1
 62
     2
  6
CONTINUOUS
 10
-1.692776
 20
-0.284492
  0
VERTEX
  8
PLAN_1
 62
     2
  6
CONTINUOUS
 10
-1.694217
 20
-0.290728
  0
VERTEX
  8
PLAN_1
 62
     2
  6
CONTINUOUS
 10
-1.696614
 20
-0.296965
  0
VERTEX
  8
PLAN_1
 62
     2
  6
CONTINUOUS
 10
-1.698055
 20
-0.299362
  0
VERTEX
  8
PLAN_1
 62
     2
  6
CONTINUOUS
 10
-1.699972
 20
-0.302244
  0
VERTEX
  8
PLAN_1
 62
     2
  6
CONTINUOUS
 10
-1.701894
 20
-0.304161
  0
VERTEX
  8
PLAN_1
 62
     2
  6
CONTINUOUS
 10
-1.704291
 20
-0.306079
  0
VERTEX
  8
PLAN_1
 62
     2
  6
CONTINUOUS
 10
-1.706689
 20
-0.308000
  0
VERTEX
  8
PLAN_1
 62
     2
  6
CONTINUOUS
 10
-1.710047
 20
-0.308961
  0
VERTEX
  8
PLAN_1
 62
     2
  6
CONTINUOUS
 10
-1.713406
 20
-0.309437
  0
VERTEX
  8
PLAN_1
 62
     2
  6
CONTINUOUS
 10
-1.717244
 20
-0.309917
  0
SEQEND
  8
0
  0
POLYLINE
  8
PLAN_1
 62
     2
  6
CONTINUOUS
 66
     1
 40
0.003000
 41
0.003000
  0
VERTEX
  8
PLAN_1
 62
     2
  6
CONTINUOUS
 10
-1.717244
 20
-0.243232
  0
VERTEX
  8
PLAN_1
 62
     2
  6
CONTINUOUS
 10
-1.719161
 20
-0.243232
  0
VERTEX
  8
PLAN_1
 62
     2
  6
CONTINUOUS
 10
-1.720602
 20
-0.243713
  0
VERTEX
  8
PLAN_1
 62
     2
  6
CONTINUOUS
 10
-1.722520
 20
-0.244193
  0
VERTEX
  8
PLAN_1
 62
     2
  6
CONTINUOUS
 10
-1.723961
 20
-0.245154
  0
VERTEX
  8
PLAN_1
 62
     2
  6
CONTINUOUS
 10
-1.725402
 20
-0.246110
  0
VERTEX
  8
PLAN_1
 62
     2
  6
CONTINUOUS
 10
-1.726358
 20
-0.247551
  0
VERTEX
  8
PLAN_1
 62
     2
  6
CONTINUOUS
 10
-1.727799
 20
-0.248992
  0
VERTEX
  8
PLAN_1
 62
     2
  6
CONTINUOUS
 10
-1.728760
 20
-0.250909
  0
VERTEX
  8
PLAN_1
 62
     2
  6
CONTINUOUS
 10
-1.730197
 20
-0.255228
  0
VERTEX
  8
PLAN_1
 62
     2
  6
CONTINUOUS
 10
-1.731638
 20
-0.260024
  0
VERTEX
  8
PLAN_1
 62
     2
  6
CONTINUOUS
 10
-1.732118
 20
-0.265780
  0
VERTEX
  8
PLAN_1
 62
     2
  6
CONTINUOUS
 10
-1.732118
 20
-0.272496
  0
VERTEX
  8
PLAN_1
 62
     2
  6
CONTINUOUS
 10
-1.732118
 20
-0.278736
  0
VERTEX
  8
PLAN_1
 62
     2
  6
CONTINUOUS
 10
-1.731638
 20
-0.284492
  0
VERTEX
  8
PLAN_1
 62
     2
  6
CONTINUOUS
 10
-1.730197
 20
-0.289768
  0
VERTEX
  8
PLAN_1
 62
     2
  6
CONTINUOUS
 10
-1.728760
 20
-0.294087
  0
VERTEX
  8
PLAN_1
 62
     2
  6
CONTINUOUS
 10
-1.727799
 20
-0.295528
  0
VERTEX
  8
PLAN_1
 62
     2
  6
CONTINUOUS
 10
-1.726358
 20
-0.297445
  0
VERTEX
  8
PLAN_1
 62
     2
  6
CONTINUOUS
 10
-1.725402
 20
-0.298406
  0
VERTEX
  8
PLAN_1
 62
     2
  6
CONTINUOUS
 10
-1.723961
 20
-0.299843
  0
VERTEX
  8
PLAN_1
 62
     2
  6
CONTINUOUS
 10
-1.722520
 20
-0.300323
  0
VERTEX
  8
PLAN_1
 62
     2
  6
CONTINUOUS
 10
-1.720602
 20
-0.301283
  0
VERTEX
  8
PLAN_1
 62
     2
  6
CONTINUOUS
 10
-1.719161
 20
-0.301764
  0
VERTEX
  8
PLAN_1
 62
     2
  6
CONTINUOUS
 10
-1.717244
 20
-0.301764
  0
VERTEX
  8
PLAN_1
 62
     2
  6
CONTINUOUS
 10
-1.715327
 20
-0.301764
  0
VERTEX
  8
PLAN_1
 62
     2
  6
CONTINUOUS
 10
-1.713406
 20
-0.301283
  0
VERTEX
  8
PLAN_1
 62
     2
  6
CONTINUOUS
 10
-1.711488
 20
-0.300323
  0
VERTEX
  8
PLAN_1
 62
     2
  6
CONTINUOUS
 10
-1.710047
 20
-0.299843
  0
VERTEX
  8
PLAN_1
 62
     2
  6
CONTINUOUS
 10
-1.708610
 20
-0.298406
  0
VERTEX
  8
PLAN_1
 62
     2
  6
CONTINUOUS
 10
-1.707650
 20
-0.297445
  0
VERTEX
  8
PLAN_1
 62
     2
  6
CONTINUOUS
 10
-1.706209
 20
-0.295528
  0
VERTEX
  8
PLAN_1
 62
     2
  6
CONTINUOUS
 10
-1.705252
 20
-0.294087
  0
VERTEX
  8
PLAN_1
 62
     2
  6
CONTINUOUS
 10
-1.703811
 20
-0.289768
  0
VERTEX
  8
PLAN_1
 62
     2
  6
CONTINUOUS
 10
-1.702850
 20
-0.284492
  0
VERTEX
  8
PLAN_1
 62
     2
  6
CONTINUOUS
 10
-1.701894
 20
-0.278736
  0
VERTEX
  8
PLAN_1
 62
     2
  6
CONTINUOUS
 10
-1.701894
 20
-0.272496
  0
VERTEX
  8
PLAN_1
 62
     2
  6
CONTINUOUS
 10
-1.701894
 20
-0.265780
  0
VERTEX
  8
PLAN_1
 62
     2
  6
CONTINUOUS
 10
-1.702850
 20
-0.260024
  0
VERTEX
  8
PLAN_1
 62
     2
  6
CONTINUOUS
 10
-1.703811
 20
-0.255228
  0
VERTEX
  8
PLAN_1
 62
     2
  6
CONTINUOUS
 10
-1.705252
 20
-0.250909
  0
VERTEX
  8
PLAN_1
 62
     2
  6
CONTINUOUS
 10
-1.707650
 20
-0.247551
  0
VERTEX
  8
PLAN_1
 62
     2
  6
CONTINUOUS
 10
-1.710047
 20
-0.245154
  0
VERTEX
  8
PLAN_1
 62
     2
  6
CONTINUOUS
 10
-1.711488
 20
-0.244193
  0
VERTEX
  8
PLAN_1
 62
     2
  6
CONTINUOUS
 10
-1.713406
 20
-0.243713
  0
VERTEX
  8
PLAN_1
 62
     2
  6
CONTINUOUS
 10
-1.715327
 20
-0.243232
  0
VERTEX
  8
PLAN_1
 62
     2
  6
CONTINUOUS
 10
-1.717244
 20
-0.243232
  0
SEQEND
  8
0
  0
SOLID
  8
PLAN_1
 62
     2
 10
-1.658713
 20
-0.046535
 11
-1.604984
 21
-0.075319
 12
-1.658713
 22
-0.046535
 13
-1.597787
 23
-0.045098
  0
POLYLINE
  8
PLAN_1
 62
     2
  6
CONTINUOUS
 66
     1
 40
0.003000
 41
0.003000
  0
VERTEX
  8
PLAN_1
 62
     2
  6
CONTINUOUS
 10
-1.658713
 20
-0.046535
  0
VERTEX
  8
PLAN_1
 62
     2
  6
CONTINUOUS
 10
-1.604984
 20
-0.075319
  0
VERTEX
  8
PLAN_1
 62
     2
  6
CONTINUOUS
 10
-1.597787
 20
-0.045098
  0
VERTEX
  8
PLAN_1
 62
     2
  6
CONTINUOUS
 10
-1.658713
 20
-0.046535
  0
SEQEND
  8
0
  0
POLYLINE
  8
PLAN_1
 62
     2
  6
CONTINUOUS
 66
     1
 40
0.004315
 41
0.004315
  0
VERTEX
  8
PLAN_1
 62
     2
  6
CONTINUOUS
 10
-1.622252
 20
-0.055169
  0
VERTEX
  8
PLAN_1
 62
     2
  6
CONTINUOUS
 10
-0.982748
 20
-0.217807
  0
VERTEX
  8
PLAN_1
 62
     2
  6
CONTINUOUS
 10
0.206075
 20
-0.217807
  0
SEQEND
  8
0
  0
POLYLINE
  8
PLAN_1
 62
     2
  6
CONTINUOUS
 66
     1
 40
0.004315
 41
0.004315
  0
VERTEX
  8
PLAN_1
 62
     2
  6
CONTINUOUS
 10
-1.194795
 20
-0.042697
  0
VERTEX
  8
PLAN_1
 62
     2
  6
CONTINUOUS
 10
-1.181362
 20
-0.042697
  0
SEQEND
  8
0
  0
POLYLINE
  8
PLAN_1
 62
     2
  6
CONTINUOUS
 66
     1
 40
0.004315
 41
0.004315
  0
VERTEX
  8
PLAN_1
 62
     2
  6
CONTINUOUS
 10
-1.133866
 20
-0.042697
  0
VERTEX
  8
PLAN_1
 62
     2
  6
CONTINUOUS
 10
-0.975551
 20
-0.042697
  0
SEQEND
  8
0
  0
POLYLINE
  8
PLAN_1
 62
     2
  6
CONTINUOUS
 66
     1
 40
0.004315
 41
0.004315
  0
VERTEX
  8
PLAN_1
 62
     2
  6
CONTINUOUS
 10
-1.156898
 20
-0.004799
  0
VERTEX
  8
PLAN_1
 62
     2
  6
CONTINUOUS
 10
-1.156898
 20
-0.149681
  0
SEQEND
  8
0
  0
POLYLINE
  8
PLAN_1
 62
     2
  6
CONTINUOUS
 66
     1
 40
0.004315
 41
0.004315
  0
VERTEX
  8
PLAN_1
 62
     2
  6
CONTINUOUS
 10
-1.156898
 20
-0.196697
  0
VERTEX
  8
PLAN_1
 62
     2
  6
CONTINUOUS
 10
-1.156898
 20
-0.355016
  0
SEQEND
  8
0
  0
POLYLINE
  8
PLAN_1
 62
     2
  6
CONTINUOUS
 66
     1
 40
0.004315
 41
0.004315
  0
VERTEX
  8
PLAN_1
 62
     2
  6
CONTINUOUS
 10
-2.335161
 20
1.807697
  0
VERTEX
  8
PLAN_1
 62
     2
  6
CONTINUOUS
 10
-2.335161
 20
-0.355016
  0
SEQEND
  8
0
  0
POLYLINE
  8
PLAN_1
 62
     2
  6
CONTINUOUS
 66
     1
 40
0.004315
 41
0.004315
  0
VERTEX
  8
PLAN_1
 62
     2
  6
CONTINUOUS
 10
-0.999059
 20
-0.012953
  0
VERTEX
  8
PLAN_1
 62
     2
  6
CONTINUOUS
 10
-0.999059
 20
3.554469
  0
SEQEND
  8
0
  0
SOLID
  8
PLAN_1
 62
     2
 10
-0.999059
 20
3.583732
 11
-1.014890
 21
3.524724
 12
-0.999059
 22
3.583732
 13
-0.983705
 23
3.524724
  0
POLYLINE
  8
PLAN_1
 62
     2
  6
CONTINUOUS
 66
     1
 40
0.003000
 41
0.003000
  0
VERTEX
  8
PLAN_1
 62
     2
  6
CONTINUOUS
 10
-0.999059
 20
3.583732
  0
VERTEX
  8
PLAN_1
 62
     2
  6
CONTINUOUS
 10
-1.014890
 20
3.524724
  0
VERTEX
  8
PLAN_1
 62
     2
  6
CONTINUOUS
 10
-0.983705
 20
3.524724
  0
VERTEX
  8
PLAN_1
 62
     2
  6
CONTINUOUS
 10
-0.999059
 20
3.583732
  0
SEQEND
  8
0
  0
SOLID
  8
PLAN_1
 62
     2
 10
-0.999059
 20
-0.042697
 11
-1.014890
 21
0.016311
 12
-0.999059
 22
-0.042697
 13
-0.983705
 23
0.016311
  0
POLYLINE
  8
PLAN_1
 62
     2
  6
CONTINUOUS
 66
     1
 40
0.003000
 41
0.003000
  0
VERTEX
  8
PLAN_1
 62
     2
  6
CONTINUOUS
 10
-0.999059
 20
-0.042697
  0
VERTEX
  8
PLAN_1
 62
     2
  6
CONTINUOUS
 10
-1.014890
 20
0.016311
  0
VERTEX
  8
PLAN_1
 62
     2
  6
CONTINUOUS
 10
-0.983705
 20
0.016311
  0
VERTEX
  8
PLAN_1
 62
     2
  6
CONTINUOUS
 10
-0.999059
 20
-0.042697
  0
SEQEND
  8
0
  0
POLYLINE
  8
PLAN_1
 62
     2
  6
CONTINUOUS
 66
     1
 40
0.003000
 41
0.003000
  0
VERTEX
  8
PLAN_1
 62
     2
  6
CONTINUOUS
 10
-1.061906
 20
1.711268
  0
VERTEX
  8
PLAN_1
 62
     2
  6
CONTINUOUS
 10
-1.059988
 20
1.714626
  0
VERTEX
  8
PLAN_1
 62
     2
  6
CONTINUOUS
 10
-1.058067
 20
1.717024
  0
VERTEX
  8
PLAN_1
 62
     2
  6
CONTINUOUS
 10
-1.055669
 20
1.719425
  0
VERTEX
  8
PLAN_1
 62
     2
  6
CONTINUOUS
 10
-1.053272
 20
1.720862
  0
VERTEX
  8
PLAN_1
 62
     2
  6
CONTINUOUS
 10
-1.050870
 20
1.721823
  0
VERTEX
  8
PLAN_1
 62
     2
  6
CONTINUOUS
 10
-1.048472
 20
1.722783
  0
VERTEX
  8
PLAN_1
 62
     2
  6
CONTINUOUS
 10
-1.046075
 20
1.722783
  0
VERTEX
  8
PLAN_1
 62
     2
  6
CONTINUOUS
 10
-1.044154
 20
1.723264
  0
VERTEX
  8
PLAN_1
 62
     2
  6
CONTINUOUS
 10
-1.039839
 20
1.722783
  0
VERTEX
  8
PLAN_1
 62
     2
  6
CONTINUOUS
 10
-1.035520
 20
1.721823
  0
VERTEX
  8
PLAN_1
 62
     2
  6
CONTINUOUS
 10
-1.031681
 20
1.719906
  0
VERTEX
  8
PLAN_1
 62
     2
  6
CONTINUOUS
 10
-1.027843
 20
1.717024
  0
VERTEX
  8
PLAN_1
 62
     2
  6
CONTINUOUS
 10
-1.026406
 20
1.715587
  0
VERTEX
  8
PLAN_1
 62
     2
  6
CONTINUOUS
 10
-1.024965
 20
1.713665
  0
VERTEX
  8
PLAN_1
 62
     2
  6
CONTINUOUS
 10
-1.024004
 20
1.711748
  0
VERTEX
  8
PLAN_1
 62
     2
  6
CONTINUOUS
 10
-1.023047
 20
1.709350
  0
VERTEX
  8
PLAN_1
 62
     2
  6
CONTINUOUS
 10
-1.022087
 20
1.706949
  0
VERTEX
  8
PLAN_1
 62
     2
  6
CONTINUOUS
 10
-1.021606
 20
1.704551
  0
VERTEX
  8
PLAN_1
 62
     2
  6
CONTINUOUS
 10
-1.021126
 20
1.701673
  0
VERTEX
  8
PLAN_1
 62
     2
  6
CONTINUOUS
 10
-1.020646
 20
1.698315
  0
VERTEX
  8
PLAN_1
 62
     2
  6
CONTINUOUS
 10
-1.021126
 20
1.696874
  0
VERTEX
  8
PLAN_1
 62
     2
  6
CONTINUOUS
 10
-1.021126
 20
1.694476
  0
VERTEX
  8
PLAN_1
 62
     2
  6
CONTINUOUS
 10
-1.021606
 20
1.692559
  0
VERTEX
  8
PLAN_1
 62
     2
  6
CONTINUOUS
 10
-1.022087
 20
1.690157
  0
VERTEX
  8
PLAN_1
 62
     2
  6
CONTINUOUS
 10
-1.022567
 20
1.687760
  0
VERTEX
  8
PLAN_1
 62
     2
  6
CONTINUOUS
 10
-1.023524
 20
1.685362
  0
VERTEX
  8
PLAN_1
 62
     2
  6
CONTINUOUS
 10
-1.024965
 20
1.682965
  0
VERTEX
  8
PLAN_1
 62
     2
  6
CONTINUOUS
 10
-1.026406
 20
1.680563
  0
VERTEX
  8
PLAN_1
 62
     2
  6
CONTINUOUS
 10
-1.028803
 20
1.678165
  0
VERTEX
  8
PLAN_1
 62
     2
  6
CONTINUOUS
 10
-1.031201
 20
1.676248
  0
VERTEX
  8
PLAN_1
 62
     2
  6
CONTINUOUS
 10
-1.033598
 20
1.675287
  0
VERTEX
  8
PLAN_1
 62
     2
  6
CONTINUOUS
 10
-1.036000
 20
1.674327
  0
VERTEX
  8
PLAN_1
 62
     2
  6
CONTINUOUS
 10
-1.038398
 20
1.673846
  0
VERTEX
  8
PLAN_1
 62
     2
  6
CONTINUOUS
 10
-1.040315
 20
1.673366
  0
VERTEX
  8
PLAN_1
 62
     2
  6
CONTINUOUS
 10
-1.042236
 20
1.673366
  0
VERTEX
  8
PLAN_1
 62
     2
  6
CONTINUOUS
 10
-1.043673
 20
1.673366
  0
VERTEX
  8
PLAN_1
 62
     2
  6
CONTINUOUS
 10
-1.047031
 20
1.673366
  0
VERTEX
  8
PLAN_1
 62
     2
  6
CONTINUOUS
 10
-1.049913
 20
1.674327
  0
VERTEX
  8
PLAN_1
 62
     2
  6
CONTINUOUS
 10
-1.052791
 20
1.675287
  0
VERTEX
  8
PLAN_1
 62
     2
  6
CONTINUOUS
 10
-1.054709
 20
1.676724
  0
VERTEX
  8
PLAN_1
 62
     2
  6
CONTINUOUS
 10
-1.057106
 20
1.678165
  0
VERTEX
  8
PLAN_1
 62
     2
  6
CONTINUOUS
 10
-1.059028
 20
1.680563
  0
VERTEX
  8
PLAN_1
 62
     2
  6
CONTINUOUS
 10
-1.060465
 20
1.682965
  0
VERTEX
  8
PLAN_1
 62
     2
  6
CONTINUOUS
 10
-1.061425
 20
1.685843
  0
VERTEX
  8
PLAN_1
 62
     2
  6
CONTINUOUS
 10
-1.062866
 20
1.683441
  0
VERTEX
  8
PLAN_1
 62
     2
  6
CONTINUOUS
 10
-1.063823
 20
1.681524
  0
VERTEX
  8
PLAN_1
 62
     2
  6
CONTINUOUS
 10
-1.065264
 20
1.679606
  0
VERTEX
  8
PLAN_1
 62
     2
  6
CONTINUOUS
 10
-1.067181
 20
1.678165
  0
VERTEX
  8
PLAN_1
 62
     2
  6
CONTINUOUS
 10
-1.069102
 20
1.677205
  0
VERTEX
  8
PLAN_1
 62
     2
  6
CONTINUOUS
 10
-1.071020
 20
1.676248
  0
VERTEX
  8
PLAN_1
 62
     2
  6
CONTINUOUS
 10
-1.073421
 20
1.675768
  0
VERTEX
  8
PLAN_1
 62
     2
  6
CONTINUOUS
 10
-1.075819
 20
1.675768
  0
VERTEX
  8
PLAN_1
 62
     2
  6
CONTINUOUS
 10
-1.079177
 20
1.675768
  0
VERTEX
  8
PLAN_1
 62
     2
  6
CONTINUOUS
 10
-1.082055
 20
1.676724
  0
VERTEX
  8
PLAN_1
 62
     2
  6
CONTINUOUS
 10
-1.085413
 20
1.678165
  0
VERTEX
  8
PLAN_1
 62
     2
  6
CONTINUOUS
 10
-1.088772
 20
1.680083
  0
VERTEX
  8
PLAN_1
 62
     2
  6
CONTINUOUS
 10
-1.090213
 20
1.681524
  0
VERTEX
  8
PLAN_1
 62
     2
  6
CONTINUOUS
 10
-1.091650
 20
1.683441
  0
VERTEX
  8
PLAN_1
 62
     2
  6
CONTINUOUS
 10
-1.093091
 20
1.684882
  0
VERTEX
  8
PLAN_1
 62
     2
  6
CONTINUOUS
 10
-1.094047
 20
1.687280
  0
VERTEX
  8
PLAN_1
 62
     2
  6
CONTINUOUS
 10
-1.095008
 20
1.689201
  0
VERTEX
  8
PLAN_1
 62
     2
  6
CONTINUOUS
 10
-1.095488
 20
1.692079
  0
VERTEX
  8
PLAN_1
 62
     2
  6
CONTINUOUS
 10
-1.095969
 20
1.694957
  0
VERTEX
  8
PLAN_1
 62
     2
  6
CONTINUOUS
 10
-1.095969
 20
1.697835
  0
VERTEX
  8
PLAN_1
 62
     2
  6
CONTINUOUS
 10
-1.095969
 20
1.700713
  0
VERTEX
  8
PLAN_1
 62
     2
  6
CONTINUOUS
 10
-1.095488
 20
1.703591
  0
VERTEX
  8
PLAN_1
 62
     2
  6
CONTINUOUS
 10
-1.095008
 20
1.705992
  0
VERTEX
  8
PLAN_1
 62
     2
  6
CONTINUOUS
 10
-1.094047
 20
1.708390
  0
VERTEX
  8
PLAN_1
 62
     2
  6
CONTINUOUS
 10
-1.092130
 20
1.712228
  0
VERTEX
  8
PLAN_1
 62
     2
  6
CONTINUOUS
 10
-1.089732
 20
1.715106
  0
VERTEX
  8
PLAN_1
 62
     2
  6
CONTINUOUS
 10
-1.086854
 20
1.717504
  0
VERTEX
  8
PLAN_1
 62
     2
  6
CONTINUOUS
 10
-1.083496
 20
1.719425
  0
VERTEX
  8
PLAN_1
 62
     2
  6
CONTINUOUS
 10
-1.080614
 20
1.720382
  0
VERTEX
  8
PLAN_1
 62
     2
  6
CONTINUOUS
 10
-1.077256
 20
1.720382
  0
VERTEX
  8
PLAN_1
 62
     2
  6
CONTINUOUS
 10
-1.073421
 20
1.720382
  0
VERTEX
  8
PLAN_1
 62
     2
  6
CONTINUOUS
 10
-1.070539
 20
1.719425
  0
VERTEX
  8
PLAN_1
 62
     2
  6
CONTINUOUS
 10
-1.068142
 20
1.718465
  0
VERTEX
  8
PLAN_1
 62
     2
  6
CONTINUOUS
 10
-1.066224
 20
1.717024
  0
VERTEX
  8
PLAN_1
 62
     2
  6
CONTINUOUS
 10
-1.064783
 20
1.715587
  0
VERTEX
  8
PLAN_1
 62
     2
  6
CONTINUOUS
 10
-1.063346
 20
1.714146
  0
VERTEX
  8
PLAN_1
 62
     2
  6
CONTINUOUS
 10
-1.062386
 20
1.712228
  0
VERTEX
  8
PLAN_1
 62
     2
  6
CONTINUOUS
 10
-1.061906
 20
1.711268
  0
SEQEND
  8
0
  0
POLYLINE
  8
PLAN_1
 62
     2
  6
CONTINUOUS
 66
     1
 40
0.003000
 41
0.003000
  0
VERTEX
  8
PLAN_1
 62
     2
  6
CONTINUOUS
 10
-1.043673
 20
1.682965
  0
VERTEX
  8
PLAN_1
 62
     2
  6
CONTINUOUS
 10
-1.041276
 20
1.682965
  0
VERTEX
  8
PLAN_1
 62
     2
  6
CONTINUOUS
 10
-1.038878
 20
1.683441
  0
VERTEX
  8
PLAN_1
 62
     2
  6
CONTINUOUS
 10
-1.036480
 20
1.684402
  0
VERTEX
  8
PLAN_1
 62
     2
  6
CONTINUOUS
 10
-1.034079
 20
1.685843
  0
VERTEX
  8
PLAN_1
 62
     2
  6
CONTINUOUS
 10
-1.032161
 20
1.688240
  0
VERTEX
  8
PLAN_1
 62
     2
  6
CONTINUOUS
 10
-1.030720
 20
1.690638
  0
VERTEX
  8
PLAN_1
 62
     2
  6
CONTINUOUS
 10
-1.029283
 20
1.694476
  0
VERTEX
  8
PLAN_1
 62
     2
  6
CONTINUOUS
 10
-1.029283
 20
1.698795
  0
VERTEX
  8
PLAN_1
 62
     2
  6
CONTINUOUS
 10
-1.029283
 20
1.701193
  0
VERTEX
  8
PLAN_1
 62
     2
  6
CONTINUOUS
 10
-1.029764
 20
1.703591
  0
VERTEX
  8
PLAN_1
 62
     2
  6
CONTINUOUS
 10
-1.030240
 20
1.705992
  0
VERTEX
  8
PLAN_1
 62
     2
  6
CONTINUOUS
 10
-1.031681
 20
1.708390
  0
VERTEX
  8
PLAN_1
 62
     2
  6
CONTINUOUS
 10
-1.033598
 20
1.710307
  0
VERTEX
  8
PLAN_1
 62
     2
  6
CONTINUOUS
 10
-1.036000
 20
1.711748
  0
VERTEX
  8
PLAN_1
 62
     2
  6
CONTINUOUS
 10
-1.038878
 20
1.712709
  0
VERTEX
  8
PLAN_1
 62
     2
  6
CONTINUOUS
 10
-1.042717
 20
1.713189
  0
VERTEX
  8
PLAN_1
 62
     2
  6
CONTINUOUS
 10
-1.046555
 20
1.713189
  0
VERTEX
  8
PLAN_1
 62
     2
  6
CONTINUOUS
 10
-1.049433
 20
1.712228
  0
VERTEX
  8
PLAN_1
 62
     2
  6
CONTINUOUS
 10
-1.051831
 20
1.710787
  0
VERTEX
  8
PLAN_1
 62
     2
  6
CONTINUOUS
 10
-1.053748
 20
1.708870
  0
VERTEX
  8
PLAN_1
 62
     2
  6
CONTINUOUS
 10
-1.055189
 20
1.706472
  0
VERTEX
  8
PLAN_1
 62
     2
  6
CONTINUOUS
 10
-1.056150
 20
1.704071
  0
VERTEX
  8
PLAN_1
 62
     2
  6
CONTINUOUS
 10
-1.057106
 20
1.701193
  0
VERTEX
  8
PLAN_1
 62
     2
  6
CONTINUOUS
 10
-1.057106
 20
1.698315
  0
VERTEX
  8
PLAN_1
 62
     2
  6
CONTINUOUS
 10
-1.057106
 20
1.694476
  0
VERTEX
  8
PLAN_1
 62
     2
  6
CONTINUOUS
 10
-1.056150
 20
1.691598
  0
VERTEX
  8
PLAN_1
 62
     2
  6
CONTINUOUS
 10
-1.054709
 20
1.688720
  0
VERTEX
  8
PLAN_1
 62
     2
  6
CONTINUOUS
 10
-1.052791
 20
1.686799
  0
VERTEX
  8
PLAN_1
 62
     2
  6
CONTINUOUS
 10
-1.050870
 20
1.684882
  0
VERTEX
  8
PLAN_1
 62
     2
  6
CONTINUOUS
 10
-1.048472
 20
1.683921
  0
VERTEX
  8
PLAN_1
 62
     2
  6
CONTINUOUS
 10
-1.046075
 20
1.683441
  0
VERTEX
  8
PLAN_1
 62
     2
  6
CONTINUOUS
 10
-1.043673
 20
1.682965
  0
SEQEND
  8
0
  0
POLYLINE
  8
PLAN_1
 62
     2
  6
CONTINUOUS
 66
     1
 40
0.003000
 41
0.003000
  0
VERTEX
  8
PLAN_1
 62
     2
  6
CONTINUOUS
 10
-1.076780
 20
1.710787
  0
VERTEX
  8
PLAN_1
 62
     2
  6
CONTINUOUS
 10
-1.078697
 20
1.710787
  0
VERTEX
  8
PLAN_1
 62
     2
  6
CONTINUOUS
 10
-1.080614
 20
1.710307
  0
VERTEX
  8
PLAN_1
 62
     2
  6
CONTINUOUS
 10
-1.082055
 20
1.709350
  0
VERTEX
  8
PLAN_1
 62
     2
  6
CONTINUOUS
 10
-1.083972
 20
1.708390
  0
VERTEX
  8
PLAN_1
 62
     2
  6
CONTINUOUS
 10
-1.085413
 20
1.706472
  0
VERTEX
  8
PLAN_1
 62
     2
  6
CONTINUOUS
 10
-1.086854
 20
1.704071
  0
VERTEX
  8
PLAN_1
 62
     2
  6
CONTINUOUS
 10
-1.087331
 20
1.701193
  0
VERTEX
  8
PLAN_1
 62
     2
  6
CONTINUOUS
 10
-1.087811
 20
1.697354
  0
VERTEX
  8
PLAN_1
 62
     2
  6
CONTINUOUS
 10
-1.087331
 20
1.693996
  0
VERTEX
  8
PLAN_1
 62
     2
  6
CONTINUOUS
 10
-1.086854
 20
1.691118
  0
VERTEX
  8
PLAN_1
 62
     2
  6
CONTINUOUS
 10
-1.085413
 20
1.689201
  0
VERTEX
  8
PLAN_1
 62
     2
  6
CONTINUOUS
 10
-1.083972
 20
1.687760
  0
VERTEX
  8
PLAN_1
 62
     2
  6
CONTINUOUS
 10
-1.082055
 20
1.686323
  0
VERTEX
  8
PLAN_1
 62
     2
  6
CONTINUOUS
 10
-1.080138
 20
1.685843
  0
VERTEX
  8
PLAN_1
 62
     2
  6
CONTINUOUS
 10
-1.078217
 20
1.685362
  0
VERTEX
  8
PLAN_1
 62
     2
  6
CONTINUOUS
 10
-1.076299
 20
1.685362
  0
VERTEX
  8
PLAN_1
 62
     2
  6
CONTINUOUS
 10
-1.073898
 20
1.685362
  0
VERTEX
  8
PLAN_1
 62
     2
  6
CONTINUOUS
 10
-1.071500
 20
1.686323
  0
VERTEX
  8
PLAN_1
 62
     2
  6
CONTINUOUS
 10
-1.069583
 20
1.687280
  0
VERTEX
  8
PLAN_1
 62
     2
  6
CONTINUOUS
 10
-1.068142
 20
1.689201
  0
VERTEX
  8
PLAN_1
 62
     2
  6
CONTINUOUS
 10
-1.066705
 20
1.691118
  0
VERTEX
  8
PLAN_1
 62
     2
  6
CONTINUOUS
 10
-1.065744
 20
1.693039
  0
VERTEX
  8
PLAN_1
 62
     2
  6
CONTINUOUS
 10
-1.065264
 20
1.695437
  0
VERTEX
  8
PLAN_1
 62
     2
  6
CONTINUOUS
 10
-1.065264
 20
1.697835
  0
VERTEX
  8
PLAN_1
 62
     2
  6
CONTINUOUS
 10
-1.065264
 20
1.700713
  0
VERTEX
  8
PLAN_1
 62
     2
  6
CONTINUOUS
 10
-1.065744
 20
1.703591
  0
VERTEX
  8
PLAN_1
 62
     2
  6
CONTINUOUS
 10
-1.067181
 20
1.705512
  0
VERTEX
  8
PLAN_1
 62
     2
  6
CONTINUOUS
 10
-1.068622
 20
1.707429
  0
VERTEX
  8
PLAN_1
 62
     2
  6
CONTINUOUS
 10
-1.070063
 20
1.708870
  0
VERTEX
  8
PLAN_1
 62
     2
  6
CONTINUOUS
 10
-1.071980
 20
1.710307
  0
VERTEX
  8
PLAN_1
 62
     2
  6
CONTINUOUS
 10
-1.074378
 20
1.710787
  0
VERTEX
  8
PLAN_1
 62
     2
  6
CONTINUOUS
 10
-1.076780
 20
1.710787
  0
SEQEND
  8
0
  0
POLYLINE
  8
PLAN_1
 62
     2
  6
CONTINUOUS
 66
     1
 40
0.003000
 41
0.003000
  0
VERTEX
  8
PLAN_1
 62
     2
  6
CONTINUOUS
 10
-1.061906
 20
1.768839
  0
VERTEX
  8
PLAN_1
 62
     2
  6
CONTINUOUS
 10
-1.059988
 20
1.772197
  0
VERTEX
  8
PLAN_1
 62
     2
  6
CONTINUOUS
 10
-1.058067
 20
1.775075
  0
VERTEX
  8
PLAN_1
 62
     2
  6
CONTINUOUS
 10
-1.055669
 20
1.776992
  0
VERTEX
  8
PLAN_1
 62
     2
  6
CONTINUOUS
 10
-1.053272
 20
1.778913
  0
VERTEX
  8
PLAN_1
 62
     2
  6
CONTINUOUS
 10
-1.050870
 20
1.779874
  0
VERTEX
  8
PLAN_1
 62
     2
  6
CONTINUOUS
 10
-1.048472
 20
1.780350
  0
VERTEX
  8
PLAN_1
 62
     2
  6
CONTINUOUS
 10
-1.046075
 20
1.780831
  0
VERTEX
  8
PLAN_1
 62
     2
  6
CONTINUOUS
 10
-1.044154
 20
1.780831
  0
VERTEX
  8
PLAN_1
 62
     2
  6
CONTINUOUS
 10
-1.039839
 20
1.780831
  0
VERTEX
  8
PLAN_1
 62
     2
  6
CONTINUOUS
 10
-1.035520
 20
1.779394
  0
VERTEX
  8
PLAN_1
 62
     2
  6
CONTINUOUS
 10
-1.031681
 20
1.777472
  0
VERTEX
  8
PLAN_1
 62
     2
  6
CONTINUOUS
 10
-1.027843
 20
1.775075
  0
VERTEX
  8
PLAN_1
 62
     2
  6
CONTINUOUS
 10
-1.026406
 20
1.773634
  0
VERTEX
  8
PLAN_1
 62
     2
  6
CONTINUOUS
 10
-1.024965
 20
1.771717
  0
VERTEX
  8
PLAN_1
 62
     2
  6
CONTINUOUS
 10
-1.024004
 20
1.769799
  0
VERTEX
  8
PLAN_1
 62
     2
  6
CONTINUOUS
 10
-1.023047
 20
1.767398
  0
VERTEX
  8
PLAN_1
 62
     2
  6
CONTINUOUS
 10
-1.022087
 20
1.765000
  0
VERTEX
  8
PLAN_1
 62
     2
  6
CONTINUOUS
 10
-1.021606
 20
1.762122
  0
VERTEX
  8
PLAN_1
 62
     2
  6
CONTINUOUS
 10
-1.021126
 20
1.759244
  0
VERTEX
  8
PLAN_1
 62
     2
  6
CONTINUOUS
 10
-1.020646
 20
1.756366
  0
VERTEX
  8
PLAN_1
 62
     2
  6
CONTINUOUS
 10
-1.021126
 20
1.754445
  0
VERTEX
  8
PLAN_1
 62
     2
  6
CONTINUOUS
 10
-1.021126
 20
1.752528
  0
VERTEX
  8
PLAN_1
 62
     2
  6
CONTINUOUS
 10
-1.021606
 20
1.750606
  0
VERTEX
  8
PLAN_1
 62
     2
  6
CONTINUOUS
 10
-1.022087
 20
1.748209
  0
VERTEX
  8
PLAN_1
 62
     2
  6
CONTINUOUS
 10
-1.022567
 20
1.745811
  0
VERTEX
  8
PLAN_1
 62
     2
  6
CONTINUOUS
 10
-1.023524
 20
1.743413
  0
VERTEX
  8
PLAN_1
 62
     2
  6
CONTINUOUS
 10
-1.024965
 20
1.741012
  0
VERTEX
  8
PLAN_1
 62
     2
  6
CONTINUOUS
 10
-1.026406
 20
1.738614
  0
VERTEX
  8
PLAN_1
 62
     2
  6
CONTINUOUS
 10
-1.028803
 20
1.736217
  0
VERTEX
  8
PLAN_1
 62
     2
  6
CONTINUOUS
 10
-1.031201
 20
1.734295
  0
VERTEX
  8
PLAN_1
 62
     2
  6
CONTINUOUS
 10
-1.033598
 20
1.732858
  0
VERTEX
  8
PLAN_1
 62
     2
  6
CONTINUOUS
 10
-1.036000
 20
1.731898
  0
VERTEX
  8
PLAN_1
 62
     2
  6
CONTINUOUS
 10
-1.038398
 20
1.731417
  0
VERTEX
  8
PLAN_1
 62
     2
  6
CONTINUOUS
 10
-1.040315
 20
1.731417
  0
VERTEX
  8
PLAN_1
 62
     2
  6
CONTINUOUS
 10
-1.042236
 20
1.730937
  0
VERTEX
  8
PLAN_1
 62
     2
  6
CONTINUOUS
 10
-1.043673
 20
1.730937
  0
VERTEX
  8
PLAN_1
 62
     2
  6
CONTINUOUS
 10
-1.047031
 20
1.731417
  0
VERTEX
  8
PLAN_1
 62
     2
  6
CONTINUOUS
 10
-1.049913
 20
1.731898
  0
VERTEX
  8
PLAN_1
 62
     2
  6
CONTINUOUS
 10
-1.052791
 20
1.732858
  0
VERTEX
  8
PLAN_1
 62
     2
  6
CONTINUOUS
 10
-1.054709
 20
1.734295
  0
VERTEX
  8
PLAN_1
 62
     2
  6
CONTINUOUS
 10
-1.057106
 20
1.736217
  0
VERTEX
  8
PLAN_1
 62
     2
  6
CONTINUOUS
 10
-1.059028
 20
1.738134
  0
VERTEX
  8
PLAN_1
 62
     2
  6
CONTINUOUS
 10
-1.060465
 20
1.741012
  0
VERTEX
  8
PLAN_1
 62
     2
  6
CONTINUOUS
 10
-1.061425
 20
1.743413
  0
VERTEX
  8
PLAN_1
 62
     2
  6
CONTINUOUS
 10
-1.062866
 20
1.741492
  0
VERTEX
  8
PLAN_1
 62
     2
  6
CONTINUOUS
 10
-1.063823
 20
1.739575
  0
VERTEX
  8
PLAN_1
 62
     2
  6
CONTINUOUS
 10
-1.065264
 20
1.737654
  0
VERTEX
  8
PLAN_1
 62
     2
  6
CONTINUOUS
 10
-1.067181
 20
1.736217
  0
VERTEX
  8
PLAN_1
 62
     2
  6
CONTINUOUS
 10
-1.069102
 20
1.735256
  0
VERTEX
  8
PLAN_1
 62
     2
  6
CONTINUOUS
 10
-1.071020
 20
1.734295
  0
VERTEX
  8
PLAN_1
 62
     2
  6
CONTINUOUS
 10
-1.073421
 20
1.733815
  0
VERTEX
  8
PLAN_1
 62
     2
  6
CONTINUOUS
 10
-1.075819
 20
1.733815
  0
VERTEX
  8
PLAN_1
 62
     2
  6
CONTINUOUS
 10
-1.079177
 20
1.733815
  0
VERTEX
  8
PLAN_1
 62
     2
  6
CONTINUOUS
 10
-1.082055
 20
1.734776
  0
VERTEX
  8
PLAN_1
 62
     2
  6
CONTINUOUS
 10
-1.085413
 20
1.736217
  0
VERTEX
  8
PLAN_1
 62
     2
  6
CONTINUOUS
 10
-1.088772
 20
1.738134
  0
VERTEX
  8
PLAN_1
 62
     2
  6
CONTINUOUS
 10
-1.090213
 20
1.739575
  0
VERTEX
  8
PLAN_1
 62
     2
  6
CONTINUOUS
 10
-1.091650
 20
1.741012
  0
VERTEX
  8
PLAN_1
 62
     2
  6
CONTINUOUS
 10
-1.093091
 20
1.742933
  0
VERTEX
  8
PLAN_1
 62
     2
  6
CONTINUOUS
 10
-1.094047
 20
1.744850
  0
VERTEX
  8
PLAN_1
 62
     2
  6
CONTINUOUS
 10
-1.095008
 20
1.747248
  0
VERTEX
  8
PLAN_1
 62
     2
  6
CONTINUOUS
 10
-1.095488
 20
1.749650
  0
VERTEX
  8
PLAN_1
 62
     2
  6
CONTINUOUS
 10
-1.095969
 20
1.752528
  0
VERTEX
  8
PLAN_1
 62
     2
  6
CONTINUOUS
 10
-1.095969
 20
1.755886
  0
VERTEX
  8
PLAN_1
 62
     2
  6
CONTINUOUS
 10
-1.095969
 20
1.758764
  0
VERTEX
  8
PLAN_1
 62
     2
  6
CONTINUOUS
 10
-1.095488
 20
1.761642
  0
VERTEX
  8
PLAN_1
 62
     2
  6
CONTINUOUS
 10
-1.095008
 20
1.764039
  0
VERTEX
  8
PLAN_1
 62
     2
  6
CONTINUOUS
 10
-1.094047
 20
1.765961
  0
VERTEX
  8
PLAN_1
 62
     2
  6
CONTINUOUS
 10
-1.092130
 20
1.770276
  0
VERTEX
  8
PLAN_1
 62
     2
  6
CONTINUOUS
 10
-1.089732
 20
1.773157
  0
VERTEX
  8
PLAN_1
 62
     2
  6
CONTINUOUS
 10
-1.086854
 20
1.775555
  0
VERTEX
  8
PLAN_1
 62
     2
  6
CONTINUOUS
 10
-1.083496
 20
1.776992
  0
VERTEX
  8
PLAN_1
 62
     2
  6
CONTINUOUS
 10
-1.080614
 20
1.777953
  0
VERTEX
  8
PLAN_1
 62
     2
  6
CONTINUOUS
 10
-1.077256
 20
1.778433
  0
VERTEX
  8
PLAN_1
 62
     2
  6
CONTINUOUS
 10
-1.073421
 20
1.777953
  0
VERTEX
  8
PLAN_1
 62
     2
  6
CONTINUOUS
 10
-1.070539
 20
1.777472
  0
VERTEX
  8
PLAN_1
 62
     2
  6
CONTINUOUS
 10
-1.068142
 20
1.776035
  0
VERTEX
  8
PLAN_1
 62
     2
  6
CONTINUOUS
 10
-1.066224
 20
1.775075
  0
VERTEX
  8
PLAN_1
 62
     2
  6
CONTINUOUS
 10
-1.064783
 20
1.773157
  0
VERTEX
  8
PLAN_1
 62
     2
  6
CONTINUOUS
 10
-1.063346
 20
1.771717
  0
VERTEX
  8
PLAN_1
 62
     2
  6
CONTINUOUS
 10
-1.062386
 20
1.770276
  0
VERTEX
  8
PLAN_1
 62
     2
  6
CONTINUOUS
 10
-1.061906
 20
1.768839
  0
SEQEND
  8
0
  0
POLYLINE
  8
PLAN_1
 62
     2
  6
CONTINUOUS
 66
     1
 40
0.003000
 41
0.003000
  0
VERTEX
  8
PLAN_1
 62
     2
  6
CONTINUOUS
 10
-1.043673
 20
1.741012
  0
VERTEX
  8
PLAN_1
 62
     2
  6
CONTINUOUS
 10
-1.041276
 20
1.741012
  0
VERTEX
  8
PLAN_1
 62
     2
  6
CONTINUOUS
 10
-1.038878
 20
1.741492
  0
VERTEX
  8
PLAN_1
 62
     2
  6
CONTINUOUS
 10
-1.036480
 20
1.742453
  0
VERTEX
  8
PLAN_1
 62
     2
  6
CONTINUOUS
 10
-1.034079
 20
1.743890
  0
VERTEX
  8
PLAN_1
 62
     2
  6
CONTINUOUS
 10
-1.032161
 20
1.745811
  0
VERTEX
  8
PLAN_1
 62
     2
  6
CONTINUOUS
 10
-1.030720
 20
1.748689
  0
VERTEX
  8
PLAN_1
 62
     2
  6
CONTINUOUS
 10
-1.029283
 20
1.752047
  0
VERTEX
  8
PLAN_1
 62
     2
  6
CONTINUOUS
 10
-1.029283
 20
1.756366
  0
VERTEX
  8
PLAN_1
 62
     2
  6
CONTINUOUS
 10
-1.029283
 20
1.759244
  0
VERTEX
  8
PLAN_1
 62
     2
  6
CONTINUOUS
 10
-1.029764
 20
1.761642
  0
VERTEX
  8
PLAN_1
 62
     2
  6
CONTINUOUS
 10
-1.030240
 20
1.764039
  0
VERTEX
  8
PLAN_1
 62
     2
  6
CONTINUOUS
 10
-1.031681
 20
1.766441
  0
VERTEX
  8
PLAN_1
 62
     2
  6
CONTINUOUS
 10
-1.033598
 20
1.768358
  0
VERTEX
  8
PLAN_1
 62
     2
  6
CONTINUOUS
 10
-1.036000
 20
1.769799
  0
VERTEX
  8
PLAN_1
 62
     2
  6
CONTINUOUS
 10
-1.038878
 20
1.770756
  0
VERTEX
  8
PLAN_1
 62
     2
  6
CONTINUOUS
 10
-1.042717
 20
1.771236
  0
VERTEX
  8
PLAN_1
 62
     2
  6
CONTINUOUS
 10
-1.046555
 20
1.770756
  0
VERTEX
  8
PLAN_1
 62
     2
  6
CONTINUOUS
 10
-1.049433
 20
1.769799
  0
VERTEX
  8
PLAN_1
 62
     2
  6
CONTINUOUS
 10
-1.051831
 20
1.768358
  0
VERTEX
  8
PLAN_1
 62
     2
  6
CONTINUOUS
 10
-1.053748
 20
1.766917
  0
VERTEX
  8
PLAN_1
 62
     2
  6
CONTINUOUS
 10
-1.055189
 20
1.764520
  0
VERTEX
  8
PLAN_1
 62
     2
  6
CONTINUOUS
 10
-1.056150
 20
1.762122
  0
VERTEX
  8
PLAN_1
 62
     2
  6
CONTINUOUS
 10
-1.057106
 20
1.759244
  0
VERTEX
  8
PLAN_1
 62
     2
  6
CONTINUOUS
 10
-1.057106
 20
1.755886
  0
VERTEX
  8
PLAN_1
 62
     2
  6
CONTINUOUS
 10
-1.057106
 20
1.752528
  0
VERTEX
  8
PLAN_1
 62
     2
  6
CONTINUOUS
 10
-1.056150
 20
1.749169
  0
VERTEX
  8
PLAN_1
 62
     2
  6
CONTINUOUS
 10
-1.054709
 20
1.746772
  0
VERTEX
  8
PLAN_1
 62
     2
  6
CONTINUOUS
 10
-1.052791
 20
1.744370
  0
VERTEX
  8
PLAN_1
 62
     2
  6
CONTINUOUS
 10
-1.050870
 20
1.742933
  0
VERTEX
  8
PLAN_1
 62
     2
  6
CONTINUOUS
 10
-1.048472
 20
1.741972
  0
VERTEX
  8
PLAN_1
 62
     2
  6
CONTINUOUS
 10
-1.046075
 20
1.741012
  0
VERTEX
  8
PLAN_1
 62
     2
  6
CONTINUOUS
 10
-1.043673
 20
1.741012
  0
SEQEND
  8
0
  0
POLYLINE
  8
PLAN_1
 62
     2
  6
CONTINUOUS
 66
     1
 40
0.003000
 41
0.003000
  0
VERTEX
  8
PLAN_1
 62
     2
  6
CONTINUOUS
 10
-1.076780
 20
1.768839
  0
VERTEX
  8
PLAN_1
 62
     2
  6
CONTINUOUS
 10
-1.078697
 20
1.768839
  0
VERTEX
  8
PLAN_1
 62
     2
  6
CONTINUOUS
 10
-1.080614
 20
1.768358
  0
VERTEX
  8
PLAN_1
 62
     2
  6
CONTINUOUS
 10
-1.082055
 20
1.767398
  0
VERTEX
  8
PLAN_1
 62
     2
  6
CONTINUOUS
 10
-1.083972
 20
1.765961
  0
VERTEX
  8
PLAN_1
 62
     2
  6
CONTINUOUS
 10
-1.085413
 20
1.764520
  0
VERTEX
  8
PLAN_1
 62
     2
  6
CONTINUOUS
 10
-1.086854
 20
1.762122
  0
VERTEX
  8
PLAN_1
 62
     2
  6
CONTINUOUS
 10
-1.087331
 20
1.758764
  0
VERTEX
  8
PLAN_1
 62
     2
  6
CONTINUOUS
 10
-1.087811
 20
1.755406
  0
VERTEX
  8
PLAN_1
 62
     2
  6
CONTINUOUS
 10
-1.087331
 20
1.752047
  0
VERTEX
  8
PLAN_1
 62
     2
  6
CONTINUOUS
 10
-1.086854
 20
1.749169
  0
VERTEX
  8
PLAN_1
 62
     2
  6
CONTINUOUS
 10
-1.085413
 20
1.747248
  0
VERTEX
  8
PLAN_1
 62
     2
  6
CONTINUOUS
 10
-1.083972
 20
1.745331
  0
VERTEX
  8
PLAN_1
 62
     2
  6
CONTINUOUS
 10
-1.082055
 20
1.744370
  0
VERTEX
  8
PLAN_1
 62
     2
  6
CONTINUOUS
 10
-1.080138
 20
1.743413
  0
VERTEX
  8
PLAN_1
 62
     2
  6
CONTINUOUS
 10
-1.078217
 20
1.743413
  0
VERTEX
  8
PLAN_1
 62
     2
  6
CONTINUOUS
 10
-1.076299
 20
1.742933
  0
VERTEX
  8
PLAN_1
 62
     2
  6
CONTINUOUS
 10
-1.073898
 20
1.743413
  0
VERTEX
  8
PLAN_1
 62
     2
  6
CONTINUOUS
 10
-1.071500
 20
1.744370
  0
VERTEX
  8
PLAN_1
 62
     2
  6
CONTINUOUS
 10
-1.069583
 20
1.745331
  0
VERTEX
  8
PLAN_1
 62
     2
  6
CONTINUOUS
 10
-1.068142
 20
1.747248
  0
VERTEX
  8
PLAN_1
 62
     2
  6
CONTINUOUS
 10
-1.066705
 20
1.748689
  0
VERTEX
  8
PLAN_1
 62
     2
  6
CONTINUOUS
 10
-1.065744
 20
1.751087
  0
VERTEX
  8
PLAN_1
 62
     2
  6
CONTINUOUS
 10
-1.065264
 20
1.753488
  0
VERTEX
  8
PLAN_1
 62
     2
  6
CONTINUOUS
 10
-1.065264
 20
1.755886
  0
VERTEX
  8
PLAN_1
 62
     2
  6
CONTINUOUS
 10
-1.065264
 20
1.758764
  0
VERTEX
  8
PLAN_1
 62
     2
  6
CONTINUOUS
 10
-1.065744
 20
1.761161
  0
VERTEX
  8
PLAN_1
 62
     2
  6
CONTINUOUS
 10
-1.067181
 20
1.763559
  0
VERTEX
  8
PLAN_1
 62
     2
  6
CONTINUOUS
 10
-1.068622
 20
1.765480
  0
VERTEX
  8
PLAN_1
 62
     2
  6
CONTINUOUS
 10
-1.070063
 20
1.766917
  0
VERTEX
  8
PLAN_1
 62
     2
  6
CONTINUOUS
 10
-1.071980
 20
1.767878
  0
VERTEX
  8
PLAN_1
 62
     2
  6
CONTINUOUS
 10
-1.074378
 20
1.768839
  0
VERTEX
  8
PLAN_1
 62
     2
  6
CONTINUOUS
 10
-1.076780
 20
1.768839
  0
SEQEND
  8
0
  0
POLYLINE
  8
PLAN_1
 62
     2
  6
CONTINUOUS
 66
     1
 40
0.003000
 41
0.003000
  0
VERTEX
  8
PLAN_1
 62
     2
  6
CONTINUOUS
 10
-1.034079
 20
1.794264
  0
VERTEX
  8
PLAN_1
 62
     2
  6
CONTINUOUS
 10
-1.034079
 20
1.804819
  0
VERTEX
  8
PLAN_1
 62
     2
  6
CONTINUOUS
 10
-1.023524
 20
1.804819
  0
VERTEX
  8
PLAN_1
 62
     2
  6
CONTINUOUS
 10
-1.018728
 20
1.804819
  0
VERTEX
  8
PLAN_1
 62
     2
  6
CONTINUOUS
 10
-1.015370
 20
1.803382
  0
VERTEX
  8
PLAN_1
 62
     2
  6
CONTINUOUS
 10
-1.012492
 20
1.801941
  0
VERTEX
  8
PLAN_1
 62
     2
  6
CONTINUOUS
 10
-1.010571
 20
1.800500
  0
VERTEX
  8
PLAN_1
 62
     2
  6
CONTINUOUS
 10
-1.009134
 20
1.798583
  0
VERTEX
  8
PLAN_1
 62
     2
  6
CONTINUOUS
 10
-1.008173
 20
1.796665
  0
VERTEX
  8
PLAN_1
 62
     2
  6
CONTINUOUS
 10
-1.007693
 20
1.795224
  0
VERTEX
  8
PLAN_1
 62
     2
  6
CONTINUOUS
 10
-1.007693
 20
1.794264
  0
VERTEX
  8
PLAN_1
 62
     2
  6
CONTINUOUS
 10
-1.012492
 20
1.794264
  0
VERTEX
  8
PLAN_1
 62
     2
  6
CONTINUOUS
 10
-1.012492
 20
1.795705
  0
VERTEX
  8
PLAN_1
 62
     2
  6
CONTINUOUS
 10
-1.013449
 20
1.796665
  0
VERTEX
  8
PLAN_1
 62
     2
  6
CONTINUOUS
 10
-1.014409
 20
1.797622
  0
VERTEX
  8
PLAN_1
 62
     2
  6
CONTINUOUS
 10
-1.015850
 20
1.798583
  0
VERTEX
  8
PLAN_1
 62
     2
  6
CONTINUOUS
 10
-1.017287
 20
1.799063
  0
VERTEX
  8
PLAN_1
 62
     2
  6
CONTINUOUS
 10
-1.019209
 20
1.799543
  0
VERTEX
  8
PLAN_1
 62
     2
  6
CONTINUOUS
 10
-1.021126
 20
1.799543
  0
VERTEX
  8
PLAN_1
 62
     2
  6
CONTINUOUS
 10
-1.023047
 20
1.799543
  0
VERTEX
  8
PLAN_1
 62
     2
  6
CONTINUOUS
 10
-1.023047
 20
1.794264
  0
VERTEX
  8
PLAN_1
 62
     2
  6
CONTINUOUS
 10
-1.034079
 20
1.794264
  0
SEQEND
  8
0
  0
POLYLINE
  8
PLAN_1
 62
     2
  6
CONTINUOUS
 66
     1
 40
0.003000
 41
0.003000
  0
VERTEX
  8
PLAN_1
 62
     2
  6
CONTINUOUS
 10
-1.065264
 20
1.829287
  0
VERTEX
  8
PLAN_1
 62
     2
  6
CONTINUOUS
 10
-1.066224
 20
1.830724
  0
VERTEX
  8
PLAN_1
 62
     2
  6
CONTINUOUS
 10
-1.067181
 20
1.831685
  0
VERTEX
  8
PLAN_1
 62
     2
  6
CONTINUOUS
 10
-1.067661
 20
1.833606
  0
VERTEX
  8
PLAN_1
 62
     2
  6
CONTINUOUS
 10
-1.068622
 20
1.835043
  0
VERTEX
  8
PLAN_1
 62
     2
  6
CONTINUOUS
 10
-1.069102
 20
1.836965
  0
VERTEX
  8
PLAN_1
 62
     2
  6
CONTINUOUS
 10
-1.069583
 20
1.838882
  0
VERTEX
  8
PLAN_1
 62
     2
  6
CONTINUOUS
 10
-1.070063
 20
1.841280
  0
VERTEX
  8
PLAN_1
 62
     2
  6
CONTINUOUS
 10
-1.070063
 20
1.843681
  0
VERTEX
  8
PLAN_1
 62
     2
  6
CONTINUOUS
 10
-1.069583
 20
1.847996
  0
VERTEX
  8
PLAN_1
 62
     2
  6
CONTINUOUS
 10
-1.068622
 20
1.852315
  0
VERTEX
  8
PLAN_1
 62
     2
  6
CONTINUOUS
 10
-1.066705
 20
1.856154
  0
VERTEX
  8
PLAN_1
 62
     2
  6
CONTINUOUS
 10
-1.063823
 20
1.859992
  0
VERTEX
  8
PLAN_1
 62
     2
  6
CONTINUOUS
 10
-1.062386
 20
1.861429
  0
VERTEX
  8
PLAN_1
 62
     2
  6
CONTINUOUS
 10
-1.060465
 20
1.862870
  0
VERTEX
  8
PLAN_1
 62
     2
  6
CONTINUOUS
 10
-1.058547
 20
1.864307
  0
VERTEX
  8
PLAN_1
 62
     2
  6
CONTINUOUS
 10
-1.056630
 20
1.865268
  0
VERTEX
  8
PLAN_1
 62
     2
  6
CONTINUOUS
 10
-1.054228
 20
1.866228
  0
VERTEX
  8
PLAN_1
 62
     2
  6
CONTINUOUS
 10
-1.051831
 20
1.867189
  0
VERTEX
  8
PLAN_1
 62
     2
  6
CONTINUOUS
 10
-1.049433
 20
1.867189
  0
VERTEX
  8
PLAN_1
 62
     2
  6
CONTINUOUS
 10
-1.046555
 20
1.867665
  0
VERTEX
  8
PLAN_1
 62
     2
  6
CONTINUOUS
 10
-1.043197
 20
1.867189
  0
VERTEX
  8
PLAN_1
 62
     2
  6
CONTINUOUS
 10
-1.039358
 20
1.866709
  0
VERTEX
  8
PLAN_1
 62
     2
  6
CONTINUOUS
 10
-1.035039
 20
1.865268
  0
VERTEX
  8
PLAN_1
 62
     2
  6
CONTINUOUS
 10
-1.030720
 20
1.862870
  0
VERTEX
  8
PLAN_1
 62
     2
  6
CONTINUOUS
 10
-1.028803
 20
1.861429
  0
VERTEX
  8
PLAN_1
 62
     2
  6
CONTINUOUS
 10
-1.026882
 20
1.859512
  0
VERTEX
  8
PLAN_1
 62
     2
  6
CONTINUOUS
 10
-1.024965
 20
1.857114
  0
VERTEX
  8
PLAN_1
 62
     2
  6
CONTINUOUS
 10
-1.023524
 20
1.854713
  0
VERTEX
  8
PLAN_1
 62
     2
  6
CONTINUOUS
 10
-1.022567
 20
1.851835
  0
VERTEX
  8
PLAN_1
 62
     2
  6
CONTINUOUS
 10
-1.021606
 20
1.848476
  0
VERTEX
  8
PLAN_1
 62
     2
  6
CONTINUOUS
 10
-1.021126
 20
1.845118
  0
VERTEX
  8
PLAN_1
 62
     2
  6
CONTINUOUS
 10
-1.020646
 20
1.840799
  0
VERTEX
  8
PLAN_1
 62
     2
  6
CONTINUOUS
 10
-1.021126
 20
1.837441
  0
VERTEX
  8
PLAN_1
 62
     2
  6
CONTINUOUS
 10
-1.021606
 20
1.833606
  0
VERTEX
  8
PLAN_1
 62
     2
  6
CONTINUOUS
 10
-1.023047
 20
1.829768
  0
VERTEX
  8
PLAN_1
 62
     2
  6
CONTINUOUS
 10
-1.024965
 20
1.826409
  0
VERTEX
  8
PLAN_1
 62
     2
  6
CONTINUOUS
 10
-1.025925
 20
1.824488
  0
VERTEX
  8
PLAN_1
 62
     2
  6
CONTINUOUS
 10
-1.027362
 20
1.823051
  0
VERTEX
  8
PLAN_1
 62
     2
  6
CONTINUOUS
 10
-1.029283
 20
1.821610
  0
VERTEX
  8
PLAN_1
 62
     2
  6
CONTINUOUS
 10
-1.031201
 20
1.820650
  0
VERTEX
  8
PLAN_1
 62
     2
  6
CONTINUOUS
 10
-1.033122
 20
1.819213
  0
VERTEX
  8
PLAN_1
 62
     2
  6
CONTINUOUS
 10
-1.035520
 20
1.818252
  0
VERTEX
  8
PLAN_1
 62
     2
  6
CONTINUOUS
 10
-1.037917
 20
1.817772
  0
VERTEX
  8
PLAN_1
 62
     2
  6
CONTINUOUS
 10
-1.041276
 20
1.817291
  0
VERTEX
  8
PLAN_1
 62
     2
  6
CONTINUOUS
 10
-1.041276
 20
1.826890
  0
VERTEX
  8
PLAN_1
 62
     2
  6
CONTINUOUS
 10
-1.037917
 20
1.827366
  0
VERTEX
  8
PLAN_1
 62
     2
  6
CONTINUOUS
 10
-1.035520
 20
1.828327
  0
VERTEX
  8
PLAN_1
 62
     2
  6
CONTINUOUS
 10
-1.033598
 20
1.829768
  0
VERTEX
  8
PLAN_1
 62
     2
  6
CONTINUOUS
 10
-1.031681
 20
1.831685
  0
VERTEX
  8
PLAN_1
 62
     2
  6
CONTINUOUS
 10
-1.030240
 20
1.834083
  0
VERTEX
  8
PLAN_1
 62
     2
  6
CONTINUOUS
 10
-1.029283
 20
1.836484
  0
VERTEX
  8
PLAN_1
 62
     2
  6
CONTINUOUS
 10
-1.028803
 20
1.839362
  0
VERTEX
  8
PLAN_1
 62
     2
  6
CONTINUOUS
 10
-1.028803
 20
1.842240
  0
VERTEX
  8
PLAN_1
 62
     2
  6
CONTINUOUS
 10
-1.029283
 20
1.845598
  0
VERTEX
  8
PLAN_1
 62
     2
  6
CONTINUOUS
 10
-1.030240
 20
1.848957
  0
VERTEX
  8
PLAN_1
 62
     2
  6
CONTINUOUS
 10
-1.031681
 20
1.851354
  0
VERTEX
  8
PLAN_1
 62
     2
  6
CONTINUOUS
 10
-1.033598
 20
1.853756
  0
VERTEX
  8
PLAN_1
 62
     2
  6
CONTINUOUS
 10
-1.036000
 20
1.855193
  0
VERTEX
  8
PLAN_1
 62
     2
  6
CONTINUOUS
 10
-1.038878
 20
1.856634
  0
VERTEX
  8
PLAN_1
 62
     2
  6
CONTINUOUS
 10
-1.042236
 20
1.857591
  0
VERTEX
  8
PLAN_1
 62
     2
  6
CONTINUOUS
 10
-1.045594
 20
1.857591
  0
VERTEX
  8
PLAN_1
 62
     2
  6
CONTINUOUS
 10
-1.049433
 20
1.857591
  0
VERTEX
  8
PLAN_1
 62
     2
  6
CONTINUOUS
 10
-1.052311
 20
1.856634
  0
VERTEX
  8
PLAN_1
 62
     2
  6
CONTINUOUS
 10
-1.055189
 20
1.855193
  0
VERTEX
  8
PLAN_1
 62
     2
  6
CONTINUOUS
 10
-1.057587
 20
1.852795
  0
VERTEX
  8
PLAN_1
 62
     2
  6
CONTINUOUS
 10
-1.059508
 20
1.850398
  0
VERTEX
  8
PLAN_1
 62
     2
  6
CONTINUOUS
 10
-1.060465
 20
1.847996
  0
VERTEX
  8
PLAN_1
 62
     2
  6
CONTINUOUS
 10
-1.061425
 20
1.844638
  0
VERTEX
  8
PLAN_1
 62
     2
  6
CONTINUOUS
 10
-1.061906
 20
1.841280
  0
VERTEX
  8
PLAN_1
 62
     2
  6
CONTINUOUS
 10
-1.061425
 20
1.839362
  0
VERTEX
  8
PLAN_1
 62
     2
  6
CONTINUOUS
 10
-1.061425
 20
1.837441
  0
VERTEX
  8
PLAN_1
 62
     2
  6
CONTINUOUS
 10
-1.060945
 20
1.836004
  0
VERTEX
  8
PLAN_1
 62
     2
  6
CONTINUOUS
 10
-1.059988
 20
1.834083
  0
VERTEX
  8
PLAN_1
 62
     2
  6
CONTINUOUS
 10
-1.059028
 20
1.832165
  0
VERTEX
  8
PLAN_1
 62
     2
  6
CONTINUOUS
 10
-1.057587
 20
1.830724
  0
VERTEX
  8
PLAN_1
 62
     2
  6
CONTINUOUS
 10
-1.056150
 20
1.829287
  0
VERTEX
  8
PLAN_1
 62
     2
  6
CONTINUOUS
 10
-1.054709
 20
1.827846
  0
VERTEX
  8
PLAN_1
 62
     2
  6
CONTINUOUS
 10
-1.055189
 20
1.820173
  0
VERTEX
  8
PLAN_1
 62
     2
  6
CONTINUOUS
 10
-1.094528
 20
1.825449
  0
VERTEX
  8
PLAN_1
 62
     2
  6
CONTINUOUS
 10
-1.094528
 20
1.863350
  0
VERTEX
  8
PLAN_1
 62
     2
  6
CONTINUOUS
 10
-1.085413
 20
1.863350
  0
VERTEX
  8
PLAN_1
 62
     2
  6
CONTINUOUS
 10
-1.085413
 20
1.832646
  0
VERTEX
  8
PLAN_1
 62
     2
  6
CONTINUOUS
 10
-1.065264
 20
1.829287
  0
SEQEND
  8
0
  0
POLYLINE
  8
PLAN_1
 62
     2
  6
CONTINUOUS
 66
     1
 40
0.004315
 41
0.004315
  0
VERTEX
  8
PLAN_1
 62
     2
  6
CONTINUOUS
 10
-1.632327
 20
3.583732
  0
VERTEX
  8
PLAN_1
 62
     2
  6
CONTINUOUS
 10
-0.975551
 20
3.583732
  0
SEQEND
  8
0
  0
POLYLINE
  8
PLAN_1
 62
     2
  6
CONTINUOUS
 66
     1
 40
0.003000
 41
0.003000
  0
VERTEX
  8
PLAN_1
 62
     2
  6
CONTINUOUS
 10
-0.912705
 20
-0.152559
  0
VERTEX
  8
PLAN_1
 62
     2
  6
CONTINUOUS
 10
-0.912224
 20
-0.152559
  0
VERTEX
  8
PLAN_1
 62
     2
  6
CONTINUOUS
 10
-0.911744
 20
-0.152559
  0
VERTEX
  8
PLAN_1
 62
     2
  6
CONTINUOUS
 10
-0.910783
 20
-0.152559
  0
VERTEX
  8
PLAN_1
 62
     2
  6
CONTINUOUS
 10
-0.910303
 20
-0.152559
  0
VERTEX
  8
PLAN_1
 62
     2
  6
CONTINUOUS
 10
-0.909823
 20
-0.152559
  0
VERTEX
  8
PLAN_1
 62
     2
  6
CONTINUOUS
 10
-0.909346
 20
-0.152559
  0
VERTEX
  8
PLAN_1
 62
     2
  6
CONTINUOUS
 10
-0.908386
 20
-0.152559
  0
VERTEX
  8
PLAN_1
 62
     2
  6
CONTINUOUS
 10
-0.907906
 20
-0.152559
  0
VERTEX
  8
PLAN_1
 62
     2
  6
CONTINUOUS
 10
-0.905508
 20
-0.152559
  0
VERTEX
  8
PLAN_1
 62
     2
  6
CONTINUOUS
 10
-0.902630
 20
-0.152079
  0
VERTEX
  8
PLAN_1
 62
     2
  6
CONTINUOUS
 10
-0.900228
 20
-0.151122
  0
VERTEX
  8
PLAN_1
 62
     2
  6
CONTINUOUS
 10
-0.898311
 20
-0.150161
  0
VERTEX
  8
PLAN_1
 62
     2
  6
CONTINUOUS
 10
-0.896394
 20
-0.148724
  0
VERTEX
  8
PLAN_1
 62
     2
  6
CONTINUOUS
 10
-0.895433
 20
-0.146323
  0
VERTEX
  8
PLAN_1
 62
     2
  6
CONTINUOUS
 10
-0.894472
 20
-0.143925
  0
VERTEX
  8
PLAN_1
 62
     2
  6
CONTINUOUS
 10
-0.893992
 20
-0.140567
  0
VERTEX
  8
PLAN_1
 62
     2
  6
CONTINUOUS
 10
-0.893992
 20
-0.139126
  0
VERTEX
  8
PLAN_1
 62
     2
  6
CONTINUOUS
 10
-0.894472
 20
-0.137209
  0
VERTEX
  8
PLAN_1
 62
     2
  6
CONTINUOUS
 10
-0.895433
 20
-0.135291
  0
VERTEX
  8
PLAN_1
 62
     2
  6
CONTINUOUS
 10
-0.896870
 20
-0.133370
  0
VERTEX
  8
PLAN_1
 62
     2
  6
CONTINUOUS
 10
-0.898311
 20
-0.131453
  0
VERTEX
  8
PLAN_1
 62
     2
  6
CONTINUOUS
 10
-0.900709
 20
-0.130492
  0
VERTEX
  8
PLAN_1
 62
     2
  6
CONTINUOUS
 10
-0.904067
 20
-0.129531
  0
VERTEX
  8
PLAN_1
 62
     2
  6
CONTINUOUS
 10
-0.907425
 20
-0.129051
  0
VERTEX
  8
PLAN_1
 62
     2
  6
CONTINUOUS
 10
-0.909823
 20
-0.129051
  0
VERTEX
  8
PLAN_1
 62
     2
  6
CONTINUOUS
 10
-0.911744
 20
-0.129531
  0
VERTEX
  8
PLAN_1
 62
     2
  6
CONTINUOUS
 10
-0.913661
 20
-0.130012
  0
VERTEX
  8
PLAN_1
 62
     2
  6
CONTINUOUS
 10
-0.915102
 20
-0.130972
  0
VERTEX
  8
PLAN_1
 62
     2
  6
CONTINUOUS
 10
-0.917500
 20
-0.132890
  0
VERTEX
  8
PLAN_1
 62
     2
  6
CONTINUOUS
 10
-0.919421
 20
-0.135291
  0
VERTEX
  8
PLAN_1
 62
     2
  6
CONTINUOUS
 10
-0.920378
 20
-0.137689
  0
VERTEX
  8
PLAN_1
 62
     2
  6
CONTINUOUS
 10
-0.921339
 20
-0.140087
  0
VERTEX
  8
PLAN_1
 62
     2
  6
CONTINUOUS
 10
-0.921819
 20
-0.142484
  0
VERTEX
  8
PLAN_1
 62
     2
  6
CONTINUOUS
 10
-0.921819
 20
-0.144886
  0
VERTEX
  8
PLAN_1
 62
     2
  6
CONTINUOUS
 10
-0.930933
 20
-0.144886
  0
VERTEX
  8
PLAN_1
 62
     2
  6
CONTINUOUS
 10
-0.930453
 20
-0.140567
  0
VERTEX
  8
PLAN_1
 62
     2
  6
CONTINUOUS
 10
-0.929972
 20
-0.136728
  0
VERTEX
  8
PLAN_1
 62
     2
  6
CONTINUOUS
 10
-0.928535
 20
-0.132409
  0
VERTEX
  8
PLAN_1
 62
     2
  6
CONTINUOUS
 10
-0.926138
 20
-0.129051
  0
VERTEX
  8
PLAN_1
 62
     2
  6
CONTINUOUS
 10
-0.924697
 20
-0.127134
  0
VERTEX
  8
PLAN_1
 62
     2
  6
CONTINUOUS
 10
-0.923256
 20
-0.125693
  0
VERTEX
  8
PLAN_1
 62
     2
  6
CONTINUOUS
 10
-0.921339
 20
-0.124256
  0
VERTEX
  8
PLAN_1
 62
     2
  6
CONTINUOUS
 10
-0.918941
 20
-0.123295
  0
VERTEX
  8
PLAN_1
 62
     2
  6
CONTINUOUS
 10
-0.916539
 20
-0.122335
  0
VERTEX
  8
PLAN_1
 62
     2
  6
CONTINUOUS
 10
-0.913661
 20
-0.121378
  0
VERTEX
  8
PLAN_1
 62
     2
  6
CONTINUOUS
 10
-0.910783
 20
-0.120898
  0
VERTEX
  8
PLAN_1
 62
     2
  6
CONTINUOUS
 10
-0.906945
 20
-0.120898
  0
VERTEX
  8
PLAN_1
 62
     2
  6
CONTINUOUS
 10
-0.902150
 20
-0.121378
  0
VERTEX
  8
PLAN_1
 62
     2
  6
CONTINUOUS
 10
-0.897831
 20
-0.122335
  0
VERTEX
  8
PLAN_1
 62
     2
  6
CONTINUOUS
 10
-0.893992
 20
-0.124256
  0
VERTEX
  8
PLAN_1
 62
     2
  6
CONTINUOUS
 10
-0.890634
 20
-0.126173
  0
VERTEX
  8
PLAN_1
 62
     2
  6
CONTINUOUS
 10
-0.887756
 20
-0.129051
  0
VERTEX
  8
PLAN_1
 62
     2
  6
CONTINUOUS
 10
-0.886319
 20
-0.132409
  0
VERTEX
  8
PLAN_1
 62
     2
  6
CONTINUOUS
 10
-0.884878
 20
-0.136248
  0
VERTEX
  8
PLAN_1
 62
     2
  6
CONTINUOUS
 10
-0.884398
 20
-0.140087
  0
VERTEX
  8
PLAN_1
 62
     2
  6
CONTINUOUS
 10
-0.884878
 20
-0.143445
  0
VERTEX
  8
PLAN_1
 62
     2
  6
CONTINUOUS
 10
-0.885358
 20
-0.146323
  0
VERTEX
  8
PLAN_1
 62
     2
  6
CONTINUOUS
 10
-0.886319
 20
-0.148724
  0
VERTEX
  8
PLAN_1
 62
     2
  6
CONTINUOUS
 10
-0.887756
 20
-0.150642
  0
VERTEX
  8
PLAN_1
 62
     2
  6
CONTINUOUS
 10
-0.889197
 20
-0.152559
  0
VERTEX
  8
PLAN_1
 62
     2
  6
CONTINUOUS
 10
-0.890634
 20
-0.153520
  0
VERTEX
  8
PLAN_1
 62
     2
  6
CONTINUOUS
 10
-0.892555
 20
-0.154480
  0
VERTEX
  8
PLAN_1
 62
     2
  6
CONTINUOUS
 10
-0.893992
 20
-0.155437
  0
VERTEX
  8
PLAN_1
 62
     2
  6
CONTINUOUS
 10
-0.891594
 20
-0.156398
  0
VERTEX
  8
PLAN_1
 62
     2
  6
CONTINUOUS
 10
-0.889197
 20
-0.157839
  0
VERTEX
  8
PLAN_1
 62
     2
  6
CONTINUOUS
 10
-0.886795
 20
-0.159276
  0
VERTEX
  8
PLAN_1
 62
     2
  6
CONTINUOUS
 10
-0.885358
 20
-0.161197
  0
VERTEX
  8
PLAN_1
 62
     2
  6
CONTINUOUS
 10
-0.883917
 20
-0.163594
  0
VERTEX
  8
PLAN_1
 62
     2
  6
CONTINUOUS
 10
-0.882480
 20
-0.165992
  0
VERTEX
  8
PLAN_1
 62
     2
  6
CONTINUOUS
 10
-0.882000
 20
-0.168870
  0
VERTEX
  8
PLAN_1
 62
     2
  6
CONTINUOUS
 10
-0.882000
 20
-0.172709
  0
VERTEX
  8
PLAN_1
 62
     2
  6
CONTINUOUS
 10
-0.882000
 20
-0.177028
  0
VERTEX
  8
PLAN_1
 62
     2
  6
CONTINUOUS
 10
-0.883437
 20
-0.181346
  0
VERTEX
  8
PLAN_1
 62
     2
  6
CONTINUOUS
 10
-0.885358
 20
-0.185185
  0
VERTEX
  8
PLAN_1
 62
     2
  6
CONTINUOUS
 10
-0.887756
 20
-0.188543
  0
VERTEX
  8
PLAN_1
 62
     2
  6
CONTINUOUS
 10
-0.889677
 20
-0.190461
  0
VERTEX
  8
PLAN_1
 62
     2
  6
CONTINUOUS
 10
-0.891594
 20
-0.191902
  0
VERTEX
  8
PLAN_1
 62
     2
  6
CONTINUOUS
 10
-0.893512
 20
-0.192858
  0
VERTEX
  8
PLAN_1
 62
     2
  6
CONTINUOUS
 10
-0.895913
 20
-0.193819
  0
VERTEX
  8
PLAN_1
 62
     2
  6
CONTINUOUS
 10
-0.898791
 20
-0.194780
  0
VERTEX
  8
PLAN_1
 62
     2
  6
CONTINUOUS
 10
-0.901669
 20
-0.195736
  0
VERTEX
  8
PLAN_1
 62
     2
  6
CONTINUOUS
 10
-0.904547
 20
-0.195736
  0
VERTEX
  8
PLAN_1
 62
     2
  6
CONTINUOUS
 10
-0.907906
 20
-0.196217
  0
VERTEX
  8
PLAN_1
 62
     2
  6
CONTINUOUS
 10
-0.910303
 20
-0.195736
  0
VERTEX
  8
PLAN_1
 62
     2
  6
CONTINUOUS
 10
-0.911744
 20
-0.195736
  0
VERTEX
  8
PLAN_1
 62
     2
  6
CONTINUOUS
 10
-0.913661
 20
-0.195736
  0
VERTEX
  8
PLAN_1
 62
     2
  6
CONTINUOUS
 10
-0.915583
 20
-0.195260
  0
VERTEX
  8
PLAN_1
 62
     2
  6
CONTINUOUS
 10
-0.917020
 20
-0.194780
  0
VERTEX
  8
PLAN_1
 62
     2
  6
CONTINUOUS
 10
-0.918941
 20
-0.194299
  0
VERTEX
  8
PLAN_1
 62
     2
  6
CONTINUOUS
 10
-0.920378
 20
-0.193339
  0
VERTEX
  8
PLAN_1
 62
     2
  6
CONTINUOUS
 10
-0.921819
 20
-0.192858
  0
VERTEX
  8
PLAN_1
 62
     2
  6
CONTINUOUS
 10
-0.924217
 20
-0.190941
  0
VERTEX
  8
PLAN_1
 62
     2
  6
CONTINUOUS
 10
-0.926614
 20
-0.189020
  0
VERTEX
  8
PLAN_1
 62
     2
  6
CONTINUOUS
 10
-0.928535
 20
-0.186622
  0
VERTEX
  8
PLAN_1
 62
     2
  6
CONTINUOUS
 10
-0.929972
 20
-0.183744
  0
VERTEX
  8
PLAN_1
 62
     2
  6
CONTINUOUS
 10
-0.930933
 20
-0.180866
  0
VERTEX
  8
PLAN_1
 62
     2
  6
CONTINUOUS
 10
-0.931894
 20
-0.177988
  0
VERTEX
  8
PLAN_1
 62
     2
  6
CONTINUOUS
 10
-0.932374
 20
-0.174630
  0
VERTEX
  8
PLAN_1
 62
     2
  6
CONTINUOUS
 10
-0.932374
 20
-0.171752
  0
VERTEX
  8
PLAN_1
 62
     2
  6
CONTINUOUS
 10
-0.923256
 20
-0.171752
  0
VERTEX
  8
PLAN_1
 62
     2
  6
CONTINUOUS
 10
-0.922780
 20
-0.174150
  0
VERTEX
  8
PLAN_1
 62
     2
  6
CONTINUOUS
 10
-0.922299
 20
-0.177028
  0
VERTEX
  8
PLAN_1
 62
     2
  6
CONTINUOUS
 10
-0.921819
 20
-0.179906
  0
VERTEX
  8
PLAN_1
 62
     2
  6
CONTINUOUS
 10
-0.920378
 20
-0.182303
  0
VERTEX
  8
PLAN_1
 62
     2
  6
CONTINUOUS
 10
-0.918461
 20
-0.184705
  0
VERTEX
  8
PLAN_1
 62
     2
  6
CONTINUOUS
 10
-0.915583
 20
-0.186142
  0
VERTEX
  8
PLAN_1
 62
     2
  6
CONTINUOUS
 10
-0.912224
 20
-0.187583
  0
VERTEX
  8
PLAN_1
 62
     2
  6
CONTINUOUS
 10
-0.907425
 20
-0.187583
  0
VERTEX
  8
PLAN_1
 62
     2
  6
CONTINUOUS
 10
-0.904067
 20
-0.187583
  0
VERTEX
  8
PLAN_1
 62
     2
  6
CONTINUOUS
 10
-0.901189
 20
-0.186622
  0
VERTEX
  8
PLAN_1
 62
     2
  6
CONTINUOUS
 10
-0.898311
 20
-0.185661
  0
VERTEX
  8
PLAN_1
 62
     2
  6
CONTINUOUS
 10
-0.895913
 20
-0.183744
  0
VERTEX
  8
PLAN_1
 62
     2
  6
CONTINUOUS
 10
-0.893992
 20
-0.181827
  0
VERTEX
  8
PLAN_1
 62
     2
  6
CONTINUOUS
 10
-0.892555
 20
-0.179425
  0
VERTEX
  8
PLAN_1
 62
     2
  6
CONTINUOUS
 10
-0.892075
 20
-0.176547
  0
VERTEX
  8
PLAN_1
 62
     2
  6
CONTINUOUS
 10
-0.891594
 20
-0.173669
  0
VERTEX
  8
PLAN_1
 62
     2
  6
CONTINUOUS
 10
-0.891594
 20
-0.171272
  0
VERTEX
  8
PLAN_1
 62
     2
  6
CONTINUOUS
 10
-0.892075
 20
-0.169350
  0
VERTEX
  8
PLAN_1
 62
     2
  6
CONTINUOUS
 10
-0.892555
 20
-0.167913
  0
VERTEX
  8
PLAN_1
 62
     2
  6
CONTINUOUS
 10
-0.893512
 20
-0.166472
  0
VERTEX
  8
PLAN_1
 62
     2
  6
CONTINUOUS
 10
-0.895433
 20
-0.164075
  0
VERTEX
  8
PLAN_1
 62
     2
  6
CONTINUOUS
 10
-0.897831
 20
-0.162154
  0
VERTEX
  8
PLAN_1
 62
     2
  6
CONTINUOUS
 10
-0.900709
 20
-0.161197
  0
VERTEX
  8
PLAN_1
 62
     2
  6
CONTINUOUS
 10
-0.903106
 20
-0.160717
  0
VERTEX
  8
PLAN_1
 62
     2
  6
CONTINUOUS
 10
-0.905988
 20
-0.160236
  0
VERTEX
  8
PLAN_1
 62
     2
  6
CONTINUOUS
 10
-0.908386
 20
-0.160236
  0
VERTEX
  8
PLAN_1
 62
     2
  6
CONTINUOUS
 10
-0.909346
 20
-0.160236
  0
VERTEX
  8
PLAN_1
 62
     2
  6
CONTINUOUS
 10
-0.909823
 20
-0.160236
  0
VERTEX
  8
PLAN_1
 62
     2
  6
CONTINUOUS
 10
-0.910303
 20
-0.160236
  0
VERTEX
  8
PLAN_1
 62
     2
  6
CONTINUOUS
 10
-0.910783
 20
-0.160236
  0
VERTEX
  8
PLAN_1
 62
     2
  6
CONTINUOUS
 10
-0.911264
 20
-0.160236
  0
VERTEX
  8
PLAN_1
 62
     2
  6
CONTINUOUS
 10
-0.911744
 20
-0.160236
  0
VERTEX
  8
PLAN_1
 62
     2
  6
CONTINUOUS
 10
-0.912224
 20
-0.160236
  0
VERTEX
  8
PLAN_1
 62
     2
  6
CONTINUOUS
 10
-0.912705
 20
-0.160236
  0
VERTEX
  8
PLAN_1
 62
     2
  6
CONTINUOUS
 10
-0.912705
 20
-0.152559
  0
SEQEND
  8
0
  0
POLYLINE
  8
PLAN_1
 62
     2
  6
CONTINUOUS
 66
     1
 40
0.003000
 41
0.003000
  0
VERTEX
  8
PLAN_1
 62
     2
  6
CONTINUOUS
 10
-0.831146
 20
-0.147283
  0
VERTEX
  8
PLAN_1
 62
     2
  6
CONTINUOUS
 10
-0.831146
 20
-0.182783
  0
VERTEX
  8
PLAN_1
 62
     2
  6
CONTINUOUS
 10
-0.831146
 20
-0.184224
  0
VERTEX
  8
PLAN_1
 62
     2
  6
CONTINUOUS
 10
-0.830665
 20
-0.185185
  0
VERTEX
  8
PLAN_1
 62
     2
  6
CONTINUOUS
 10
-0.830185
 20
-0.185661
  0
VERTEX
  8
PLAN_1
 62
     2
  6
CONTINUOUS
 10
-0.829228
 20
-0.186142
  0
VERTEX
  8
PLAN_1
 62
     2
  6
CONTINUOUS
 10
-0.828268
 20
-0.186622
  0
VERTEX
  8
PLAN_1
 62
     2
  6
CONTINUOUS
 10
-0.827307
 20
-0.186622
  0
VERTEX
  8
PLAN_1
 62
     2
  6
CONTINUOUS
 10
-0.826346
 20
-0.186622
  0
VERTEX
  8
PLAN_1
 62
     2
  6
CONTINUOUS
 10
-0.825870
 20
-0.187102
  0
VERTEX
  8
PLAN_1
 62
     2
  6
CONTINUOUS
 10
-0.822512
 20
-0.187102
  0
VERTEX
  8
PLAN_1
 62
     2
  6
CONTINUOUS
 10
-0.822512
 20
-0.193819
  0
VERTEX
  8
PLAN_1
 62
     2
  6
CONTINUOUS
 10
-0.823949
 20
-0.194299
  0
VERTEX
  8
PLAN_1
 62
     2
  6
CONTINUOUS
 10
-0.824909
 20
-0.194299
  0
VERTEX
  8
PLAN_1
 62
     2
  6
CONTINUOUS
 10
-0.825870
 20
-0.194299
  0
VERTEX
  8
PLAN_1
 62
     2
  6
CONTINUOUS
 10
-0.826827
 20
-0.194299
  0
VERTEX
  8
PLAN_1
 62
     2
  6
CONTINUOUS
 10
-0.827787
 20
-0.194780
  0
VERTEX
  8
PLAN_1
 62
     2
  6
CONTINUOUS
 10
-0.828268
 20
-0.194780
  0
VERTEX
  8
PLAN_1
 62
     2
  6
CONTINUOUS
 10
-0.828748
 20
-0.194780
  0
VERTEX
  8
PLAN_1
 62
     2
  6
CONTINUOUS
 10
-0.829228
 20
-0.194780
  0
VERTEX
  8
PLAN_1
 62
     2
  6
CONTINUOUS
 10
-0.832587
 20
-0.194780
  0
VERTEX
  8
PLAN_1
 62
     2
  6
CONTINUOUS
 10
-0.834984
 20
-0.193819
  0
VERTEX
  8
PLAN_1
 62
     2
  6
CONTINUOUS
 10
-0.836902
 20
-0.192858
  0
VERTEX
  8
PLAN_1
 62
     2
  6
CONTINUOUS
 10
-0.838343
 20
-0.191421
  0
VERTEX
  8
PLAN_1
 62
     2
  6
CONTINUOUS
 10
-0.839303
 20
-0.189500
  0
VERTEX
  8
PLAN_1
 62
     2
  6
CONTINUOUS
 10
-0.839780
 20
-0.187583
  0
VERTEX
  8
PLAN_1
 62
     2
  6
CONTINUOUS
 10
-0.840260
 20
-0.185661
  0
VERTEX
  8
PLAN_1
 62
     2
  6
CONTINUOUS
 10
-0.840260
 20
-0.183264
  0
VERTEX
  8
PLAN_1
 62
     2
  6
CONTINUOUS
 10
-0.840260
 20
-0.147283
  0
VERTEX
  8
PLAN_1
 62
     2
  6
CONTINUOUS
 10
-0.847937
 20
-0.147283
  0
VERTEX
  8
PLAN_1
 62
     2
  6
CONTINUOUS
 10
-0.847937
 20
-0.139606
  0
VERTEX
  8
PLAN_1
 62
     2
  6
CONTINUOUS
 10
-0.840260
 20
-0.139606
  0
VERTEX
  8
PLAN_1
 62
     2
  6
CONTINUOUS
 10
-0.840260
 20
-0.124256
  0
VERTEX
  8
PLAN_1
 62
     2
  6
CONTINUOUS
 10
-0.831146
 20
-0.124256
  0
VERTEX
  8
PLAN_1
 62
     2
  6
CONTINUOUS
 10
-0.831146
 20
-0.139606
  0
VERTEX
  8
PLAN_1
 62
     2
  6
CONTINUOUS
 10
-0.822512
 20
-0.139606
  0
VERTEX
  8
PLAN_1
 62
     2
  6
CONTINUOUS
 10
-0.822512
 20
-0.147283
  0
VERTEX
  8
PLAN_1
 62
     2
  6
CONTINUOUS
 10
-0.831146
 20
-0.147283
  0
SEQEND
  8
0
  0
POLYLINE
  8
PLAN_1
 62
     2
  6
CONTINUOUS
 66
     1
 40
0.003000
 41
0.003000
  0
VERTEX
  8
PLAN_1
 62
     2
  6
CONTINUOUS
 10
-0.803319
 20
-0.193819
  0
VERTEX
  8
PLAN_1
 62
     2
  6
CONTINUOUS
 10
-0.812437
 20
-0.193819
  0
VERTEX
  8
PLAN_1
 62
     2
  6
CONTINUOUS
 10
-0.812437
 20
-0.139606
  0
VERTEX
  8
PLAN_1
 62
     2
  6
CONTINUOUS
 10
-0.803799
 20
-0.139606
  0
VERTEX
  8
PLAN_1
 62
     2
  6
CONTINUOUS
 10
-0.803799
 20
-0.148724
  0
VERTEX
  8
PLAN_1
 62
     2
  6
CONTINUOUS
 10
-0.803319
 20
-0.148724
  0
VERTEX
  8
PLAN_1
 62
     2
  6
CONTINUOUS
 10
-0.801882
 20
-0.146323
  0
VERTEX
  8
PLAN_1
 62
     2
  6
CONTINUOUS
 10
-0.800441
 20
-0.144406
  0
VERTEX
  8
PLAN_1
 62
     2
  6
CONTINUOUS
 10
-0.799004
 20
-0.142484
  0
VERTEX
  8
PLAN_1
 62
     2
  6
CONTINUOUS
 10
-0.797083
 20
-0.141047
  0
VERTEX
  8
PLAN_1
 62
     2
  6
CONTINUOUS
 10
-0.795165
 20
-0.139606
  0
VERTEX
  8
PLAN_1
 62
     2
  6
CONTINUOUS
 10
-0.792768
 20
-0.138650
  0
VERTEX
  8
PLAN_1
 62
     2
  6
CONTINUOUS
 10
-0.790846
 20
-0.138169
  0
VERTEX
  8
PLAN_1
 62
     2
  6
CONTINUOUS
 10
-0.787969
 20
-0.138169
  0
VERTEX
  8
PLAN_1
 62
     2
  6
CONTINUOUS
 10
-0.787488
 20
-0.138169
  0
VERTEX
  8
PLAN_1
 62
     2
  6
CONTINUOUS
 10
-0.787008
 20
-0.138169
  0
VERTEX
  8
PLAN_1
 62
     2
  6
CONTINUOUS
 10
-0.786528
 20
-0.138169
  0
VERTEX
  8
PLAN_1
 62
     2
  6
CONTINUOUS
 10
-0.786051
 20
-0.138169
  0
VERTEX
  8
PLAN_1
 62
     2
  6
CONTINUOUS
 10
-0.785571
 20
-0.138169
  0
VERTEX
  8
PLAN_1
 62
     2
  6
CONTINUOUS
 10
-0.785571
 20
-0.147764
  0
VERTEX
  8
PLAN_1
 62
     2
  6
CONTINUOUS
 10
-0.789409
 20
-0.147764
  0
VERTEX
  8
PLAN_1
 62
     2
  6
CONTINUOUS
 10
-0.792287
 20
-0.148244
  0
VERTEX
  8
PLAN_1
 62
     2
  6
CONTINUOUS
 10
-0.795165
 20
-0.149201
  0
VERTEX
  8
PLAN_1
 62
     2
  6
CONTINUOUS
 10
-0.797563
 20
-0.150161
  0
VERTEX
  8
PLAN_1
 62
     2
  6
CONTINUOUS
 10
-0.799480
 20
-0.152079
  0
VERTEX
  8
PLAN_1
 62
     2
  6
CONTINUOUS
 10
-0.800921
 20
-0.154480
  0
VERTEX
  8
PLAN_1
 62
     2
  6
CONTINUOUS
 10
-0.802362
 20
-0.156878
  0
VERTEX
  8
PLAN_1
 62
     2
  6
CONTINUOUS
 10
-0.802839
 20
-0.159756
  0
VERTEX
  8
PLAN_1
 62
     2
  6
CONTINUOUS
 10
-0.803319
 20
-0.162634
  0
VERTEX
  8
PLAN_1
 62
     2
  6
CONTINUOUS
 10
-0.803319
 20
-0.193819
  0
SEQEND
  8
0
  0
POLYLINE
  8
PLAN_1
 62
     2
  6
CONTINUOUS
 66
     1
 40
0.003000
 41
0.003000
  0
VERTEX
  8
PLAN_1
 62
     2
  6
CONTINUOUS
 10
-0.756783
 20
-0.138169
  0
VERTEX
  8
PLAN_1
 62
     2
  6
CONTINUOUS
 10
-0.753425
 20
-0.138169
  0
VERTEX
  8
PLAN_1
 62
     2
  6
CONTINUOUS
 10
-0.750547
 20
-0.138650
  0
VERTEX
  8
PLAN_1
 62
     2
  6
CONTINUOUS
 10
-0.748150
 20
-0.139606
  0
VERTEX
  8
PLAN_1
 62
     2
  6
CONTINUOUS
 10
-0.745272
 20
-0.140567
  0
VERTEX
  8
PLAN_1
 62
     2
  6
CONTINUOUS
 10
-0.743350
 20
-0.142008
  0
VERTEX
  8
PLAN_1
 62
     2
  6
CONTINUOUS
 10
-0.740953
 20
-0.143445
  0
VERTEX
  8
PLAN_1
 62
     2
  6
CONTINUOUS
 10
-0.739035
 20
-0.145366
  0
VERTEX
  8
PLAN_1
 62
     2
  6
CONTINUOUS
 10
-0.737594
 20
-0.147283
  0
VERTEX
  8
PLAN_1
 62
     2
  6
CONTINUOUS
 10
-0.734717
 20
-0.151602
  0
VERTEX
  8
PLAN_1
 62
     2
  6
CONTINUOUS
 10
-0.732795
 20
-0.156398
  0
VERTEX
  8
PLAN_1
 62
     2
  6
CONTINUOUS
 10
-0.731839
 20
-0.161677
  0
VERTEX
  8
PLAN_1
 62
     2
  6
CONTINUOUS
 10
-0.731358
 20
-0.166953
  0
VERTEX
  8
PLAN_1
 62
     2
  6
CONTINUOUS
 10
-0.731839
 20
-0.172228
  0
VERTEX
  8
PLAN_1
 62
     2
  6
CONTINUOUS
 10
-0.732795
 20
-0.177028
  0
VERTEX
  8
PLAN_1
 62
     2
  6
CONTINUOUS
 10
-0.734717
 20
-0.181827
  0
VERTEX
  8
PLAN_1
 62
     2
  6
CONTINUOUS
 10
-0.737594
 20
-0.186622
  0
VERTEX
  8
PLAN_1
 62
     2
  6
CONTINUOUS
 10
-0.739035
 20
-0.188543
  0
VERTEX
  8
PLAN_1
 62
     2
  6
CONTINUOUS
 10
-0.740953
 20
-0.189980
  0
VERTEX
  8
PLAN_1
 62
     2
  6
CONTINUOUS
 10
-0.743350
 20
-0.191902
  0
VERTEX
  8
PLAN_1
 62
     2
  6
CONTINUOUS
 10
-0.745272
 20
-0.192858
  0
VERTEX
  8
PLAN_1
 62
     2
  6
CONTINUOUS
 10
-0.748150
 20
-0.194299
  0
VERTEX
  8
PLAN_1
 62
     2
  6
CONTINUOUS
 10
-0.750547
 20
-0.194780
  0
VERTEX
  8
PLAN_1
 62
     2
  6
CONTINUOUS
 10
-0.753425
 20
-0.195260
  0
VERTEX
  8
PLAN_1
 62
     2
  6
CONTINUOUS
 10
-0.756783
 20
-0.195736
  0
VERTEX
  8
PLAN_1
 62
     2
  6
CONTINUOUS
 10
-0.759661
 20
-0.195260
  0
VERTEX
  8
PLAN_1
 62
     2
  6
CONTINUOUS
 10
-0.763020
 20
-0.194780
  0
VERTEX
  8
PLAN_1
 62
     2
  6
CONTINUOUS
 10
-0.765421
 20
-0.194299
  0
VERTEX
  8
PLAN_1
 62
     2
  6
CONTINUOUS
 10
-0.767819
 20
-0.192858
  0
VERTEX
  8
PLAN_1
 62
     2
  6
CONTINUOUS
 10
-0.770217
 20
-0.191902
  0
VERTEX
  8
PLAN_1
 62
     2
  6
CONTINUOUS
 10
-0.772138
 20
-0.189980
  0
VERTEX
  8
PLAN_1
 62
     2
  6
CONTINUOUS
 10
-0.774055
 20
-0.188543
  0
VERTEX
  8
PLAN_1
 62
     2
  6
CONTINUOUS
 10
-0.775976
 20
-0.186622
  0
VERTEX
  8
PLAN_1
 62
     2
  6
CONTINUOUS
 10
-0.778374
 20
-0.181827
  0
VERTEX
  8
PLAN_1
 62
     2
  6
CONTINUOUS
 10
-0.780291
 20
-0.177028
  0
VERTEX
  8
PLAN_1
 62
     2
  6
CONTINUOUS
 10
-0.781732
 20
-0.172228
  0
VERTEX
  8
PLAN_1
 62
     2
  6
CONTINUOUS
 10
-0.782213
 20
-0.166953
  0
VERTEX
  8
PLAN_1
 62
     2
  6
CONTINUOUS
 10
-0.781732
 20
-0.161677
  0
VERTEX
  8
PLAN_1
 62
     2
  6
CONTINUOUS
 10
-0.780291
 20
-0.156398
  0
VERTEX
  8
PLAN_1
 62
     2
  6
CONTINUOUS
 10
-0.778374
 20
-0.151602
  0
VERTEX
  8
PLAN_1
 62
     2
  6
CONTINUOUS
 10
-0.775976
 20
-0.147283
  0
VERTEX
  8
PLAN_1
 62
     2
  6
CONTINUOUS
 10
-0.774055
 20
-0.145366
  0
VERTEX
  8
PLAN_1
 62
     2
  6
CONTINUOUS
 10
-0.772138
 20
-0.143445
  0
VERTEX
  8
PLAN_1
 62
     2
  6
CONTINUOUS
 10
-0.770217
 20
-0.142008
  0
VERTEX
  8
PLAN_1
 62
     2
  6
CONTINUOUS
 10
-0.767819
 20
-0.140567
  0
VERTEX
  8
PLAN_1
 62
     2
  6
CONTINUOUS
 10
-0.765421
 20
-0.139606
  0
VERTEX
  8
PLAN_1
 62
     2
  6
CONTINUOUS
 10
-0.763020
 20
-0.138650
  0
VERTEX
  8
PLAN_1
 62
     2
  6
CONTINUOUS
 10
-0.759661
 20
-0.138169
  0
VERTEX
  8
PLAN_1
 62
     2
  6
CONTINUOUS
 10
-0.756783
 20
-0.138169
  0
SEQEND
  8
0
  0
POLYLINE
  8
PLAN_1
 62
     2
  6
CONTINUOUS
 66
     1
 40
0.003000
 41
0.003000
  0
VERTEX
  8
PLAN_1
 62
     2
  6
CONTINUOUS
 10
-0.756783
 20
-0.187583
  0
VERTEX
  8
PLAN_1
 62
     2
  6
CONTINUOUS
 10
-0.754386
 20
-0.187583
  0
VERTEX
  8
PLAN_1
 62
     2
  6
CONTINUOUS
 10
-0.752469
 20
-0.187102
  0
VERTEX
  8
PLAN_1
 62
     2
  6
CONTINUOUS
 10
-0.750547
 20
-0.186142
  0
VERTEX
  8
PLAN_1
 62
     2
  6
CONTINUOUS
 10
-0.748630
 20
-0.185185
  0
VERTEX
  8
PLAN_1
 62
     2
  6
CONTINUOUS
 10
-0.745752
 20
-0.182783
  0
VERTEX
  8
PLAN_1
 62
     2
  6
CONTINUOUS
 10
-0.743831
 20
-0.179906
  0
VERTEX
  8
PLAN_1
 62
     2
  6
CONTINUOUS
 10
-0.742394
 20
-0.176547
  0
VERTEX
  8
PLAN_1
 62
     2
  6
CONTINUOUS
 10
-0.741433
 20
-0.173189
  0
VERTEX
  8
PLAN_1
 62
     2
  6
CONTINUOUS
 10
-0.740953
 20
-0.169831
  0
VERTEX
  8
PLAN_1
 62
     2
  6
CONTINUOUS
 10
-0.740953
 20
-0.166953
  0
VERTEX
  8
PLAN_1
 62
     2
  6
CONTINUOUS
 10
-0.740953
 20
-0.163594
  0
VERTEX
  8
PLAN_1
 62
     2
  6
CONTINUOUS
 10
-0.741433
 20
-0.160236
  0
VERTEX
  8
PLAN_1
 62
     2
  6
CONTINUOUS
 10
-0.742394
 20
-0.156878
  0
VERTEX
  8
PLAN_1
 62
     2
  6
CONTINUOUS
 10
-0.743831
 20
-0.153520
  0
VERTEX
  8
PLAN_1
 62
     2
  6
CONTINUOUS
 10
-0.745752
 20
-0.150642
  0
VERTEX
  8
PLAN_1
 62
     2
  6
CONTINUOUS
 10
-0.748630
 20
-0.148244
  0
VERTEX
  8
PLAN_1
 62
     2
  6
CONTINUOUS
 10
-0.750547
 20
-0.147283
  0
VERTEX
  8
PLAN_1
 62
     2
  6
CONTINUOUS
 10
-0.752469
 20
-0.146803
  0
VERTEX
  8
PLAN_1
 62
     2
  6
CONTINUOUS
 10
-0.754386
 20
-0.146323
  0
VERTEX
  8
PLAN_1
 62
     2
  6
CONTINUOUS
 10
-0.756783
 20
-0.145843
  0
VERTEX
  8
PLAN_1
 62
     2
  6
CONTINUOUS
 10
-0.759185
 20
-0.146323
  0
VERTEX
  8
PLAN_1
 62
     2
  6
CONTINUOUS
 10
-0.761102
 20
-0.146803
  0
VERTEX
  8
PLAN_1
 62
     2
  6
CONTINUOUS
 10
-0.763020
 20
-0.147283
  0
VERTEX
  8
PLAN_1
 62
     2
  6
CONTINUOUS
 10
-0.764941
 20
-0.148244
  0
VERTEX
  8
PLAN_1
 62
     2
  6
CONTINUOUS
 10
-0.767339
 20
-0.150642
  0
VERTEX
  8
PLAN_1
 62
     2
  6
CONTINUOUS
 10
-0.769736
 20
-0.153520
  0
VERTEX
  8
PLAN_1
 62
     2
  6
CONTINUOUS
 10
-0.771177
 20
-0.156878
  0
VERTEX
  8
PLAN_1
 62
     2
  6
CONTINUOUS
 10
-0.772138
 20
-0.160236
  0
VERTEX
  8
PLAN_1
 62
     2
  6
CONTINUOUS
 10
-0.772618
 20
-0.163594
  0
VERTEX
  8
PLAN_1
 62
     2
  6
CONTINUOUS
 10
-0.772618
 20
-0.166953
  0
VERTEX
  8
PLAN_1
 62
     2
  6
CONTINUOUS
 10
-0.772618
 20
-0.169831
  0
VERTEX
  8
PLAN_1
 62
     2
  6
CONTINUOUS
 10
-0.772138
 20
-0.173189
  0
VERTEX
  8
PLAN_1
 62
     2
  6
CONTINUOUS
 10
-0.771177
 20
-0.176547
  0
VERTEX
  8
PLAN_1
 62
     2
  6
CONTINUOUS
 10
-0.769736
 20
-0.179906
  0
VERTEX
  8
PLAN_1
 62
     2
  6
CONTINUOUS
 10
-0.767339
 20
-0.182783
  0
VERTEX
  8
PLAN_1
 62
     2
  6
CONTINUOUS
 10
-0.764941
 20
-0.185185
  0
VERTEX
  8
PLAN_1
 62
     2
  6
CONTINUOUS
 10
-0.763020
 20
-0.186142
  0
VERTEX
  8
PLAN_1
 62
     2
  6
CONTINUOUS
 10
-0.761102
 20
-0.187102
  0
VERTEX
  8
PLAN_1
 62
     2
  6
CONTINUOUS
 10
-0.759185
 20
-0.187583
  0
VERTEX
  8
PLAN_1
 62
     2
  6
CONTINUOUS
 10
-0.756783
 20
-0.187583
  0
SEQEND
  8
0
  0
POLYLINE
  8
PLAN_1
 62
     2
  6
CONTINUOUS
 66
     1
 40
0.003000
 41
0.003000
  0
VERTEX
  8
PLAN_1
 62
     2
  6
CONTINUOUS
 10
-0.685303
 20
-0.193819
  0
VERTEX
  8
PLAN_1
 62
     2
  6
CONTINUOUS
 10
-0.685303
 20
-0.186142
  0
VERTEX
  8
PLAN_1
 62
     2
  6
CONTINUOUS
 10
-0.685783
 20
-0.186142
  0
VERTEX
  8
PLAN_1
 62
     2
  6
CONTINUOUS
 10
-0.687220
 20
-0.188063
  0
VERTEX
  8
PLAN_1
 62
     2
  6
CONTINUOUS
 10
-0.688661
 20
-0.189980
  0
VERTEX
  8
PLAN_1
 62
     2
  6
CONTINUOUS
 10
-0.690579
 20
-0.191902
  0
VERTEX
  8
PLAN_1
 62
     2
  6
CONTINUOUS
 10
-0.692496
 20
-0.193339
  0
VERTEX
  8
PLAN_1
 62
     2
  6
CONTINUOUS
 10
-0.694898
 20
-0.194299
  0
VERTEX
  8
PLAN_1
 62
     2
  6
CONTINUOUS
 10
-0.697295
 20
-0.194780
  0
VERTEX
  8
PLAN_1
 62
     2
  6
CONTINUOUS
 10
-0.699693
 20
-0.195260
  0
VERTEX
  8
PLAN_1
 62
     2
  6
CONTINUOUS
 10
-0.703051
 20
-0.195736
  0
VERTEX
  8
PLAN_1
 62
     2
  6
CONTINUOUS
 10
-0.705929
 20
-0.195260
  0
VERTEX
  8
PLAN_1
 62
     2
  6
CONTINUOUS
 10
-0.709287
 20
-0.194780
  0
VERTEX
  8
PLAN_1
 62
     2
  6
CONTINUOUS
 10
-0.712169
 20
-0.193819
  0
VERTEX
  8
PLAN_1
 62
     2
  6
CONTINUOUS
 10
-0.715047
 20
-0.191902
  0
VERTEX
  8
PLAN_1
 62
     2
  6
CONTINUOUS
 10
-0.716965
 20
-0.189980
  0
VERTEX
  8
PLAN_1
 62
     2
  6
CONTINUOUS
 10
-0.718886
 20
-0.187102
  0
VERTEX
  8
PLAN_1
 62
     2
  6
CONTINUOUS
 10
-0.720323
 20
-0.183264
  0
VERTEX
  8
PLAN_1
 62
     2
  6
CONTINUOUS
 10
-0.720803
 20
-0.178945
  0
VERTEX
  8
PLAN_1
 62
     2
  6
CONTINUOUS
 10
-0.720803
 20
-0.139606
  0
VERTEX
  8
PLAN_1
 62
     2
  6
CONTINUOUS
 10
-0.711689
 20
-0.139606
  0
VERTEX
  8
PLAN_1
 62
     2
  6
CONTINUOUS
 10
-0.711689
 20
-0.175587
  0
VERTEX
  8
PLAN_1
 62
     2
  6
CONTINUOUS
 10
-0.711209
 20
-0.178945
  0
VERTEX
  8
PLAN_1
 62
     2
  6
CONTINUOUS
 10
-0.710728
 20
-0.181346
  0
VERTEX
  8
PLAN_1
 62
     2
  6
CONTINUOUS
 10
-0.709768
 20
-0.183264
  0
VERTEX
  8
PLAN_1
 62
     2
  6
CONTINUOUS
 10
-0.708331
 20
-0.185185
  0
VERTEX
  8
PLAN_1
 62
     2
  6
CONTINUOUS
 10
-0.706890
 20
-0.186142
  0
VERTEX
  8
PLAN_1
 62
     2
  6
CONTINUOUS
 10
-0.704972
 20
-0.187102
  0
VERTEX
  8
PLAN_1
 62
     2
  6
CONTINUOUS
 10
-0.703051
 20
-0.187583
  0
VERTEX
  8
PLAN_1
 62
     2
  6
CONTINUOUS
 10
-0.701134
 20
-0.187583
  0
VERTEX
  8
PLAN_1
 62
     2
  6
CONTINUOUS
 10
-0.697295
 20
-0.187102
  0
VERTEX
  8
PLAN_1
 62
     2
  6
CONTINUOUS
 10
-0.693937
 20
-0.186142
  0
VERTEX
  8
PLAN_1
 62
     2
  6
CONTINUOUS
 10
-0.691059
 20
-0.184224
  0
VERTEX
  8
PLAN_1
 62
     2
  6
CONTINUOUS
 10
-0.689142
 20
-0.181827
  0
VERTEX
  8
PLAN_1
 62
     2
  6
CONTINUOUS
 10
-0.687701
 20
-0.178945
  0
VERTEX
  8
PLAN_1
 62
     2
  6
CONTINUOUS
 10
-0.686740
 20
-0.175587
  0
VERTEX
  8
PLAN_1
 62
     2
  6
CONTINUOUS
 10
-0.686260
 20
-0.172709
  0
VERTEX
  8
PLAN_1
 62
     2
  6
CONTINUOUS
 10
-0.686260
 20
-0.169831
  0
VERTEX
  8
PLAN_1
 62
     2
  6
CONTINUOUS
 10
-0.686260
 20
-0.139606
  0
VERTEX
  8
PLAN_1
 62
     2
  6
CONTINUOUS
 10
-0.676665
 20
-0.139606
  0
VERTEX
  8
PLAN_1
 62
     2
  6
CONTINUOUS
 10
-0.676665
 20
-0.193819
  0
VERTEX
  8
PLAN_1
 62
     2
  6
CONTINUOUS
 10
-0.685303
 20
-0.193819
  0
SEQEND
  8
0
  0
POLYLINE
  8
PLAN_1
 62
     2
  6
CONTINUOUS
 66
     1
 40
0.003000
 41
0.003000
  0
VERTEX
  8
PLAN_1
 62
     2
  6
CONTINUOUS
 10
-0.632051
 20
-0.154961
  0
VERTEX
  8
PLAN_1
 62
     2
  6
CONTINUOUS
 10
-0.632528
 20
-0.154000
  0
VERTEX
  8
PLAN_1
 62
     2
  6
CONTINUOUS
 10
-0.632528
 20
-0.152079
  0
VERTEX
  8
PLAN_1
 62
     2
  6
CONTINUOUS
 10
-0.633488
 20
-0.150642
  0
VERTEX
  8
PLAN_1
 62
     2
  6
CONTINUOUS
 10
-0.634449
 20
-0.149201
  0
VERTEX
  8
PLAN_1
 62
     2
  6
CONTINUOUS
 10
-0.635886
 20
-0.147764
  0
VERTEX
  8
PLAN_1
 62
     2
  6
CONTINUOUS
 10
-0.638287
 20
-0.146803
  0
VERTEX
  8
PLAN_1
 62
     2
  6
CONTINUOUS
 10
-0.641165
 20
-0.146323
  0
VERTEX
  8
PLAN_1
 62
     2
  6
CONTINUOUS
 10
-0.645004
 20
-0.145843
  0
VERTEX
  8
PLAN_1
 62
     2
  6
CONTINUOUS
 10
-0.646441
 20
-0.145843
  0
VERTEX
  8
PLAN_1
 62
     2
  6
CONTINUOUS
 10
-0.647882
 20
-0.146323
  0
VERTEX
  8
PLAN_1
 62
     2
  6
CONTINUOUS
 10
-0.649799
 20
-0.146803
  0
VERTEX
  8
PLAN_1
 62
     2
  6
CONTINUOUS
 10
-0.651720
 20
-0.147283
  0
VERTEX
  8
PLAN_1
 62
     2
  6
CONTINUOUS
 10
-0.653157
 20
-0.148244
  0
VERTEX
  8
PLAN_1
 62
     2
  6
CONTINUOUS
 10
-0.654598
 20
-0.149681
  0
VERTEX
  8
PLAN_1
 62
     2
  6
CONTINUOUS
 10
-0.655559
 20
-0.151602
  0
VERTEX
  8
PLAN_1
 62
     2
  6
CONTINUOUS
 10
-0.656035
 20
-0.153520
  0
VERTEX
  8
PLAN_1
 62
     2
  6
CONTINUOUS
 10
-0.656035
 20
-0.155437
  0
VERTEX
  8
PLAN_1
 62
     2
  6
CONTINUOUS
 10
-0.655559
 20
-0.156398
  0
VERTEX
  8
PLAN_1
 62
     2
  6
CONTINUOUS
 10
-0.654598
 20
-0.157358
  0
VERTEX
  8
PLAN_1
 62
     2
  6
CONTINUOUS
 10
-0.653638
 20
-0.158319
  0
VERTEX
  8
PLAN_1
 62
     2
  6
CONTINUOUS
 10
-0.652201
 20
-0.159276
  0
VERTEX
  8
PLAN_1
 62
     2
  6
CONTINUOUS
 10
-0.650760
 20
-0.159756
  0
VERTEX
  8
PLAN_1
 62
     2
  6
CONTINUOUS
 10
-0.648362
 20
-0.160236
  0
VERTEX
  8
PLAN_1
 62
     2
  6
CONTINUOUS
 10
-0.645961
 20
-0.161197
  0
VERTEX
  8
PLAN_1
 62
     2
  6
CONTINUOUS
 10
-0.636846
 20
-0.163114
  0
VERTEX
  8
PLAN_1
 62
     2
  6
CONTINUOUS
 10
-0.633008
 20
-0.164555
  0
VERTEX
  8
PLAN_1
 62
     2
  6
CONTINUOUS
 10
-0.629650
 20
-0.165512
  0
VERTEX
  8
PLAN_1
 62
     2
  6
CONTINUOUS
 10
-0.627252
 20
-0.166953
  0
VERTEX
  8
PLAN_1
 62
     2
  6
CONTINUOUS
 10
-0.624854
 20
-0.168870
  0
VERTEX
  8
PLAN_1
 62
     2
  6
CONTINUOUS
 10
-0.623413
 20
-0.170791
  0
VERTEX
  8
PLAN_1
 62
     2
  6
CONTINUOUS
 10
-0.622453
 20
-0.172709
  0
VERTEX
  8
PLAN_1
 62
     2
  6
CONTINUOUS
 10
-0.621976
 20
-0.175110
  0
VERTEX
  8
PLAN_1
 62
     2
  6
CONTINUOUS
 10
-0.621496
 20
-0.177508
  0
VERTEX
  8
PLAN_1
 62
     2
  6
CONTINUOUS
 10
-0.621976
 20
-0.181827
  0
VERTEX
  8
PLAN_1
 62
     2
  6
CONTINUOUS
 10
-0.623413
 20
-0.185185
  0
VERTEX
  8
PLAN_1
 62
     2
  6
CONTINUOUS
 10
-0.625335
 20
-0.188063
  0
VERTEX
  8
PLAN_1
 62
     2
  6
CONTINUOUS
 10
-0.627732
 20
-0.190941
  0
VERTEX
  8
PLAN_1
 62
     2
  6
CONTINUOUS
 10
-0.631091
 20
-0.192858
  0
VERTEX
  8
PLAN_1
 62
     2
  6
CONTINUOUS
 10
-0.634449
 20
-0.194299
  0
VERTEX
  8
PLAN_1
 62
     2
  6
CONTINUOUS
 10
-0.638768
 20
-0.195260
  0
VERTEX
  8
PLAN_1
 62
     2
  6
CONTINUOUS
 10
-0.643083
 20
-0.195736
  0
VERTEX
  8
PLAN_1
 62
     2
  6
CONTINUOUS
 10
-0.646921
 20
-0.195260
  0
VERTEX
  8
PLAN_1
 62
     2
  6
CONTINUOUS
 10
-0.650280
 20
-0.195260
  0
VERTEX
  8
PLAN_1
 62
     2
  6
CONTINUOUS
 10
-0.653157
 20
-0.194299
  0
VERTEX
  8
PLAN_1
 62
     2
  6
CONTINUOUS
 10
-0.656035
 20
-0.193339
  0
VERTEX
  8
PLAN_1
 62
     2
  6
CONTINUOUS
 10
-0.657957
 20
-0.192378
  0
VERTEX
  8
PLAN_1
 62
     2
  6
CONTINUOUS
 10
-0.659874
 20
-0.191421
  0
VERTEX
  8
PLAN_1
 62
     2
  6
CONTINUOUS
 10
-0.661315
 20
-0.189980
  0
VERTEX
  8
PLAN_1
 62
     2
  6
CONTINUOUS
 10
-0.662752
 20
-0.188543
  0
VERTEX
  8
PLAN_1
 62
     2
  6
CONTINUOUS
 10
-0.664673
 20
-0.185661
  0
VERTEX
  8
PLAN_1
 62
     2
  6
CONTINUOUS
 10
-0.665634
 20
-0.182303
  0
VERTEX
  8
PLAN_1
 62
     2
  6
CONTINUOUS
 10
-0.666110
 20
-0.179425
  0
VERTEX
  8
PLAN_1
 62
     2
  6
CONTINUOUS
 10
-0.666591
 20
-0.176547
  0
VERTEX
  8
PLAN_1
 62
     2
  6
CONTINUOUS
 10
-0.657476
 20
-0.176547
  0
VERTEX
  8
PLAN_1
 62
     2
  6
CONTINUOUS
 10
-0.657476
 20
-0.178469
  0
VERTEX
  8
PLAN_1
 62
     2
  6
CONTINUOUS
 10
-0.656996
 20
-0.179906
  0
VERTEX
  8
PLAN_1
 62
     2
  6
CONTINUOUS
 10
-0.656516
 20
-0.181827
  0
VERTEX
  8
PLAN_1
 62
     2
  6
CONTINUOUS
 10
-0.655079
 20
-0.183744
  0
VERTEX
  8
PLAN_1
 62
     2
  6
CONTINUOUS
 10
-0.653638
 20
-0.185185
  0
VERTEX
  8
PLAN_1
 62
     2
  6
CONTINUOUS
 10
-0.650760
 20
-0.186622
  0
VERTEX
  8
PLAN_1
 62
     2
  6
CONTINUOUS
 10
-0.647402
 20
-0.187583
  0
VERTEX
  8
PLAN_1
 62
     2
  6
CONTINUOUS
 10
-0.643083
 20
-0.187583
  0
VERTEX
  8
PLAN_1
 62
     2
  6
CONTINUOUS
 10
-0.640685
 20
-0.187583
  0
VERTEX
  8
PLAN_1
 62
     2
  6
CONTINUOUS
 10
-0.638287
 20
-0.187102
  0
VERTEX
  8
PLAN_1
 62
     2
  6
CONTINUOUS
 10
-0.636366
 20
-0.186622
  0
VERTEX
  8
PLAN_1
 62
     2
  6
CONTINUOUS
 10
-0.634449
 20
-0.185661
  0
VERTEX
  8
PLAN_1
 62
     2
  6
CONTINUOUS
 10
-0.633008
 20
-0.184224
  0
VERTEX
  8
PLAN_1
 62
     2
  6
CONTINUOUS
 10
-0.631571
 20
-0.182783
  0
VERTEX
  8
PLAN_1
 62
     2
  6
CONTINUOUS
 10
-0.631091
 20
-0.181346
  0
VERTEX
  8
PLAN_1
 62
     2
  6
CONTINUOUS
 10
-0.630610
 20
-0.178945
  0
VERTEX
  8
PLAN_1
 62
     2
  6
CONTINUOUS
 10
-0.631091
 20
-0.177508
  0
VERTEX
  8
PLAN_1
 62
     2
  6
CONTINUOUS
 10
-0.631571
 20
-0.176067
  0
VERTEX
  8
PLAN_1
 62
     2
  6
CONTINUOUS
 10
-0.632051
 20
-0.175110
  0
VERTEX
  8
PLAN_1
 62
     2
  6
CONTINUOUS
 10
-0.633008
 20
-0.174150
  0
VERTEX
  8
PLAN_1
 62
     2
  6
CONTINUOUS
 10
-0.634929
 20
-0.173669
  0
VERTEX
  8
PLAN_1
 62
     2
  6
CONTINUOUS
 10
-0.636366
 20
-0.172709
  0
VERTEX
  8
PLAN_1
 62
     2
  6
CONTINUOUS
 10
-0.638768
 20
-0.172228
  0
VERTEX
  8
PLAN_1
 62
     2
  6
CONTINUOUS
 10
-0.641646
 20
-0.171272
  0
VERTEX
  8
PLAN_1
 62
     2
  6
CONTINUOUS
 10
-0.652201
 20
-0.168870
  0
VERTEX
  8
PLAN_1
 62
     2
  6
CONTINUOUS
 10
-0.655079
 20
-0.167913
  0
VERTEX
  8
PLAN_1
 62
     2
  6
CONTINUOUS
 10
-0.657476
 20
-0.166953
  0
VERTEX
  8
PLAN_1
 62
     2
  6
CONTINUOUS
 10
-0.659394
 20
-0.165512
  0
VERTEX
  8
PLAN_1
 62
     2
  6
CONTINUOUS
 10
-0.661315
 20
-0.164075
  0
VERTEX
  8
PLAN_1
 62
     2
  6
CONTINUOUS
 10
-0.662752
 20
-0.162634
  0
VERTEX
  8
PLAN_1
 62
     2
  6
CONTINUOUS
 10
-0.663713
 20
-0.160236
  0
VERTEX
  8
PLAN_1
 62
     2
  6
CONTINUOUS
 10
-0.664673
 20
-0.158319
  0
VERTEX
  8
PLAN_1
 62
     2
  6
CONTINUOUS
 10
-0.664673
 20
-0.155437
  0
VERTEX
  8
PLAN_1
 62
     2
  6
CONTINUOUS
 10
-0.664193
 20
-0.151122
  0
VERTEX
  8
PLAN_1
 62
     2
  6
CONTINUOUS
 10
-0.663232
 20
-0.147764
  0
VERTEX
  8
PLAN_1
 62
     2
  6
CONTINUOUS
 10
-0.661315
 20
-0.144886
  0
VERTEX
  8
PLAN_1
 62
     2
  6
CONTINUOUS
 10
-0.658437
 20
-0.142484
  0
VERTEX
  8
PLAN_1
 62
     2
  6
CONTINUOUS
 10
-0.655559
 20
-0.140567
  0
VERTEX
  8
PLAN_1
 62
     2
  6
CONTINUOUS
 10
-0.651720
 20
-0.139126
  0
VERTEX
  8
PLAN_1
 62
     2
  6
CONTINUOUS
 10
-0.648362
 20
-0.138169
  0
VERTEX
  8
PLAN_1
 62
     2
  6
CONTINUOUS
 10
-0.644043
 20
-0.138169
  0
VERTEX
  8
PLAN_1
 62
     2
  6
CONTINUOUS
 10
-0.640685
 20
-0.138169
  0
VERTEX
  8
PLAN_1
 62
     2
  6
CONTINUOUS
 10
-0.637807
 20
-0.138650
  0
VERTEX
  8
PLAN_1
 62
     2
  6
CONTINUOUS
 10
-0.634929
 20
-0.139606
  0
VERTEX
  8
PLAN_1
 62
     2
  6
CONTINUOUS
 10
-0.632528
 20
-0.140567
  0
VERTEX
  8
PLAN_1
 62
     2
  6
CONTINUOUS
 10
-0.630610
 20
-0.141528
  0
VERTEX
  8
PLAN_1
 62
     2
  6
CONTINUOUS
 10
-0.629169
 20
-0.142965
  0
VERTEX
  8
PLAN_1
 62
     2
  6
CONTINUOUS
 10
-0.627732
 20
-0.143925
  0
VERTEX
  8
PLAN_1
 62
     2
  6
CONTINUOUS
 10
-0.626291
 20
-0.145366
  0
VERTEX
  8
PLAN_1
 62
     2
  6
CONTINUOUS
 10
-0.624854
 20
-0.148724
  0
VERTEX
  8
PLAN_1
 62
     2
  6
CONTINUOUS
 10
-0.623894
 20
-0.151122
  0
VERTEX
  8
PLAN_1
 62
     2
  6
CONTINUOUS
 10
-0.623413
 20
-0.153520
  0
VERTEX
  8
PLAN_1
 62
     2
  6
CONTINUOUS
 10
-0.623413
 20
-0.154961
  0
VERTEX
  8
PLAN_1
 62
     2
  6
CONTINUOUS
 10
-0.632051
 20
-0.154961
  0
SEQEND
  8
0
  0
POLYLINE
  8
PLAN_1
 62
     2
  6
CONTINUOUS
 66
     1
 40
0.003000
 41
0.003000
  0
VERTEX
  8
PLAN_1
 62
     2
  6
CONTINUOUS
 10
-0.570642
 20
-0.147283
  0
VERTEX
  8
PLAN_1
 62
     2
  6
CONTINUOUS
 10
-0.570642
 20
-0.182783
  0
VERTEX
  8
PLAN_1
 62
     2
  6
CONTINUOUS
 10
-0.570642
 20
-0.184224
  0
VERTEX
  8
PLAN_1
 62
     2
  6
CONTINUOUS
 10
-0.570161
 20
-0.185185
  0
VERTEX
  8
PLAN_1
 62
     2
  6
CONTINUOUS
 10
-0.569681
 20
-0.185661
  0
VERTEX
  8
PLAN_1
 62
     2
  6
CONTINUOUS
 10
-0.568724
 20
-0.186142
  0
VERTEX
  8
PLAN_1
 62
     2
  6
CONTINUOUS
 10
-0.567764
 20
-0.186622
  0
VERTEX
  8
PLAN_1
 62
     2
  6
CONTINUOUS
 10
-0.566803
 20
-0.186622
  0
VERTEX
  8
PLAN_1
 62
     2
  6
CONTINUOUS
 10
-0.566323
 20
-0.186622
  0
VERTEX
  8
PLAN_1
 62
     2
  6
CONTINUOUS
 10
-0.565366
 20
-0.187102
  0
VERTEX
  8
PLAN_1
 62
     2
  6
CONTINUOUS
 10
-0.562008
 20
-0.187102
  0
VERTEX
  8
PLAN_1
 62
     2
  6
CONTINUOUS
 10
-0.562008
 20
-0.193819
  0
VERTEX
  8
PLAN_1
 62
     2
  6
CONTINUOUS
 10
-0.563445
 20
-0.194299
  0
VERTEX
  8
PLAN_1
 62
     2
  6
CONTINUOUS
 10
-0.564406
 20
-0.194299
  0
VERTEX
  8
PLAN_1
 62
     2
  6
CONTINUOUS
 10
-0.565366
 20
-0.194299
  0
VERTEX
  8
PLAN_1
 62
     2
  6
CONTINUOUS
 10
-0.566323
 20
-0.194299
  0
VERTEX
  8
PLAN_1
 62
     2
  6
CONTINUOUS
 10
-0.567283
 20
-0.194780
  0
VERTEX
  8
PLAN_1
 62
     2
  6
CONTINUOUS
 10
-0.567764
 20
-0.194780
  0
VERTEX
  8
PLAN_1
 62
     2
  6
CONTINUOUS
 10
-0.568724
 20
-0.194780
  0
VERTEX
  8
PLAN_1
 62
     2
  6
CONTINUOUS
 10
-0.569201
 20
-0.194780
  0
VERTEX
  8
PLAN_1
 62
     2
  6
CONTINUOUS
 10
-0.572083
 20
-0.194780
  0
VERTEX
  8
PLAN_1
 62
     2
  6
CONTINUOUS
 10
-0.574480
 20
-0.193819
  0
VERTEX
  8
PLAN_1
 62
     2
  6
CONTINUOUS
 10
-0.576398
 20
-0.192858
  0
VERTEX
  8
PLAN_1
 62
     2
  6
CONTINUOUS
 10
-0.577839
 20
-0.191421
  0
VERTEX
  8
PLAN_1
 62
     2
  6
CONTINUOUS
 10
-0.578799
 20
-0.189500
  0
VERTEX
  8
PLAN_1
 62
     2
  6
CONTINUOUS
 10
-0.579756
 20
-0.187583
  0
VERTEX
  8
PLAN_1
 62
     2
  6
CONTINUOUS
 10
-0.579756
 20
-0.185661
  0
VERTEX
  8
PLAN_1
 62
     2
  6
CONTINUOUS
 10
-0.580236
 20
-0.183264
  0
VERTEX
  8
PLAN_1
 62
     2
  6
CONTINUOUS
 10
-0.580236
 20
-0.147283
  0
VERTEX
  8
PLAN_1
 62
     2
  6
CONTINUOUS
 10
-0.587433
 20
-0.147283
  0
VERTEX
  8
PLAN_1
 62
     2
  6
CONTINUOUS
 10
-0.587433
 20
-0.139606
  0
VERTEX
  8
PLAN_1
 62
     2
  6
CONTINUOUS
 10
-0.580236
 20
-0.139606
  0
VERTEX
  8
PLAN_1
 62
     2
  6
CONTINUOUS
 10
-0.580236
 20
-0.124256
  0
VERTEX
  8
PLAN_1
 62
     2
  6
CONTINUOUS
 10
-0.570642
 20
-0.124256
  0
VERTEX
  8
PLAN_1
 62
     2
  6
CONTINUOUS
 10
-0.570642
 20
-0.139606
  0
VERTEX
  8
PLAN_1
 62
     2
  6
CONTINUOUS
 10
-0.562008
 20
-0.139606
  0
VERTEX
  8
PLAN_1
 62
     2
  6
CONTINUOUS
 10
-0.562008
 20
-0.147283
  0
VERTEX
  8
PLAN_1
 62
     2
  6
CONTINUOUS
 10
-0.570642
 20
-0.147283
  0
SEQEND
  8
0
  0
POLYLINE
  8
PLAN_1
 62
     2
  6
CONTINUOUS
 66
     1
 40
0.003000
 41
0.003000
  0
VERTEX
  8
PLAN_1
 62
     2
  6
CONTINUOUS
 10
-0.553370
 20
-0.156398
  0
VERTEX
  8
PLAN_1
 62
     2
  6
CONTINUOUS
 10
-0.552890
 20
-0.151602
  0
VERTEX
  8
PLAN_1
 62
     2
  6
CONTINUOUS
 10
-0.551453
 20
-0.147764
  0
VERTEX
  8
PLAN_1
 62
     2
  6
CONTINUOUS
 10
-0.549531
 20
-0.144886
  0
VERTEX
  8
PLAN_1
 62
     2
  6
CONTINUOUS
 10
-0.547134
 20
-0.142484
  0
VERTEX
  8
PLAN_1
 62
     2
  6
CONTINUOUS
 10
-0.543776
 20
-0.140567
  0
VERTEX
  8
PLAN_1
 62
     2
  6
CONTINUOUS
 10
-0.539937
 20
-0.139126
  0
VERTEX
  8
PLAN_1
 62
     2
  6
CONTINUOUS
 10
-0.535618
 20
-0.138169
  0
VERTEX
  8
PLAN_1
 62
     2
  6
CONTINUOUS
 10
-0.530823
 20
-0.138169
  0
VERTEX
  8
PLAN_1
 62
     2
  6
CONTINUOUS
 10
-0.528902
 20
-0.138169
  0
VERTEX
  8
PLAN_1
 62
     2
  6
CONTINUOUS
 10
-0.526024
 20
-0.138650
  0
VERTEX
  8
PLAN_1
 62
     2
  6
CONTINUOUS
 10
-0.522665
 20
-0.139126
  0
VERTEX
  8
PLAN_1
 62
     2
  6
CONTINUOUS
 10
-0.519307
 20
-0.140567
  0
VERTEX
  8
PLAN_1
 62
     2
  6
CONTINUOUS
 10
-0.515949
 20
-0.142484
  0
VERTEX
  8
PLAN_1
 62
     2
  6
CONTINUOUS
 10
-0.513551
 20
-0.144886
  0
VERTEX
  8
PLAN_1
 62
     2
  6
CONTINUOUS
 10
-0.512110
 20
-0.146803
  0
VERTEX
  8
PLAN_1
 62
     2
  6
CONTINUOUS
 10
-0.511634
 20
-0.148724
  0
VERTEX
  8
PLAN_1
 62
     2
  6
CONTINUOUS
 10
-0.511154
 20
-0.150642
  0
VERTEX
  8
PLAN_1
 62
     2
  6
CONTINUOUS
 10
-0.510673
 20
-0.153039
  0
VERTEX
  8
PLAN_1
 62
     2
  6
CONTINUOUS
 10
-0.510673
 20
-0.184705
  0
VERTEX
  8
PLAN_1
 62
     2
  6
CONTINUOUS
 10
-0.510673
 20
-0.185185
  0
VERTEX
  8
PLAN_1
 62
     2
  6
CONTINUOUS
 10
-0.510673
 20
-0.186142
  0
VERTEX
  8
PLAN_1
 62
     2
  6
CONTINUOUS
 10
-0.510193
 20
-0.186622
  0
VERTEX
  8
PLAN_1
 62
     2
  6
CONTINUOUS
 10
-0.510193
 20
-0.187102
  0
VERTEX
  8
PLAN_1
 62
     2
  6
CONTINUOUS
 10
-0.509713
 20
-0.187583
  0
VERTEX
  8
PLAN_1
 62
     2
  6
CONTINUOUS
 10
-0.509232
 20
-0.187583
  0
VERTEX
  8
PLAN_1
 62
     2
  6
CONTINUOUS
 10
-0.508276
 20
-0.187583
  0
VERTEX
  8
PLAN_1
 62
     2
  6
CONTINUOUS
 10
-0.507795
 20
-0.187583
  0
VERTEX
  8
PLAN_1
 62
     2
  6
CONTINUOUS
 10
-0.507315
 20
-0.187583
  0
VERTEX
  8
PLAN_1
 62
     2
  6
CONTINUOUS
 10
-0.506835
 20
-0.187583
  0
VERTEX
  8
PLAN_1
 62
     2
  6
CONTINUOUS
 10
-0.506354
 20
-0.187583
  0
VERTEX
  8
PLAN_1
 62
     2
  6
CONTINUOUS
 10
-0.505874
 20
-0.187583
  0
VERTEX
  8
PLAN_1
 62
     2
  6
CONTINUOUS
 10
-0.505394
 20
-0.187583
  0
VERTEX
  8
PLAN_1
 62
     2
  6
CONTINUOUS
 10
-0.504917
 20
-0.187583
  0
VERTEX
  8
PLAN_1
 62
     2
  6
CONTINUOUS
 10
-0.504917
 20
-0.193819
  0
VERTEX
  8
PLAN_1
 62
     2
  6
CONTINUOUS
 10
-0.505394
 20
-0.194299
  0
VERTEX
  8
PLAN_1
 62
     2
  6
CONTINUOUS
 10
-0.505874
 20
-0.194299
  0
VERTEX
  8
PLAN_1
 62
     2
  6
CONTINUOUS
 10
-0.506354
 20
-0.194780
  0
VERTEX
  8
PLAN_1
 62
     2
  6
CONTINUOUS
 10
-0.507315
 20
-0.194780
  0
VERTEX
  8
PLAN_1
 62
     2
  6
CONTINUOUS
 10
-0.507795
 20
-0.194780
  0
VERTEX
  8
PLAN_1
 62
     2
  6
CONTINUOUS
 10
-0.508276
 20
-0.194780
  0
VERTEX
  8
PLAN_1
 62
     2
  6
CONTINUOUS
 10
-0.509232
 20
-0.195260
  0
VERTEX
  8
PLAN_1
 62
     2
  6
CONTINUOUS
 10
-0.509713
 20
-0.195260
  0
VERTEX
  8
PLAN_1
 62
     2
  6
CONTINUOUS
 10
-0.512591
 20
-0.194780
  0
VERTEX
  8
PLAN_1
 62
     2
  6
CONTINUOUS
 10
-0.514512
 20
-0.194299
  0
VERTEX
  8
PLAN_1
 62
     2
  6
CONTINUOUS
 10
-0.516429
 20
-0.193339
  0
VERTEX
  8
PLAN_1
 62
     2
  6
CONTINUOUS
 10
-0.517390
 20
-0.192378
  0
VERTEX
  8
PLAN_1
 62
     2
  6
CONTINUOUS
 10
-0.518350
 20
-0.191421
  0
VERTEX
  8
PLAN_1
 62
     2
  6
CONTINUOUS
 10
-0.518827
 20
-0.189980
  0
VERTEX
  8
PLAN_1
 62
     2
  6
CONTINUOUS
 10
-0.519307
 20
-0.188543
  0
VERTEX
  8
PLAN_1
 62
     2
  6
CONTINUOUS
 10
-0.519307
 20
-0.186622
  0
VERTEX
  8
PLAN_1
 62
     2
  6
CONTINUOUS
 10
-0.520748
 20
-0.188063
  0
VERTEX
  8
PLAN_1
 62
     2
  6
CONTINUOUS
 10
-0.522665
 20
-0.189980
  0
VERTEX
  8
PLAN_1
 62
     2
  6
CONTINUOUS
 10
-0.524587
 20
-0.191421
  0
VERTEX
  8
PLAN_1
 62
     2
  6
CONTINUOUS
 10
-0.526504
 20
-0.192858
  0
VERTEX
  8
PLAN_1
 62
     2
  6
CONTINUOUS
 10
-0.529382
 20
-0.193819
  0
VERTEX
  8
PLAN_1
 62
     2
  6
CONTINUOUS
 10
-0.532260
 20
-0.194780
  0
VERTEX
  8
PLAN_1
 62
     2
  6
CONTINUOUS
 10
-0.535618
 20
-0.195260
  0
VERTEX
  8
PLAN_1
 62
     2
  6
CONTINUOUS
 10
-0.538976
 20
-0.195736
  0
VERTEX
  8
PLAN_1
 62
     2
  6
CONTINUOUS
 10
-0.542815
 20
-0.195260
  0
VERTEX
  8
PLAN_1
 62
     2
  6
CONTINUOUS
 10
-0.546173
 20
-0.194299
  0
VERTEX
  8
PLAN_1
 62
     2
  6
CONTINUOUS
 10
-0.549051
 20
-0.193339
  0
VERTEX
  8
PLAN_1
 62
     2
  6
CONTINUOUS
 10
-0.551453
 20
-0.191421
  0
VERTEX
  8
PLAN_1
 62
     2
  6
CONTINUOUS
 10
-0.553370
 20
-0.189020
  0
VERTEX
  8
PLAN_1
 62
     2
  6
CONTINUOUS
 10
-0.554811
 20
-0.186142
  0
VERTEX
  8
PLAN_1
 62
     2
  6
CONTINUOUS
 10
-0.555768
 20
-0.183264
  0
VERTEX
  8
PLAN_1
 62
     2
  6
CONTINUOUS
 10
-0.556248
 20
-0.179906
  0
VERTEX
  8
PLAN_1
 62
     2
  6
CONTINUOUS
 10
-0.556248
 20
-0.177988
  0
VERTEX
  8
PLAN_1
 62
     2
  6
CONTINUOUS
 10
-0.555768
 20
-0.175587
  0
VERTEX
  8
PLAN_1
 62
     2
  6
CONTINUOUS
 10
-0.554811
 20
-0.173189
  0
VERTEX
  8
PLAN_1
 62
     2
  6
CONTINUOUS
 10
-0.553370
 20
-0.170311
  0
VERTEX
  8
PLAN_1
 62
     2
  6
CONTINUOUS
 10
-0.551453
 20
-0.167913
  0
VERTEX
  8
PLAN_1
 62
     2
  6
CONTINUOUS
 10
-0.548575
 20
-0.165512
  0
VERTEX
  8
PLAN_1
 62
     2
  6
CONTINUOUS
 10
-0.544736
 20
-0.164075
  0
VERTEX
  8
PLAN_1
 62
     2
  6
CONTINUOUS
 10
-0.539457
 20
-0.162634
  0
VERTEX
  8
PLAN_1
 62
     2
  6
CONTINUOUS
 10
-0.524587
 20
-0.161197
  0
VERTEX
  8
PLAN_1
 62
     2
  6
CONTINUOUS
 10
-0.523626
 20
-0.160717
  0
VERTEX
  8
PLAN_1
 62
     2
  6
CONTINUOUS
 10
-0.522665
 20
-0.160717
  0
VERTEX
  8
PLAN_1
 62
     2
  6
CONTINUOUS
 10
-0.522185
 20
-0.160236
  0
VERTEX
  8
PLAN_1
 62
     2
  6
CONTINUOUS
 10
-0.521228
 20
-0.159756
  0
VERTEX
  8
PLAN_1
 62
     2
  6
CONTINUOUS
 10
-0.520748
 20
-0.158795
  0
VERTEX
  8
PLAN_1
 62
     2
  6
CONTINUOUS
 10
-0.520268
 20
-0.157839
  0
VERTEX
  8
PLAN_1
 62
     2
  6
CONTINUOUS
 10
-0.519787
 20
-0.156398
  0
VERTEX
  8
PLAN_1
 62
     2
  6
CONTINUOUS
 10
-0.519787
 20
-0.154480
  0
VERTEX
  8
PLAN_1
 62
     2
  6
CONTINUOUS
 10
-0.519787
 20
-0.152559
  0
VERTEX
  8
PLAN_1
 62
     2
  6
CONTINUOUS
 10
-0.520748
 20
-0.150642
  0
VERTEX
  8
PLAN_1
 62
     2
  6
CONTINUOUS
 10
-0.521709
 20
-0.149201
  0
VERTEX
  8
PLAN_1
 62
     2
  6
CONTINUOUS
 10
-0.523146
 20
-0.147764
  0
VERTEX
  8
PLAN_1
 62
     2
  6
CONTINUOUS
 10
-0.524587
 20
-0.146803
  0
VERTEX
  8
PLAN_1
 62
     2
  6
CONTINUOUS
 10
-0.526984
 20
-0.146323
  0
VERTEX
  8
PLAN_1
 62
     2
  6
CONTINUOUS
 10
-0.529382
 20
-0.145843
  0
VERTEX
  8
PLAN_1
 62
     2
  6
CONTINUOUS
 10
-0.532740
 20
-0.145843
  0
VERTEX
  8
PLAN_1
 62
     2
  6
CONTINUOUS
 10
-0.536098
 20
-0.145843
  0
VERTEX
  8
PLAN_1
 62
     2
  6
CONTINUOUS
 10
-0.538976
 20
-0.146803
  0
VERTEX
  8
PLAN_1
 62
     2
  6
CONTINUOUS
 10
-0.540898
 20
-0.147764
  0
VERTEX
  8
PLAN_1
 62
     2
  6
CONTINUOUS
 10
-0.542335
 20
-0.149201
  0
VERTEX
  8
PLAN_1
 62
     2
  6
CONTINUOUS
 10
-0.543776
 20
-0.151122
  0
VERTEX
  8
PLAN_1
 62
     2
  6
CONTINUOUS
 10
-0.544256
 20
-0.152559
  0
VERTEX
  8
PLAN_1
 62
     2
  6
CONTINUOUS
 10
-0.544736
 20
-0.154480
  0
VERTEX
  8
PLAN_1
 62
     2
  6
CONTINUOUS
 10
-0.545217
 20
-0.156398
  0
VERTEX
  8
PLAN_1
 62
     2
  6
CONTINUOUS
 10
-0.553370
 20
-0.156398
  0
SEQEND
  8
0
  0
POLYLINE
  8
PLAN_1
 62
     2
  6
CONTINUOUS
 66
     1
 40
0.003000
 41
0.003000
  0
VERTEX
  8
PLAN_1
 62
     2
  6
CONTINUOUS
 10
-0.519787
 20
-0.166472
  0
VERTEX
  8
PLAN_1
 62
     2
  6
CONTINUOUS
 10
-0.520748
 20
-0.166472
  0
VERTEX
  8
PLAN_1
 62
     2
  6
CONTINUOUS
 10
-0.521228
 20
-0.166953
  0
VERTEX
  8
PLAN_1
 62
     2
  6
CONTINUOUS
 10
-0.522185
 20
-0.167433
  0
VERTEX
  8
PLAN_1
 62
     2
  6
CONTINUOUS
 10
-0.523626
 20
-0.167913
  0
VERTEX
  8
PLAN_1
 62
     2
  6
CONTINUOUS
 10
-0.525543
 20
-0.168394
  0
VERTEX
  8
PLAN_1
 62
     2
  6
CONTINUOUS
 10
-0.527945
 20
-0.168870
  0
VERTEX
  8
PLAN_1
 62
     2
  6
CONTINUOUS
 10
-0.531303
 20
-0.169350
  0
VERTEX
  8
PLAN_1
 62
     2
  6
CONTINUOUS
 10
-0.535142
 20
-0.169831
  0
VERTEX
  8
PLAN_1
 62
     2
  6
CONTINUOUS
 10
-0.537059
 20
-0.169831
  0
VERTEX
  8
PLAN_1
 62
     2
  6
CONTINUOUS
 10
-0.538976
 20
-0.170311
  0
VERTEX
  8
PLAN_1
 62
     2
  6
CONTINUOUS
 10
-0.540898
 20
-0.170791
  0
VERTEX
  8
PLAN_1
 62
     2
  6
CONTINUOUS
 10
-0.542335
 20
-0.171752
  0
VERTEX
  8
PLAN_1
 62
     2
  6
CONTINUOUS
 10
-0.544256
 20
-0.172709
  0
VERTEX
  8
PLAN_1
 62
     2
  6
CONTINUOUS
 10
-0.545693
 20
-0.174150
  0
VERTEX
  8
PLAN_1
 62
     2
  6
CONTINUOUS
 10
-0.546173
 20
-0.176067
  0
VERTEX
  8
PLAN_1
 62
     2
  6
CONTINUOUS
 10
-0.546654
 20
-0.178469
  0
VERTEX
  8
PLAN_1
 62
     2
  6
CONTINUOUS
 10
-0.546654
 20
-0.180866
  0
VERTEX
  8
PLAN_1
 62
     2
  6
CONTINUOUS
 10
-0.546173
 20
-0.182303
  0
VERTEX
  8
PLAN_1
 62
     2
  6
CONTINUOUS
 10
-0.545217
 20
-0.184224
  0
VERTEX
  8
PLAN_1
 62
     2
  6
CONTINUOUS
 10
-0.544256
 20
-0.185661
  0
VERTEX
  8
PLAN_1
 62
     2
  6
CONTINUOUS
 10
-0.542815
 20
-0.186622
  0
VERTEX
  8
PLAN_1
 62
     2
  6
CONTINUOUS
 10
-0.541378
 20
-0.187583
  0
VERTEX
  8
PLAN_1
 62
     2
  6
CONTINUOUS
 10
-0.539457
 20
-0.188063
  0
VERTEX
  8
PLAN_1
 62
     2
  6
CONTINUOUS
 10
-0.537059
 20
-0.188063
  0
VERTEX
  8
PLAN_1
 62
     2
  6
CONTINUOUS
 10
-0.533701
 20
-0.187583
  0
VERTEX
  8
PLAN_1
 62
     2
  6
CONTINUOUS
 10
-0.530823
 20
-0.187102
  0
VERTEX
  8
PLAN_1
 62
     2
  6
CONTINUOUS
 10
-0.527945
 20
-0.185661
  0
VERTEX
  8
PLAN_1
 62
     2
  6
CONTINUOUS
 10
-0.525067
 20
-0.184224
  0
VERTEX
  8
PLAN_1
 62
     2
  6
CONTINUOUS
 10
-0.523146
 20
-0.182303
  0
VERTEX
  8
PLAN_1
 62
     2
  6
CONTINUOUS
 10
-0.521228
 20
-0.180386
  0
VERTEX
  8
PLAN_1
 62
     2
  6
CONTINUOUS
 10
-0.520268
 20
-0.177988
  0
VERTEX
  8
PLAN_1
 62
     2
  6
CONTINUOUS
 10
-0.519787
 20
-0.175110
  0
VERTEX
  8
PLAN_1
 62
     2
  6
CONTINUOUS
 10
-0.519787
 20
-0.166472
  0
SEQEND
  8
0
  0
POLYLINE
  8
PLAN_1
 62
     2
  6
CONTINUOUS
 66
     1
 40
0.003000
 41
0.003000
  0
VERTEX
  8
PLAN_1
 62
     2
  6
CONTINUOUS
 10
-0.484768
 20
-0.193819
  0
VERTEX
  8
PLAN_1
 62
     2
  6
CONTINUOUS
 10
-0.493882
 20
-0.193819
  0
VERTEX
  8
PLAN_1
 62
     2
  6
CONTINUOUS
 10
-0.493882
 20
-0.139606
  0
VERTEX
  8
PLAN_1
 62
     2
  6
CONTINUOUS
 10
-0.485244
 20
-0.139606
  0
VERTEX
  8
PLAN_1
 62
     2
  6
CONTINUOUS
 10
-0.485244
 20
-0.148724
  0
VERTEX
  8
PLAN_1
 62
     2
  6
CONTINUOUS
 10
-0.483807
 20
-0.146323
  0
VERTEX
  8
PLAN_1
 62
     2
  6
CONTINUOUS
 10
-0.482366
 20
-0.144406
  0
VERTEX
  8
PLAN_1
 62
     2
  6
CONTINUOUS
 10
-0.480449
 20
-0.142484
  0
VERTEX
  8
PLAN_1
 62
     2
  6
CONTINUOUS
 10
-0.478528
 20
-0.141047
  0
VERTEX
  8
PLAN_1
 62
     2
  6
CONTINUOUS
 10
-0.476610
 20
-0.139606
  0
VERTEX
  8
PLAN_1
 62
     2
  6
CONTINUOUS
 10
-0.474693
 20
-0.138650
  0
VERTEX
  8
PLAN_1
 62
     2
  6
CONTINUOUS
 10
-0.472291
 20
-0.138169
  0
VERTEX
  8
PLAN_1
 62
     2
  6
CONTINUOUS
 10
-0.469894
 20
-0.138169
  0
VERTEX
  8
PLAN_1
 62
     2
  6
CONTINUOUS
 10
-0.469413
 20
-0.138169
  0
VERTEX
  8
PLAN_1
 62
     2
  6
CONTINUOUS
 10
-0.468933
 20
-0.138169
  0
VERTEX
  8
PLAN_1
 62
     2
  6
CONTINUOUS
 10
-0.468457
 20
-0.138169
  0
VERTEX
  8
PLAN_1
 62
     2
  6
CONTINUOUS
 10
-0.467976
 20
-0.138169
  0
VERTEX
  8
PLAN_1
 62
     2
  6
CONTINUOUS
 10
-0.467496
 20
-0.138169
  0
VERTEX
  8
PLAN_1
 62
     2
  6
CONTINUOUS
 10
-0.467496
 20
-0.147764
  0
VERTEX
  8
PLAN_1
 62
     2
  6
CONTINUOUS
 10
-0.470854
 20
-0.147764
  0
VERTEX
  8
PLAN_1
 62
     2
  6
CONTINUOUS
 10
-0.474213
 20
-0.148244
  0
VERTEX
  8
PLAN_1
 62
     2
  6
CONTINUOUS
 10
-0.476610
 20
-0.149201
  0
VERTEX
  8
PLAN_1
 62
     2
  6
CONTINUOUS
 10
-0.479008
 20
-0.150161
  0
VERTEX
  8
PLAN_1
 62
     2
  6
CONTINUOUS
 10
-0.480929
 20
-0.152079
  0
VERTEX
  8
PLAN_1
 62
     2
  6
CONTINUOUS
 10
-0.482846
 20
-0.154480
  0
VERTEX
  8
PLAN_1
 62
     2
  6
CONTINUOUS
 10
-0.483807
 20
-0.156878
  0
VERTEX
  8
PLAN_1
 62
     2
  6
CONTINUOUS
 10
-0.484768
 20
-0.159756
  0
VERTEX
  8
PLAN_1
 62
     2
  6
CONTINUOUS
 10
-0.484768
 20
-0.162634
  0
VERTEX
  8
PLAN_1
 62
     2
  6
CONTINUOUS
 10
-0.484768
 20
-0.193819
  0
SEQEND
  8
0
  0
POLYLINE
  8
PLAN_1
 62
     2
  6
CONTINUOUS
 66
     1
 40
0.003000
 41
0.003000
  0
VERTEX
  8
PLAN_1
 62
     2
  6
CONTINUOUS
 10
-0.460780
 20
-0.156398
  0
VERTEX
  8
PLAN_1
 62
     2
  6
CONTINUOUS
 10
-0.460299
 20
-0.151602
  0
VERTEX
  8
PLAN_1
 62
     2
  6
CONTINUOUS
 10
-0.459339
 20
-0.147764
  0
VERTEX
  8
PLAN_1
 62
     2
  6
CONTINUOUS
 10
-0.457421
 20
-0.144886
  0
VERTEX
  8
PLAN_1
 62
     2
  6
CONTINUOUS
 10
-0.454543
 20
-0.142484
  0
VERTEX
  8
PLAN_1
 62
     2
  6
CONTINUOUS
 10
-0.451185
 20
-0.140567
  0
VERTEX
  8
PLAN_1
 62
     2
  6
CONTINUOUS
 10
-0.447346
 20
-0.139126
  0
VERTEX
  8
PLAN_1
 62
     2
  6
CONTINUOUS
 10
-0.443508
 20
-0.138169
  0
VERTEX
  8
PLAN_1
 62
     2
  6
CONTINUOUS
 10
-0.438232
 20
-0.138169
  0
VERTEX
  8
PLAN_1
 62
     2
  6
CONTINUOUS
 10
-0.436311
 20
-0.138169
  0
VERTEX
  8
PLAN_1
 62
     2
  6
CONTINUOUS
 10
-0.433433
 20
-0.138650
  0
VERTEX
  8
PLAN_1
 62
     2
  6
CONTINUOUS
 10
-0.430075
 20
-0.139126
  0
VERTEX
  8
PLAN_1
 62
     2
  6
CONTINUOUS
 10
-0.426717
 20
-0.140567
  0
VERTEX
  8
PLAN_1
 62
     2
  6
CONTINUOUS
 10
-0.423358
 20
-0.142484
  0
VERTEX
  8
PLAN_1
 62
     2
  6
CONTINUOUS
 10
-0.420961
 20
-0.144886
  0
VERTEX
  8
PLAN_1
 62
     2
  6
CONTINUOUS
 10
-0.420000
 20
-0.146803
  0
VERTEX
  8
PLAN_1
 62
     2
  6
CONTINUOUS
 10
-0.419039
 20
-0.148724
  0
VERTEX
  8
PLAN_1
 62
     2
  6
CONTINUOUS
 10
-0.418559
 20
-0.150642
  0
VERTEX
  8
PLAN_1
 62
     2
  6
CONTINUOUS
 10
-0.418083
 20
-0.153039
  0
VERTEX
  8
PLAN_1
 62
     2
  6
CONTINUOUS
 10
-0.418083
 20
-0.184705
  0
VERTEX
  8
PLAN_1
 62
     2
  6
CONTINUOUS
 10
-0.418083
 20
-0.185185
  0
VERTEX
  8
PLAN_1
 62
     2
  6
CONTINUOUS
 10
-0.418083
 20
-0.186142
  0
VERTEX
  8
PLAN_1
 62
     2
  6
CONTINUOUS
 10
-0.417602
 20
-0.186622
  0
VERTEX
  8
PLAN_1
 62
     2
  6
CONTINUOUS
 10
-0.417602
 20
-0.187102
  0
VERTEX
  8
PLAN_1
 62
     2
  6
CONTINUOUS
 10
-0.417122
 20
-0.187583
  0
VERTEX
  8
PLAN_1
 62
     2
  6
CONTINUOUS
 10
-0.416642
 20
-0.187583
  0
VERTEX
  8
PLAN_1
 62
     2
  6
CONTINUOUS
 10
-0.416161
 20
-0.187583
  0
VERTEX
  8
PLAN_1
 62
     2
  6
CONTINUOUS
 10
-0.415201
 20
-0.187583
  0
VERTEX
  8
PLAN_1
 62
     2
  6
CONTINUOUS
 10
-0.414724
 20
-0.187583
  0
VERTEX
  8
PLAN_1
 62
     2
  6
CONTINUOUS
 10
-0.414244
 20
-0.187583
  0
VERTEX
  8
PLAN_1
 62
     2
  6
CONTINUOUS
 10
-0.413764
 20
-0.187583
  0
VERTEX
  8
PLAN_1
 62
     2
  6
CONTINUOUS
 10
-0.413283
 20
-0.187583
  0
VERTEX
  8
PLAN_1
 62
     2
  6
CONTINUOUS
 10
-0.412803
 20
-0.187583
  0
VERTEX
  8
PLAN_1
 62
     2
  6
CONTINUOUS
 10
-0.412323
 20
-0.187583
  0
VERTEX
  8
PLAN_1
 62
     2
  6
CONTINUOUS
 10
-0.412323
 20
-0.193819
  0
VERTEX
  8
PLAN_1
 62
     2
  6
CONTINUOUS
 10
-0.412803
 20
-0.194299
  0
VERTEX
  8
PLAN_1
 62
     2
  6
CONTINUOUS
 10
-0.413283
 20
-0.194299
  0
VERTEX
  8
PLAN_1
 62
     2
  6
CONTINUOUS
 10
-0.413764
 20
-0.194780
  0
VERTEX
  8
PLAN_1
 62
     2
  6
CONTINUOUS
 10
-0.414724
 20
-0.194780
  0
VERTEX
  8
PLAN_1
 62
     2
  6
CONTINUOUS
 10
-0.415201
 20
-0.194780
  0
VERTEX
  8
PLAN_1
 62
     2
  6
CONTINUOUS
 10
-0.415681
 20
-0.194780
  0
VERTEX
  8
PLAN_1
 62
     2
  6
CONTINUOUS
 10
-0.416642
 20
-0.195260
  0
VERTEX
  8
PLAN_1
 62
     2
  6
CONTINUOUS
 10
-0.417122
 20
-0.195260
  0
VERTEX
  8
PLAN_1
 62
     2
  6
CONTINUOUS
 10
-0.420000
 20
-0.194780
  0
VERTEX
  8
PLAN_1
 62
     2
  6
CONTINUOUS
 10
-0.421917
 20
-0.194299
  0
VERTEX
  8
PLAN_1
 62
     2
  6
CONTINUOUS
 10
-0.423839
 20
-0.193339
  0
VERTEX
  8
PLAN_1
 62
     2
  6
CONTINUOUS
 10
-0.424799
 20
-0.192378
  0
VERTEX
  8
PLAN_1
 62
     2
  6
CONTINUOUS
 10
-0.425756
 20
-0.191421
  0
VERTEX
  8
PLAN_1
 62
     2
  6
CONTINUOUS
 10
-0.426236
 20
-0.189980
  0
VERTEX
  8
PLAN_1
 62
     2
  6
CONTINUOUS
 10
-0.426717
 20
-0.188543
  0
VERTEX
  8
PLAN_1
 62
     2
  6
CONTINUOUS
 10
-0.426717
 20
-0.186622
  0
VERTEX
  8
PLAN_1
 62
     2
  6
CONTINUOUS
 10
-0.428157
 20
-0.188063
  0
VERTEX
  8
PLAN_1
 62
     2
  6
CONTINUOUS
 10
-0.430075
 20
-0.189980
  0
VERTEX
  8
PLAN_1
 62
     2
  6
CONTINUOUS
 10
-0.431992
 20
-0.191421
  0
VERTEX
  8
PLAN_1
 62
     2
  6
CONTINUOUS
 10
-0.433913
 20
-0.192858
  0
VERTEX
  8
PLAN_1
 62
     2
  6
CONTINUOUS
 10
-0.436791
 20
-0.193819
  0
VERTEX
  8
PLAN_1
 62
     2
  6
CONTINUOUS
 10
-0.439669
 20
-0.194780
  0
VERTEX
  8
PLAN_1
 62
     2
  6
CONTINUOUS
 10
-0.443028
 20
-0.195260
  0
VERTEX
  8
PLAN_1
 62
     2
  6
CONTINUOUS
 10
-0.446386
 20
-0.195736
  0
VERTEX
  8
PLAN_1
 62
     2
  6
CONTINUOUS
 10
-0.450224
 20
-0.195260
  0
VERTEX
  8
PLAN_1
 62
     2
  6
CONTINUOUS
 10
-0.453583
 20
-0.194299
  0
VERTEX
  8
PLAN_1
 62
     2
  6
CONTINUOUS
 10
-0.456461
 20
-0.193339
  0
VERTEX
  8
PLAN_1
 62
     2
  6
CONTINUOUS
 10
-0.458858
 20
-0.191421
  0
VERTEX
  8
PLAN_1
 62
     2
  6
CONTINUOUS
 10
-0.460780
 20
-0.189020
  0
VERTEX
  8
PLAN_1
 62
     2
  6
CONTINUOUS
 10
-0.462217
 20
-0.186142
  0
VERTEX
  8
PLAN_1
 62
     2
  6
CONTINUOUS
 10
-0.463177
 20
-0.183264
  0
VERTEX
  8
PLAN_1
 62
     2
  6
CONTINUOUS
 10
-0.463657
 20
-0.179906
  0
VERTEX
  8
PLAN_1
 62
     2
  6
CONTINUOUS
 10
-0.463657
 20
-0.177988
  0
VERTEX
  8
PLAN_1
 62
     2
  6
CONTINUOUS
 10
-0.463177
 20
-0.175587
  0
VERTEX
  8
PLAN_1
 62
     2
  6
CONTINUOUS
 10
-0.462217
 20
-0.173189
  0
VERTEX
  8
PLAN_1
 62
     2
  6
CONTINUOUS
 10
-0.461260
 20
-0.170311
  0
VERTEX
  8
PLAN_1
 62
     2
  6
CONTINUOUS
 10
-0.458858
 20
-0.167913
  0
VERTEX
  8
PLAN_1
 62
     2
  6
CONTINUOUS
 10
-0.455980
 20
-0.165512
  0
VERTEX
  8
PLAN_1
 62
     2
  6
CONTINUOUS
 10
-0.452142
 20
-0.164075
  0
VERTEX
  8
PLAN_1
 62
     2
  6
CONTINUOUS
 10
-0.446866
 20
-0.162634
  0
VERTEX
  8
PLAN_1
 62
     2
  6
CONTINUOUS
 10
-0.431992
 20
-0.161197
  0
VERTEX
  8
PLAN_1
 62
     2
  6
CONTINUOUS
 10
-0.431035
 20
-0.160717
  0
VERTEX
  8
PLAN_1
 62
     2
  6
CONTINUOUS
 10
-0.430555
 20
-0.160717
  0
VERTEX
  8
PLAN_1
 62
     2
  6
CONTINUOUS
 10
-0.429594
 20
-0.160236
  0
VERTEX
  8
PLAN_1
 62
     2
  6
CONTINUOUS
 10
-0.428634
 20
-0.159756
  0
VERTEX
  8
PLAN_1
 62
     2
  6
CONTINUOUS
 10
-0.428157
 20
-0.158795
  0
VERTEX
  8
PLAN_1
 62
     2
  6
CONTINUOUS
 10
-0.427677
 20
-0.157839
  0
VERTEX
  8
PLAN_1
 62
     2
  6
CONTINUOUS
 10
-0.427197
 20
-0.156398
  0
VERTEX
  8
PLAN_1
 62
     2
  6
CONTINUOUS
 10
-0.427197
 20
-0.154480
  0
VERTEX
  8
PLAN_1
 62
     2
  6
CONTINUOUS
 10
-0.427197
 20
-0.152559
  0
VERTEX
  8
PLAN_1
 62
     2
  6
CONTINUOUS
 10
-0.428157
 20
-0.150642
  0
VERTEX
  8
PLAN_1
 62
     2
  6
CONTINUOUS
 10
-0.429114
 20
-0.149201
  0
VERTEX
  8
PLAN_1
 62
     2
  6
CONTINUOUS
 10
-0.430555
 20
-0.147764
  0
VERTEX
  8
PLAN_1
 62
     2
  6
CONTINUOUS
 10
-0.431992
 20
-0.146803
  0
VERTEX
  8
PLAN_1
 62
     2
  6
CONTINUOUS
 10
-0.434394
 20
-0.146323
  0
VERTEX
  8
PLAN_1
 62
     2
  6
CONTINUOUS
 10
-0.436791
 20
-0.145843
  0
VERTEX
  8
PLAN_1
 62
     2
  6
CONTINUOUS
 10
-0.440150
 20
-0.145843
  0
VERTEX
  8
PLAN_1
 62
     2
  6
CONTINUOUS
 10
-0.443508
 20
-0.145843
  0
VERTEX
  8
PLAN_1
 62
     2
  6
CONTINUOUS
 10
-0.446386
 20
-0.146803
  0
VERTEX
  8
PLAN_1
 62
     2
  6
CONTINUOUS
 10
-0.448307
 20
-0.147764
  0
VERTEX
  8
PLAN_1
 62
     2
  6
CONTINUOUS
 10
-0.449744
 20
-0.149201
  0
VERTEX
  8
PLAN_1
 62
     2
  6
CONTINUOUS
 10
-0.451185
 20
-0.151122
  0
VERTEX
  8
PLAN_1
 62
     2
  6
CONTINUOUS
 10
-0.451665
 20
-0.152559
  0
VERTEX
  8
PLAN_1
 62
     2
  6
CONTINUOUS
 10
-0.452142
 20
-0.154480
  0
VERTEX
  8
PLAN_1
 62
     2
  6
CONTINUOUS
 10
-0.452622
 20
-0.156398
  0
VERTEX
  8
PLAN_1
 62
     2
  6
CONTINUOUS
 10
-0.460780
 20
-0.156398
  0
SEQEND
  8
0
  0
POLYLINE
  8
PLAN_1
 62
     2
  6
CONTINUOUS
 66
     1
 40
0.003000
 41
0.003000
  0
VERTEX
  8
PLAN_1
 62
     2
  6
CONTINUOUS
 10
-0.427197
 20
-0.166472
  0
VERTEX
  8
PLAN_1
 62
     2
  6
CONTINUOUS
 10
-0.428157
 20
-0.166472
  0
VERTEX
  8
PLAN_1
 62
     2
  6
CONTINUOUS
 10
-0.428634
 20
-0.166953
  0
VERTEX
  8
PLAN_1
 62
     2
  6
CONTINUOUS
 10
-0.430075
 20
-0.167433
  0
VERTEX
  8
PLAN_1
 62
     2
  6
CONTINUOUS
 10
-0.431035
 20
-0.167913
  0
VERTEX
  8
PLAN_1
 62
     2
  6
CONTINUOUS
 10
-0.432953
 20
-0.168394
  0
VERTEX
  8
PLAN_1
 62
     2
  6
CONTINUOUS
 10
-0.435350
 20
-0.168870
  0
VERTEX
  8
PLAN_1
 62
     2
  6
CONTINUOUS
 10
-0.438709
 20
-0.169350
  0
VERTEX
  8
PLAN_1
 62
     2
  6
CONTINUOUS
 10
-0.442547
 20
-0.169831
  0
VERTEX
  8
PLAN_1
 62
     2
  6
CONTINUOUS
 10
-0.444469
 20
-0.169831
  0
VERTEX
  8
PLAN_1
 62
     2
  6
CONTINUOUS
 10
-0.446386
 20
-0.170311
  0
VERTEX
  8
PLAN_1
 62
     2
  6
CONTINUOUS
 10
-0.448307
 20
-0.170791
  0
VERTEX
  8
PLAN_1
 62
     2
  6
CONTINUOUS
 10
-0.450224
 20
-0.171752
  0
VERTEX
  8
PLAN_1
 62
     2
  6
CONTINUOUS
 10
-0.451665
 20
-0.172709
  0
VERTEX
  8
PLAN_1
 62
     2
  6
CONTINUOUS
 10
-0.453102
 20
-0.174150
  0
VERTEX
  8
PLAN_1
 62
     2
  6
CONTINUOUS
 10
-0.454063
 20
-0.176067
  0
VERTEX
  8
PLAN_1
 62
     2
  6
CONTINUOUS
 10
-0.454063
 20
-0.178469
  0
VERTEX
  8
PLAN_1
 62
     2
  6
CONTINUOUS
 10
-0.454063
 20
-0.180866
  0
VERTEX
  8
PLAN_1
 62
     2
  6
CONTINUOUS
 10
-0.453583
 20
-0.182303
  0
VERTEX
  8
PLAN_1
 62
     2
  6
CONTINUOUS
 10
-0.452622
 20
-0.184224
  0
VERTEX
  8
PLAN_1
 62
     2
  6
CONTINUOUS
 10
-0.451665
 20
-0.185661
  0
VERTEX
  8
PLAN_1
 62
     2
  6
CONTINUOUS
 10
-0.450224
 20
-0.186622
  0
VERTEX
  8
PLAN_1
 62
     2
  6
CONTINUOUS
 10
-0.448783
 20
-0.187583
  0
VERTEX
  8
PLAN_1
 62
     2
  6
CONTINUOUS
 10
-0.446866
 20
-0.188063
  0
VERTEX
  8
PLAN_1
 62
     2
  6
CONTINUOUS
 10
-0.444469
 20
-0.188063
  0
VERTEX
  8
PLAN_1
 62
     2
  6
CONTINUOUS
 10
-0.441110
 20
-0.187583
  0
VERTEX
  8
PLAN_1
 62
     2
  6
CONTINUOUS
 10
-0.438232
 20
-0.187102
  0
VERTEX
  8
PLAN_1
 62
     2
  6
CONTINUOUS
 10
-0.435350
 20
-0.185661
  0
VERTEX
  8
PLAN_1
 62
     2
  6
CONTINUOUS
 10
-0.432472
 20
-0.184224
  0
VERTEX
  8
PLAN_1
 62
     2
  6
CONTINUOUS
 10
-0.430555
 20
-0.182303
  0
VERTEX
  8
PLAN_1
 62
     2
  6
CONTINUOUS
 10
-0.428634
 20
-0.180386
  0
VERTEX
  8
PLAN_1
 62
     2
  6
CONTINUOUS
 10
-0.427677
 20
-0.177988
  0
VERTEX
  8
PLAN_1
 62
     2
  6
CONTINUOUS
 10
-0.427197
 20
-0.175110
  0
VERTEX
  8
PLAN_1
 62
     2
  6
CONTINUOUS
 10
-0.427197
 20
-0.166472
  0
SEQEND
  8
0
  0
POLYLINE
  8
PLAN_1
 62
     2
  6
CONTINUOUS
 66
     1
 40
0.003000
 41
0.003000
  0
VERTEX
  8
PLAN_1
 62
     2
  6
CONTINUOUS
 10
-0.367228
 20
-0.193819
  0
VERTEX
  8
PLAN_1
 62
     2
  6
CONTINUOUS
 10
-0.367228
 20
-0.186142
  0
VERTEX
  8
PLAN_1
 62
     2
  6
CONTINUOUS
 10
-0.369146
 20
-0.188063
  0
VERTEX
  8
PLAN_1
 62
     2
  6
CONTINUOUS
 10
-0.370587
 20
-0.189980
  0
VERTEX
  8
PLAN_1
 62
     2
  6
CONTINUOUS
 10
-0.372504
 20
-0.191902
  0
VERTEX
  8
PLAN_1
 62
     2
  6
CONTINUOUS
 10
-0.374425
 20
-0.193339
  0
VERTEX
  8
PLAN_1
 62
     2
  6
CONTINUOUS
 10
-0.376343
 20
-0.194299
  0
VERTEX
  8
PLAN_1
 62
     2
  6
CONTINUOUS
 10
-0.378740
 20
-0.194780
  0
VERTEX
  8
PLAN_1
 62
     2
  6
CONTINUOUS
 10
-0.381618
 20
-0.195260
  0
VERTEX
  8
PLAN_1
 62
     2
  6
CONTINUOUS
 10
-0.384500
 20
-0.195736
  0
VERTEX
  8
PLAN_1
 62
     2
  6
CONTINUOUS
 10
-0.387858
 20
-0.195260
  0
VERTEX
  8
PLAN_1
 62
     2
  6
CONTINUOUS
 10
-0.390736
 20
-0.194780
  0
VERTEX
  8
PLAN_1
 62
     2
  6
CONTINUOUS
 10
-0.393614
 20
-0.193819
  0
VERTEX
  8
PLAN_1
 62
     2
  6
CONTINUOUS
 10
-0.396492
 20
-0.191902
  0
VERTEX
  8
PLAN_1
 62
     2
  6
CONTINUOUS
 10
-0.398890
 20
-0.189980
  0
VERTEX
  8
PLAN_1
 62
     2
  6
CONTINUOUS
 10
-0.400811
 20
-0.187102
  0
VERTEX
  8
PLAN_1
 62
     2
  6
CONTINUOUS
 10
-0.401768
 20
-0.183264
  0
VERTEX
  8
PLAN_1
 62
     2
  6
CONTINUOUS
 10
-0.402248
 20
-0.178945
  0
VERTEX
  8
PLAN_1
 62
     2
  6
CONTINUOUS
 10
-0.402248
 20
-0.139606
  0
VERTEX
  8
PLAN_1
 62
     2
  6
CONTINUOUS
 10
-0.393134
 20
-0.139606
  0
VERTEX
  8
PLAN_1
 62
     2
  6
CONTINUOUS
 10
-0.393134
 20
-0.175587
  0
VERTEX
  8
PLAN_1
 62
     2
  6
CONTINUOUS
 10
-0.393134
 20
-0.178945
  0
VERTEX
  8
PLAN_1
 62
     2
  6
CONTINUOUS
 10
-0.392654
 20
-0.181346
  0
VERTEX
  8
PLAN_1
 62
     2
  6
CONTINUOUS
 10
-0.391693
 20
-0.183264
  0
VERTEX
  8
PLAN_1
 62
     2
  6
CONTINUOUS
 10
-0.390256
 20
-0.185185
  0
VERTEX
  8
PLAN_1
 62
     2
  6
CONTINUOUS
 10
-0.388815
 20
-0.186142
  0
VERTEX
  8
PLAN_1
 62
     2
  6
CONTINUOUS
 10
-0.386898
 20
-0.187102
  0
VERTEX
  8
PLAN_1
 62
     2
  6
CONTINUOUS
 10
-0.384976
 20
-0.187583
  0
VERTEX
  8
PLAN_1
 62
     2
  6
CONTINUOUS
 10
-0.382579
 20
-0.187583
  0
VERTEX
  8
PLAN_1
 62
     2
  6
CONTINUOUS
 10
-0.378740
 20
-0.187102
  0
VERTEX
  8
PLAN_1
 62
     2
  6
CONTINUOUS
 10
-0.375382
 20
-0.186142
  0
VERTEX
  8
PLAN_1
 62
     2
  6
CONTINUOUS
 10
-0.372984
 20
-0.184224
  0
VERTEX
  8
PLAN_1
 62
     2
  6
CONTINUOUS
 10
-0.371067
 20
-0.181827
  0
VERTEX
  8
PLAN_1
 62
     2
  6
CONTINUOUS
 10
-0.369626
 20
-0.178945
  0
VERTEX
  8
PLAN_1
 62
     2
  6
CONTINUOUS
 10
-0.368665
 20
-0.175587
  0
VERTEX
  8
PLAN_1
 62
     2
  6
CONTINUOUS
 10
-0.367709
 20
-0.172709
  0
VERTEX
  8
PLAN_1
 62
     2
  6
CONTINUOUS
 10
-0.367709
 20
-0.169831
  0
VERTEX
  8
PLAN_1
 62
     2
  6
CONTINUOUS
 10
-0.367709
 20
-0.139606
  0
VERTEX
  8
PLAN_1
 62
     2
  6
CONTINUOUS
 10
-0.358591
 20
-0.139606
  0
VERTEX
  8
PLAN_1
 62
     2
  6
CONTINUOUS
 10
-0.358591
 20
-0.193819
  0
VERTEX
  8
PLAN_1
 62
     2
  6
CONTINUOUS
 10
-0.367228
 20
-0.193819
  0
SEQEND
  8
0
  0
POLYLINE
  8
PLAN_1
 62
     2
  6
CONTINUOUS
 66
     1
 40
0.003000
 41
0.003000
  0
VERTEX
  8
PLAN_1
 62
     2
  6
CONTINUOUS
 10
-0.299583
 20
-0.193819
  0
VERTEX
  8
PLAN_1
 62
     2
  6
CONTINUOUS
 10
-0.308217
 20
-0.193819
  0
VERTEX
  8
PLAN_1
 62
     2
  6
CONTINUOUS
 10
-0.308217
 20
-0.186622
  0
VERTEX
  8
PLAN_1
 62
     2
  6
CONTINUOUS
 10
-0.308697
 20
-0.186622
  0
VERTEX
  8
PLAN_1
 62
     2
  6
CONTINUOUS
 10
-0.310138
 20
-0.189020
  0
VERTEX
  8
PLAN_1
 62
     2
  6
CONTINUOUS
 10
-0.312055
 20
-0.190941
  0
VERTEX
  8
PLAN_1
 62
     2
  6
CONTINUOUS
 10
-0.313976
 20
-0.192858
  0
VERTEX
  8
PLAN_1
 62
     2
  6
CONTINUOUS
 10
-0.315894
 20
-0.193819
  0
VERTEX
  8
PLAN_1
 62
     2
  6
CONTINUOUS
 10
-0.317815
 20
-0.194780
  0
VERTEX
  8
PLAN_1
 62
     2
  6
CONTINUOUS
 10
-0.319732
 20
-0.195260
  0
VERTEX
  8
PLAN_1
 62
     2
  6
CONTINUOUS
 10
-0.322130
 20
-0.195736
  0
VERTEX
  8
PLAN_1
 62
     2
  6
CONTINUOUS
 10
-0.324051
 20
-0.195736
  0
VERTEX
  8
PLAN_1
 62
     2
  6
CONTINUOUS
 10
-0.327409
 20
-0.195260
  0
VERTEX
  8
PLAN_1
 62
     2
  6
CONTINUOUS
 10
-0.330287
 20
-0.194780
  0
VERTEX
  8
PLAN_1
 62
     2
  6
CONTINUOUS
 10
-0.333165
 20
-0.193819
  0
VERTEX
  8
PLAN_1
 62
     2
  6
CONTINUOUS
 10
-0.335563
 20
-0.192858
  0
VERTEX
  8
PLAN_1
 62
     2
  6
CONTINUOUS
 10
-0.337965
 20
-0.191421
  0
VERTEX
  8
PLAN_1
 62
     2
  6
CONTINUOUS
 10
-0.339882
 20
-0.189500
  0
VERTEX
  8
PLAN_1
 62
     2
  6
CONTINUOUS
 10
-0.341323
 20
-0.187583
  0
VERTEX
  8
PLAN_1
 62
     2
  6
CONTINUOUS
 10
-0.342760
 20
-0.185185
  0
VERTEX
  8
PLAN_1
 62
     2
  6
CONTINUOUS
 10
-0.345157
 20
-0.180386
  0
VERTEX
  8
PLAN_1
 62
     2
  6
CONTINUOUS
 10
-0.346598
 20
-0.175587
  0
VERTEX
  8
PLAN_1
 62
     2
  6
CONTINUOUS
 10
-0.347559
 20
-0.170311
  0
VERTEX
  8
PLAN_1
 62
     2
  6
CONTINUOUS
 10
-0.348039
 20
-0.165035
  0
VERTEX
  8
PLAN_1
 62
     2
  6
CONTINUOUS
 10
-0.347559
 20
-0.159756
  0
VERTEX
  8
PLAN_1
 62
     2
  6
CONTINUOUS
 10
-0.346598
 20
-0.154480
  0
VERTEX
  8
PLAN_1
 62
     2
  6
CONTINUOUS
 10
-0.344681
 20
-0.150161
  0
VERTEX
  8
PLAN_1
 62
     2
  6
CONTINUOUS
 10
-0.342280
 20
-0.145843
  0
VERTEX
  8
PLAN_1
 62
     2
  6
CONTINUOUS
 10
-0.340362
 20
-0.144406
  0
VERTEX
  8
PLAN_1
 62
     2
  6
CONTINUOUS
 10
-0.338921
 20
-0.142484
  0
VERTEX
  8
PLAN_1
 62
     2
  6
CONTINUOUS
 10
-0.337004
 20
-0.141528
  0
VERTEX
  8
PLAN_1
 62
     2
  6
CONTINUOUS
 10
-0.335083
 20
-0.140087
  0
VERTEX
  8
PLAN_1
 62
     2
  6
CONTINUOUS
 10
-0.332685
 20
-0.139126
  0
VERTEX
  8
PLAN_1
 62
     2
  6
CONTINUOUS
 10
-0.330287
 20
-0.138650
  0
VERTEX
  8
PLAN_1
 62
     2
  6
CONTINUOUS
 10
-0.327890
 20
-0.138169
  0
VERTEX
  8
PLAN_1
 62
     2
  6
CONTINUOUS
 10
-0.325488
 20
-0.138169
  0
VERTEX
  8
PLAN_1
 62
     2
  6
CONTINUOUS
 10
-0.321650
 20
-0.138169
  0
VERTEX
  8
PLAN_1
 62
     2
  6
CONTINUOUS
 10
-0.318772
 20
-0.139126
  0
VERTEX
  8
PLAN_1
 62
     2
  6
CONTINUOUS
 10
-0.316374
 20
-0.140087
  0
VERTEX
  8
PLAN_1
 62
     2
  6
CONTINUOUS
 10
-0.314457
 20
-0.141528
  0
VERTEX
  8
PLAN_1
 62
     2
  6
CONTINUOUS
 10
-0.312535
 20
-0.142965
  0
VERTEX
  8
PLAN_1
 62
     2
  6
CONTINUOUS
 10
-0.311098
 20
-0.144406
  0
VERTEX
  8
PLAN_1
 62
     2
  6
CONTINUOUS
 10
-0.310138
 20
-0.145843
  0
VERTEX
  8
PLAN_1
 62
     2
  6
CONTINUOUS
 10
-0.309177
 20
-0.147283
  0
VERTEX
  8
PLAN_1
 62
     2
  6
CONTINUOUS
 10
-0.308697
 20
-0.146803
  0
VERTEX
  8
PLAN_1
 62
     2
  6
CONTINUOUS
 10
-0.308697
 20
-0.119457
  0
VERTEX
  8
PLAN_1
 62
     2
  6
CONTINUOUS
 10
-0.299583
 20
-0.119457
  0
VERTEX
  8
PLAN_1
 62
     2
  6
CONTINUOUS
 10
-0.299583
 20
-0.193819
  0
SEQEND
  8
0
  0
POLYLINE
  8
PLAN_1
 62
     2
  6
CONTINUOUS
 66
     1
 40
0.003000
 41
0.003000
  0
VERTEX
  8
PLAN_1
 62
     2
  6
CONTINUOUS
 10
-0.324051
 20
-0.187583
  0
VERTEX
  8
PLAN_1
 62
     2
  6
CONTINUOUS
 10
-0.321650
 20
-0.187583
  0
VERTEX
  8
PLAN_1
 62
     2
  6
CONTINUOUS
 10
-0.319252
 20
-0.187102
  0
VERTEX
  8
PLAN_1
 62
     2
  6
CONTINUOUS
 10
-0.316374
 20
-0.185661
  0
VERTEX
  8
PLAN_1
 62
     2
  6
CONTINUOUS
 10
-0.313976
 20
-0.183744
  0
VERTEX
  8
PLAN_1
 62
     2
  6
CONTINUOUS
 10
-0.312055
 20
-0.181346
  0
VERTEX
  8
PLAN_1
 62
     2
  6
CONTINUOUS
 10
-0.310618
 20
-0.178469
  0
VERTEX
  8
PLAN_1
 62
     2
  6
CONTINUOUS
 10
-0.309177
 20
-0.174150
  0
VERTEX
  8
PLAN_1
 62
     2
  6
CONTINUOUS
 10
-0.309177
 20
-0.169350
  0
VERTEX
  8
PLAN_1
 62
     2
  6
CONTINUOUS
 10
-0.309177
 20
-0.165992
  0
VERTEX
  8
PLAN_1
 62
     2
  6
CONTINUOUS
 10
-0.309177
 20
-0.162154
  0
VERTEX
  8
PLAN_1
 62
     2
  6
CONTINUOUS
 10
-0.310138
 20
-0.158319
  0
VERTEX
  8
PLAN_1
 62
     2
  6
CONTINUOUS
 10
-0.311098
 20
-0.154480
  0
VERTEX
  8
PLAN_1
 62
     2
  6
CONTINUOUS
 10
-0.312055
 20
-0.153039
  0
VERTEX
  8
PLAN_1
 62
     2
  6
CONTINUOUS
 10
-0.313016
 20
-0.151122
  0
VERTEX
  8
PLAN_1
 62
     2
  6
CONTINUOUS
 10
-0.314457
 20
-0.149681
  0
VERTEX
  8
PLAN_1
 62
     2
  6
CONTINUOUS
 10
-0.315894
 20
-0.148724
  0
VERTEX
  8
PLAN_1
 62
     2
  6
CONTINUOUS
 10
-0.317335
 20
-0.147764
  0
VERTEX
  8
PLAN_1
 62
     2
  6
CONTINUOUS
 10
-0.319252
 20
-0.146803
  0
VERTEX
  8
PLAN_1
 62
     2
  6
CONTINUOUS
 10
-0.321173
 20
-0.146323
  0
VERTEX
  8
PLAN_1
 62
     2
  6
CONTINUOUS
 10
-0.323571
 20
-0.146323
  0
VERTEX
  8
PLAN_1
 62
     2
  6
CONTINUOUS
 10
-0.325969
 20
-0.146323
  0
VERTEX
  8
PLAN_1
 62
     2
  6
CONTINUOUS
 10
-0.328366
 20
-0.146803
  0
VERTEX
  8
PLAN_1
 62
     2
  6
CONTINUOUS
 10
-0.330287
 20
-0.147764
  0
VERTEX
  8
PLAN_1
 62
     2
  6
CONTINUOUS
 10
-0.331724
 20
-0.148724
  0
VERTEX
  8
PLAN_1
 62
     2
  6
CONTINUOUS
 10
-0.333165
 20
-0.149681
  0
VERTEX
  8
PLAN_1
 62
     2
  6
CONTINUOUS
 10
-0.334606
 20
-0.151122
  0
VERTEX
  8
PLAN_1
 62
     2
  6
CONTINUOUS
 10
-0.335563
 20
-0.152559
  0
VERTEX
  8
PLAN_1
 62
     2
  6
CONTINUOUS
 10
-0.336524
 20
-0.154000
  0
VERTEX
  8
PLAN_1
 62
     2
  6
CONTINUOUS
 10
-0.337484
 20
-0.157358
  0
VERTEX
  8
PLAN_1
 62
     2
  6
CONTINUOUS
 10
-0.337965
 20
-0.160717
  0
VERTEX
  8
PLAN_1
 62
     2
  6
CONTINUOUS
 10
-0.338441
 20
-0.163594
  0
VERTEX
  8
PLAN_1
 62
     2
  6
CONTINUOUS
 10
-0.338441
 20
-0.166472
  0
VERTEX
  8
PLAN_1
 62
     2
  6
CONTINUOUS
 10
-0.338441
 20
-0.171272
  0
VERTEX
  8
PLAN_1
 62
     2
  6
CONTINUOUS
 10
-0.337484
 20
-0.175110
  0
VERTEX
  8
PLAN_1
 62
     2
  6
CONTINUOUS
 10
-0.336524
 20
-0.178469
  0
VERTEX
  8
PLAN_1
 62
     2
  6
CONTINUOUS
 10
-0.335083
 20
-0.181827
  0
VERTEX
  8
PLAN_1
 62
     2
  6
CONTINUOUS
 10
-0.332685
 20
-0.184224
  0
VERTEX
  8
PLAN_1
 62
     2
  6
CONTINUOUS
 10
-0.330287
 20
-0.186142
  0
VERTEX
  8
PLAN_1
 62
     2
  6
CONTINUOUS
 10
-0.327409
 20
-0.187102
  0
VERTEX
  8
PLAN_1
 62
     2
  6
CONTINUOUS
 10
-0.324051
 20
-0.187583
  0
SEQEND
  8
0
  0
SOLID
  8
PLAN_1
 62
     2
 10
-0.262161
 20
-0.132409
 11
-0.269358
 21
-0.132409
 12
-0.248728
 22
-0.117539
 13
-0.260244
 23
-0.117539
  0
POLYLINE
  8
PLAN_1
 62
     2
  6
CONTINUOUS
 66
     1
 40
0.003000
 41
0.003000
  0
VERTEX
  8
PLAN_1
 62
     2
  6
CONTINUOUS
 10
-0.262161
 20
-0.132409
  0
VERTEX
  8
PLAN_1
 62
     2
  6
CONTINUOUS
 10
-0.269358
 20
-0.132409
  0
VERTEX
  8
PLAN_1
 62
     2
  6
CONTINUOUS
 10
-0.260244
 20
-0.117539
  0
VERTEX
  8
PLAN_1
 62
     2
  6
CONTINUOUS
 10
-0.248728
 20
-0.117539
  0
VERTEX
  8
PLAN_1
 62
     2
  6
CONTINUOUS
 10
-0.262161
 20
-0.132409
  0
SEQEND
  8
0
  0
POLYLINE
  8
PLAN_1
 62
     2
  6
CONTINUOUS
 66
     1
 40
0.003000
 41
0.003000
  0
VERTEX
  8
PLAN_1
 62
     2
  6
CONTINUOUS
 10
-0.240575
 20
-0.177028
  0
VERTEX
  8
PLAN_1
 62
     2
  6
CONTINUOUS
 10
-0.241055
 20
-0.177988
  0
VERTEX
  8
PLAN_1
 62
     2
  6
CONTINUOUS
 10
-0.241531
 20
-0.179906
  0
VERTEX
  8
PLAN_1
 62
     2
  6
CONTINUOUS
 10
-0.242012
 20
-0.181827
  0
VERTEX
  8
PLAN_1
 62
     2
  6
CONTINUOUS
 10
-0.242972
 20
-0.183744
  0
VERTEX
  8
PLAN_1
 62
     2
  6
CONTINUOUS
 10
-0.244413
 20
-0.185661
  0
VERTEX
  8
PLAN_1
 62
     2
  6
CONTINUOUS
 10
-0.245850
 20
-0.188063
  0
VERTEX
  8
PLAN_1
 62
     2
  6
CONTINUOUS
 10
-0.248248
 20
-0.189980
  0
VERTEX
  8
PLAN_1
 62
     2
  6
CONTINUOUS
 10
-0.250650
 20
-0.191902
  0
VERTEX
  8
PLAN_1
 62
     2
  6
CONTINUOUS
 10
-0.251606
 20
-0.192378
  0
VERTEX
  8
PLAN_1
 62
     2
  6
CONTINUOUS
 10
-0.252567
 20
-0.193339
  0
VERTEX
  8
PLAN_1
 62
     2
  6
CONTINUOUS
 10
-0.254008
 20
-0.193819
  0
VERTEX
  8
PLAN_1
 62
     2
  6
CONTINUOUS
 10
-0.255445
 20
-0.194299
  0
VERTEX
  8
PLAN_1
 62
     2
  6
CONTINUOUS
 10
-0.257366
 20
-0.194780
  0
VERTEX
  8
PLAN_1
 62
     2
  6
CONTINUOUS
 10
-0.259764
 20
-0.195260
  0
VERTEX
  8
PLAN_1
 62
     2
  6
CONTINUOUS
 10
-0.262161
 20
-0.195736
  0
VERTEX
  8
PLAN_1
 62
     2
  6
CONTINUOUS
 10
-0.265039
 20
-0.195736
  0
VERTEX
  8
PLAN_1
 62
     2
  6
CONTINUOUS
 10
-0.267917
 20
-0.195260
  0
VERTEX
  8
PLAN_1
 62
     2
  6
CONTINUOUS
 10
-0.270799
 20
-0.195260
  0
VERTEX
  8
PLAN_1
 62
     2
  6
CONTINUOUS
 10
-0.273197
 20
-0.194299
  0
VERTEX
  8
PLAN_1
 62
     2
  6
CONTINUOUS
 10
-0.275594
 20
-0.193339
  0
VERTEX
  8
PLAN_1
 62
     2
  6
CONTINUOUS
 10
-0.277516
 20
-0.192378
  0
VERTEX
  8
PLAN_1
 62
     2
  6
CONTINUOUS
 10
-0.279433
 20
-0.190941
  0
VERTEX
  8
PLAN_1
 62
     2
  6
CONTINUOUS
 10
-0.281350
 20
-0.189500
  0
VERTEX
  8
PLAN_1
 62
     2
  6
CONTINUOUS
 10
-0.283272
 20
-0.188063
  0
VERTEX
  8
PLAN_1
 62
     2
  6
CONTINUOUS
 10
-0.284709
 20
-0.186142
  0
VERTEX
  8
PLAN_1
 62
     2
  6
CONTINUOUS
 10
-0.285669
 20
-0.183744
  0
VERTEX
  8
PLAN_1
 62
     2
  6
CONTINUOUS
 10
-0.287110
 20
-0.181827
  0
VERTEX
  8
PLAN_1
 62
     2
  6
CONTINUOUS
 10
-0.288067
 20
-0.179425
  0
VERTEX
  8
PLAN_1
 62
     2
  6
CONTINUOUS
 10
-0.289028
 20
-0.174150
  0
VERTEX
  8
PLAN_1
 62
     2
  6
CONTINUOUS
 10
-0.289508
 20
-0.168394
  0
VERTEX
  8
PLAN_1
 62
     2
  6
CONTINUOUS
 10
-0.289028
 20
-0.162154
  0
VERTEX
  8
PLAN_1
 62
     2
  6
CONTINUOUS
 10
-0.288067
 20
-0.156398
  0
VERTEX
  8
PLAN_1
 62
     2
  6
CONTINUOUS
 10
-0.287110
 20
-0.154000
  0
VERTEX
  8
PLAN_1
 62
     2
  6
CONTINUOUS
 10
-0.286150
 20
-0.151602
  0
VERTEX
  8
PLAN_1
 62
     2
  6
CONTINUOUS
 10
-0.284709
 20
-0.149201
  0
VERTEX
  8
PLAN_1
 62
     2
  6
CONTINUOUS
 10
-0.283272
 20
-0.146803
  0
VERTEX
  8
PLAN_1
 62
     2
  6
CONTINUOUS
 10
-0.281350
 20
-0.144886
  0
VERTEX
  8
PLAN_1
 62
     2
  6
CONTINUOUS
 10
-0.279433
 20
-0.143445
  0
VERTEX
  8
PLAN_1
 62
     2
  6
CONTINUOUS
 10
-0.277516
 20
-0.141528
  0
VERTEX
  8
PLAN_1
 62
     2
  6
CONTINUOUS
 10
-0.275114
 20
-0.140567
  0
VERTEX
  8
PLAN_1
 62
     2
  6
CONTINUOUS
 10
-0.272717
 20
-0.139606
  0
VERTEX
  8
PLAN_1
 62
     2
  6
CONTINUOUS
 10
-0.269839
 20
-0.138650
  0
VERTEX
  8
PLAN_1
 62
     2
  6
CONTINUOUS
 10
-0.266480
 20
-0.138169
  0
VERTEX
  8
PLAN_1
 62
     2
  6
CONTINUOUS
 10
-0.263602
 20
-0.138169
  0
VERTEX
  8
PLAN_1
 62
     2
  6
CONTINUOUS
 10
-0.260724
 20
-0.138169
  0
VERTEX
  8
PLAN_1
 62
     2
  6
CONTINUOUS
 10
-0.257846
 20
-0.138650
  0
VERTEX
  8
PLAN_1
 62
     2
  6
CONTINUOUS
 10
-0.255445
 20
-0.139126
  0
VERTEX
  8
PLAN_1
 62
     2
  6
CONTINUOUS
 10
-0.253047
 20
-0.140567
  0
VERTEX
  8
PLAN_1
 62
     2
  6
CONTINUOUS
 10
-0.251130
 20
-0.141528
  0
VERTEX
  8
PLAN_1
 62
     2
  6
CONTINUOUS
 10
-0.249209
 20
-0.142965
  0
VERTEX
  8
PLAN_1
 62
     2
  6
CONTINUOUS
 10
-0.247291
 20
-0.144886
  0
VERTEX
  8
PLAN_1
 62
     2
  6
CONTINUOUS
 10
-0.245850
 20
-0.146803
  0
VERTEX
  8
PLAN_1
 62
     2
  6
CONTINUOUS
 10
-0.244413
 20
-0.148724
  0
VERTEX
  8
PLAN_1
 62
     2
  6
CONTINUOUS
 10
-0.243453
 20
-0.151122
  0
VERTEX
  8
PLAN_1
 62
     2
  6
CONTINUOUS
 10
-0.242492
 20
-0.154000
  0
VERTEX
  8
PLAN_1
 62
     2
  6
CONTINUOUS
 10
-0.241531
 20
-0.156878
  0
VERTEX
  8
PLAN_1
 62
     2
  6
CONTINUOUS
 10
-0.240575
 20
-0.163114
  0
VERTEX
  8
PLAN_1
 62
     2
  6
CONTINUOUS
 10
-0.240094
 20
-0.169831
  0
VERTEX
  8
PLAN_1
 62
     2
  6
CONTINUOUS
 10
-0.279913
 20
-0.169831
  0
VERTEX
  8
PLAN_1
 62
     2
  6
CONTINUOUS
 10
-0.279433
 20
-0.173669
  0
VERTEX
  8
PLAN_1
 62
     2
  6
CONTINUOUS
 10
-0.278953
 20
-0.177508
  0
VERTEX
  8
PLAN_1
 62
     2
  6
CONTINUOUS
 10
-0.277516
 20
-0.180386
  0
VERTEX
  8
PLAN_1
 62
     2
  6
CONTINUOUS
 10
-0.275594
 20
-0.182783
  0
VERTEX
  8
PLAN_1
 62
     2
  6
CONTINUOUS
 10
-0.273677
 20
-0.185185
  0
VERTEX
  8
PLAN_1
 62
     2
  6
CONTINUOUS
 10
-0.270799
 20
-0.186622
  0
VERTEX
  8
PLAN_1
 62
     2
  6
CONTINUOUS
 10
-0.267441
 20
-0.187583
  0
VERTEX
  8
PLAN_1
 62
     2
  6
CONTINUOUS
 10
-0.264083
 20
-0.187583
  0
VERTEX
  8
PLAN_1
 62
     2
  6
CONTINUOUS
 10
-0.260724
 20
-0.187583
  0
VERTEX
  8
PLAN_1
 62
     2
  6
CONTINUOUS
 10
-0.258323
 20
-0.186622
  0
VERTEX
  8
PLAN_1
 62
     2
  6
CONTINUOUS
 10
-0.255925
 20
-0.185185
  0
VERTEX
  8
PLAN_1
 62
     2
  6
CONTINUOUS
 10
-0.254008
 20
-0.183744
  0
VERTEX
  8
PLAN_1
 62
     2
  6
CONTINUOUS
 10
-0.252087
 20
-0.182303
  0
VERTEX
  8
PLAN_1
 62
     2
  6
CONTINUOUS
 10
-0.251130
 20
-0.180386
  0
VERTEX
  8
PLAN_1
 62
     2
  6
CONTINUOUS
 10
-0.250169
 20
-0.178469
  0
VERTEX
  8
PLAN_1
 62
     2
  6
CONTINUOUS
 10
-0.249689
 20
-0.177028
  0
VERTEX
  8
PLAN_1
 62
     2
  6
CONTINUOUS
 10
-0.240575
 20
-0.177028
  0
SEQEND
  8
0
  0
POLYLINE
  8
PLAN_1
 62
     2
  6
CONTINUOUS
 66
     1
 40
0.003000
 41
0.003000
  0
VERTEX
  8
PLAN_1
 62
     2
  6
CONTINUOUS
 10
-0.249689
 20
-0.162634
  0
VERTEX
  8
PLAN_1
 62
     2
  6
CONTINUOUS
 10
-0.249689
 20
-0.159276
  0
VERTEX
  8
PLAN_1
 62
     2
  6
CONTINUOUS
 10
-0.250650
 20
-0.156398
  0
VERTEX
  8
PLAN_1
 62
     2
  6
CONTINUOUS
 10
-0.251606
 20
-0.153520
  0
VERTEX
  8
PLAN_1
 62
     2
  6
CONTINUOUS
 10
-0.253047
 20
-0.151122
  0
VERTEX
  8
PLAN_1
 62
     2
  6
CONTINUOUS
 10
-0.254965
 20
-0.149201
  0
VERTEX
  8
PLAN_1
 62
     2
  6
CONTINUOUS
 10
-0.257846
 20
-0.147764
  0
VERTEX
  8
PLAN_1
 62
     2
  6
CONTINUOUS
 10
-0.260724
 20
-0.146803
  0
VERTEX
  8
PLAN_1
 62
     2
  6
CONTINUOUS
 10
-0.264559
 20
-0.146323
  0
VERTEX
  8
PLAN_1
 62
     2
  6
CONTINUOUS
 10
-0.267917
 20
-0.146803
  0
VERTEX
  8
PLAN_1
 62
     2
  6
CONTINUOUS
 10
-0.270799
 20
-0.147764
  0
VERTEX
  8
PLAN_1
 62
     2
  6
CONTINUOUS
 10
-0.273197
 20
-0.149201
  0
VERTEX
  8
PLAN_1
 62
     2
  6
CONTINUOUS
 10
-0.275594
 20
-0.151122
  0
VERTEX
  8
PLAN_1
 62
     2
  6
CONTINUOUS
 10
-0.277035
 20
-0.153520
  0
VERTEX
  8
PLAN_1
 62
     2
  6
CONTINUOUS
 10
-0.278472
 20
-0.156398
  0
VERTEX
  8
PLAN_1
 62
     2
  6
CONTINUOUS
 10
-0.279433
 20
-0.159276
  0
VERTEX
  8
PLAN_1
 62
     2
  6
CONTINUOUS
 10
-0.279913
 20
-0.162634
  0
VERTEX
  8
PLAN_1
 62
     2
  6
CONTINUOUS
 10
-0.249689
 20
-0.162634
  0
SEQEND
  8
0
  0
POLYLINE
  8
PLAN_1
 62
     2
  6
CONTINUOUS
 66
     1
 40
0.003000
 41
0.003000
  0
VERTEX
  8
PLAN_1
 62
     2
  6
CONTINUOUS
 10
-0.198354
 20
-0.154961
  0
VERTEX
  8
PLAN_1
 62
     2
  6
CONTINUOUS
 10
-0.198354
 20
-0.154000
  0
VERTEX
  8
PLAN_1
 62
     2
  6
CONTINUOUS
 10
-0.198354
 20
-0.152079
  0
VERTEX
  8
PLAN_1
 62
     2
  6
CONTINUOUS
 10
-0.199315
 20
-0.150642
  0
VERTEX
  8
PLAN_1
 62
     2
  6
CONTINUOUS
 10
-0.200276
 20
-0.149201
  0
VERTEX
  8
PLAN_1
 62
     2
  6
CONTINUOUS
 10
-0.201713
 20
-0.147764
  0
VERTEX
  8
PLAN_1
 62
     2
  6
CONTINUOUS
 10
-0.204114
 20
-0.146803
  0
VERTEX
  8
PLAN_1
 62
     2
  6
CONTINUOUS
 10
-0.206992
 20
-0.146323
  0
VERTEX
  8
PLAN_1
 62
     2
  6
CONTINUOUS
 10
-0.210831
 20
-0.145843
  0
VERTEX
  8
PLAN_1
 62
     2
  6
CONTINUOUS
 10
-0.212268
 20
-0.145843
  0
VERTEX
  8
PLAN_1
 62
     2
  6
CONTINUOUS
 10
-0.213709
 20
-0.146323
  0
VERTEX
  8
PLAN_1
 62
     2
  6
CONTINUOUS
 10
-0.215626
 20
-0.146803
  0
VERTEX
  8
PLAN_1
 62
     2
  6
CONTINUOUS
 10
-0.217547
 20
-0.147283
  0
VERTEX
  8
PLAN_1
 62
     2
  6
CONTINUOUS
 10
-0.218984
 20
-0.148244
  0
VERTEX
  8
PLAN_1
 62
     2
  6
CONTINUOUS
 10
-0.220425
 20
-0.149681
  0
VERTEX
  8
PLAN_1
 62
     2
  6
CONTINUOUS
 10
-0.221382
 20
-0.151602
  0
VERTEX
  8
PLAN_1
 62
     2
  6
CONTINUOUS
 10
-0.221862
 20
-0.153520
  0
VERTEX
  8
PLAN_1
 62
     2
  6
CONTINUOUS
 10
-0.221862
 20
-0.155437
  0
VERTEX
  8
PLAN_1
 62
     2
  6
CONTINUOUS
 10
-0.221382
 20
-0.156398
  0
VERTEX
  8
PLAN_1
 62
     2
  6
CONTINUOUS
 10
-0.220425
 20
-0.157358
  0
VERTEX
  8
PLAN_1
 62
     2
  6
CONTINUOUS
 10
-0.219465
 20
-0.158319
  0
VERTEX
  8
PLAN_1
 62
     2
  6
CONTINUOUS
 10
-0.218024
 20
-0.159276
  0
VERTEX
  8
PLAN_1
 62
     2
  6
CONTINUOUS
 10
-0.216587
 20
-0.159756
  0
VERTEX
  8
PLAN_1
 62
     2
  6
CONTINUOUS
 10
-0.214665
 20
-0.160236
  0
VERTEX
  8
PLAN_1
 62
     2
  6
CONTINUOUS
 10
-0.211787
 20
-0.161197
  0
VERTEX
  8
PLAN_1
 62
     2
  6
CONTINUOUS
 10
-0.202673
 20
-0.163114
  0
VERTEX
  8
PLAN_1
 62
     2
  6
CONTINUOUS
 10
-0.198835
 20
-0.164555
  0
VERTEX
  8
PLAN_1
 62
     2
  6
CONTINUOUS
 10
-0.195476
 20
-0.165512
  0
VERTEX
  8
PLAN_1
 62
     2
  6
CONTINUOUS
 10
-0.193079
 20
-0.166953
  0
VERTEX
  8
PLAN_1
 62
     2
  6
CONTINUOUS
 10
-0.191157
 20
-0.168870
  0
VERTEX
  8
PLAN_1
 62
     2
  6
CONTINUOUS
 10
-0.189240
 20
-0.170791
  0
VERTEX
  8
PLAN_1
 62
     2
  6
CONTINUOUS
 10
-0.188280
 20
-0.172709
  0
VERTEX
  8
PLAN_1
 62
     2
  6
CONTINUOUS
 10
-0.187799
 20
-0.175110
  0
VERTEX
  8
PLAN_1
 62
     2
  6
CONTINUOUS
 10
-0.187323
 20
-0.177508
  0
VERTEX
  8
PLAN_1
 62
     2
  6
CONTINUOUS
 10
-0.187799
 20
-0.181827
  0
VERTEX
  8
PLAN_1
 62
     2
  6
CONTINUOUS
 10
-0.189240
 20
-0.185185
  0
VERTEX
  8
PLAN_1
 62
     2
  6
CONTINUOUS
 10
-0.191157
 20
-0.188063
  0
VERTEX
  8
PLAN_1
 62
     2
  6
CONTINUOUS
 10
-0.193559
 20
-0.190941
  0
VERTEX
  8
PLAN_1
 62
     2
  6
CONTINUOUS
 10
-0.196917
 20
-0.192858
  0
VERTEX
  8
PLAN_1
 62
     2
  6
CONTINUOUS
 10
-0.200756
 20
-0.194299
  0
VERTEX
  8
PLAN_1
 62
     2
  6
CONTINUOUS
 10
-0.204591
 20
-0.195260
  0
VERTEX
  8
PLAN_1
 62
     2
  6
CONTINUOUS
 10
-0.208909
 20
-0.195736
  0
VERTEX
  8
PLAN_1
 62
     2
  6
CONTINUOUS
 10
-0.212748
 20
-0.195260
  0
VERTEX
  8
PLAN_1
 62
     2
  6
CONTINUOUS
 10
-0.216106
 20
-0.195260
  0
VERTEX
  8
PLAN_1
 62
     2
  6
CONTINUOUS
 10
-0.218984
 20
-0.194299
  0
VERTEX
  8
PLAN_1
 62
     2
  6
CONTINUOUS
 10
-0.221862
 20
-0.193339
  0
VERTEX
  8
PLAN_1
 62
     2
  6
CONTINUOUS
 10
-0.223783
 20
-0.192378
  0
VERTEX
  8
PLAN_1
 62
     2
  6
CONTINUOUS
 10
-0.225701
 20
-0.191421
  0
VERTEX
  8
PLAN_1
 62
     2
  6
CONTINUOUS
 10
-0.227622
 20
-0.189980
  0
VERTEX
  8
PLAN_1
 62
     2
  6
CONTINUOUS
 10
-0.228579
 20
-0.188543
  0
VERTEX
  8
PLAN_1
 62
     2
  6
CONTINUOUS
 10
-0.230500
 20
-0.185661
  0
VERTEX
  8
PLAN_1
 62
     2
  6
CONTINUOUS
 10
-0.231937
 20
-0.182303
  0
VERTEX
  8
PLAN_1
 62
     2
  6
CONTINUOUS
 10
-0.232417
 20
-0.179425
  0
VERTEX
  8
PLAN_1
 62
     2
  6
CONTINUOUS
 10
-0.232417
 20
-0.176547
  0
VERTEX
  8
PLAN_1
 62
     2
  6
CONTINUOUS
 10
-0.223783
 20
-0.176547
  0
VERTEX
  8
PLAN_1
 62
     2
  6
CONTINUOUS
 10
-0.223303
 20
-0.178469
  0
VERTEX
  8
PLAN_1
 62
     2
  6
CONTINUOUS
 10
-0.223303
 20
-0.179906
  0
VERTEX
  8
PLAN_1
 62
     2
  6
CONTINUOUS
 10
-0.222343
 20
-0.181827
  0
VERTEX
  8
PLAN_1
 62
     2
  6
CONTINUOUS
 10
-0.220906
 20
-0.183744
  0
VERTEX
  8
PLAN_1
 62
     2
  6
CONTINUOUS
 10
-0.219465
 20
-0.185185
  0
VERTEX
  8
PLAN_1
 62
     2
  6
CONTINUOUS
 10
-0.217067
 20
-0.186622
  0
VERTEX
  8
PLAN_1
 62
     2
  6
CONTINUOUS
 10
-0.213709
 20
-0.187583
  0
VERTEX
  8
PLAN_1
 62
     2
  6
CONTINUOUS
 10
-0.209390
 20
-0.187583
  0
VERTEX
  8
PLAN_1
 62
     2
  6
CONTINUOUS
 10
-0.206992
 20
-0.187583
  0
VERTEX
  8
PLAN_1
 62
     2
  6
CONTINUOUS
 10
-0.204591
 20
-0.187102
  0
VERTEX
  8
PLAN_1
 62
     2
  6
CONTINUOUS
 10
-0.202193
 20
-0.186622
  0
VERTEX
  8
PLAN_1
 62
     2
  6
CONTINUOUS
 10
-0.200276
 20
-0.185661
  0
VERTEX
  8
PLAN_1
 62
     2
  6
CONTINUOUS
 10
-0.198835
 20
-0.184224
  0
VERTEX
  8
PLAN_1
 62
     2
  6
CONTINUOUS
 10
-0.197874
 20
-0.182783
  0
VERTEX
  8
PLAN_1
 62
     2
  6
CONTINUOUS
 10
-0.196917
 20
-0.181346
  0
VERTEX
  8
PLAN_1
 62
     2
  6
CONTINUOUS
 10
-0.196917
 20
-0.178945
  0
VERTEX
  8
PLAN_1
 62
     2
  6
CONTINUOUS
 10
-0.196917
 20
-0.177508
  0
VERTEX
  8
PLAN_1
 62
     2
  6
CONTINUOUS
 10
-0.197398
 20
-0.176067
  0
VERTEX
  8
PLAN_1
 62
     2
  6
CONTINUOUS
 10
-0.197874
 20
-0.175110
  0
VERTEX
  8
PLAN_1
 62
     2
  6
CONTINUOUS
 10
-0.199315
 20
-0.174150
  0
VERTEX
  8
PLAN_1
 62
     2
  6
CONTINUOUS
 10
-0.200756
 20
-0.173669
  0
VERTEX
  8
PLAN_1
 62
     2
  6
CONTINUOUS
 10
-0.202673
 20
-0.172709
  0
VERTEX
  8
PLAN_1
 62
     2
  6
CONTINUOUS
 10
-0.204591
 20
-0.172228
  0
VERTEX
  8
PLAN_1
 62
     2
  6
CONTINUOUS
 10
-0.207472
 20
-0.171272
  0
VERTEX
  8
PLAN_1
 62
     2
  6
CONTINUOUS
 10
-0.218024
 20
-0.168870
  0
VERTEX
  8
PLAN_1
 62
     2
  6
CONTINUOUS
 10
-0.220906
 20
-0.167913
  0
VERTEX
  8
PLAN_1
 62
     2
  6
CONTINUOUS
 10
-0.223303
 20
-0.166953
  0
VERTEX
  8
PLAN_1
 62
     2
  6
CONTINUOUS
 10
-0.225220
 20
-0.165512
  0
VERTEX
  8
PLAN_1
 62
     2
  6
CONTINUOUS
 10
-0.227142
 20
-0.164075
  0
VERTEX
  8
PLAN_1
 62
     2
  6
CONTINUOUS
 10
-0.228579
 20
-0.162634
  0
VERTEX
  8
PLAN_1
 62
     2
  6
CONTINUOUS
 10
-0.230020
 20
-0.160236
  0
VERTEX
  8
PLAN_1
 62
     2
  6
CONTINUOUS
 10
-0.230500
 20
-0.158319
  0
VERTEX
  8
PLAN_1
 62
     2
  6
CONTINUOUS
 10
-0.230500
 20
-0.155437
  0
VERTEX
  8
PLAN_1
 62
     2
  6
CONTINUOUS
 10
-0.230500
 20
-0.151122
  0
VERTEX
  8
PLAN_1
 62
     2
  6
CONTINUOUS
 10
-0.229059
 20
-0.147764
  0
VERTEX
  8
PLAN_1
 62
     2
  6
CONTINUOUS
 10
-0.227142
 20
-0.144886
  0
VERTEX
  8
PLAN_1
 62
     2
  6
CONTINUOUS
 10
-0.224264
 20
-0.142484
  0
VERTEX
  8
PLAN_1
 62
     2
  6
CONTINUOUS
 10
-0.221382
 20
-0.140567
  0
VERTEX
  8
PLAN_1
 62
     2
  6
CONTINUOUS
 10
-0.218024
 20
-0.139126
  0
VERTEX
  8
PLAN_1
 62
     2
  6
CONTINUOUS
 10
-0.214189
 20
-0.138169
  0
VERTEX
  8
PLAN_1
 62
     2
  6
CONTINUOUS
 10
-0.210350
 20
-0.138169
  0
VERTEX
  8
PLAN_1
 62
     2
  6
CONTINUOUS
 10
-0.206512
 20
-0.138169
  0
VERTEX
  8
PLAN_1
 62
     2
  6
CONTINUOUS
 10
-0.203634
 20
-0.138650
  0
VERTEX
  8
PLAN_1
 62
     2
  6
CONTINUOUS
 10
-0.200756
 20
-0.139606
  0
VERTEX
  8
PLAN_1
 62
     2
  6
CONTINUOUS
 10
-0.198835
 20
-0.140567
  0
VERTEX
  8
PLAN_1
 62
     2
  6
CONTINUOUS
 10
-0.196917
 20
-0.141528
  0
VERTEX
  8
PLAN_1
 62
     2
  6
CONTINUOUS
 10
-0.194996
 20
-0.142965
  0
VERTEX
  8
PLAN_1
 62
     2
  6
CONTINUOUS
 10
-0.193559
 20
-0.143925
  0
VERTEX
  8
PLAN_1
 62
     2
  6
CONTINUOUS
 10
-0.192598
 20
-0.145366
  0
VERTEX
  8
PLAN_1
 62
     2
  6
CONTINUOUS
 10
-0.190681
 20
-0.148724
  0
VERTEX
  8
PLAN_1
 62
     2
  6
CONTINUOUS
 10
-0.189720
 20
-0.151122
  0
VERTEX
  8
PLAN_1
 62
     2
  6
CONTINUOUS
 10
-0.189240
 20
-0.153520
  0
VERTEX
  8
PLAN_1
 62
     2
  6
CONTINUOUS
 10
-0.189240
 20
-0.154961
  0
VERTEX
  8
PLAN_1
 62
     2
  6
CONTINUOUS
 10
-0.198354
 20
-0.154961
  0
SEQEND
  8
0
  0
POLYLINE
  8
PLAN_1
 62
     2
  6
CONTINUOUS
 66
     1
 40
0.003000
 41
0.003000
  0
VERTEX
  8
PLAN_1
 62
     2
  6
CONTINUOUS
 10
-0.117280
 20
-0.193819
  0
VERTEX
  8
PLAN_1
 62
     2
  6
CONTINUOUS
 10
-0.127354
 20
-0.193819
  0
VERTEX
  8
PLAN_1
 62
     2
  6
CONTINUOUS
 10
-0.127354
 20
-0.142008
  0
VERTEX
  8
PLAN_1
 62
     2
  6
CONTINUOUS
 10
-0.144146
 20
-0.142008
  0
VERTEX
  8
PLAN_1
 62
     2
  6
CONTINUOUS
 10
-0.144146
 20
-0.134811
  0
VERTEX
  8
PLAN_1
 62
     2
  6
CONTINUOUS
 10
-0.140307
 20
-0.134331
  0
VERTEX
  8
PLAN_1
 62
     2
  6
CONTINUOUS
 10
-0.136469
 20
-0.133850
  0
VERTEX
  8
PLAN_1
 62
     2
  6
CONTINUOUS
 10
-0.133591
 20
-0.133370
  0
VERTEX
  8
PLAN_1
 62
     2
  6
CONTINUOUS
 10
-0.131189
 20
-0.131933
  0
VERTEX
  8
PLAN_1
 62
     2
  6
CONTINUOUS
 10
-0.128791
 20
-0.130492
  0
VERTEX
  8
PLAN_1
 62
     2
  6
CONTINUOUS
 10
-0.127354
 20
-0.128094
  0
VERTEX
  8
PLAN_1
 62
     2
  6
CONTINUOUS
 10
-0.125913
 20
-0.124736
  0
VERTEX
  8
PLAN_1
 62
     2
  6
CONTINUOUS
 10
-0.124472
 20
-0.120898
  0
VERTEX
  8
PLAN_1
 62
     2
  6
CONTINUOUS
 10
-0.117280
 20
-0.120898
  0
VERTEX
  8
PLAN_1
 62
     2
  6
CONTINUOUS
 10
-0.117280
 20
-0.193819
  0
SEQEND
  8
0
  0
POLYLINE
  8
PLAN_1
 62
     2
  6
CONTINUOUS
 66
     1
 40
0.003000
 41
0.003000
  0
VERTEX
  8
PLAN_1
 62
     2
  6
CONTINUOUS
 10
-0.059709
 20
-0.193819
  0
VERTEX
  8
PLAN_1
 62
     2
  6
CONTINUOUS
 10
-0.069303
 20
-0.193819
  0
VERTEX
  8
PLAN_1
 62
     2
  6
CONTINUOUS
 10
-0.069303
 20
-0.142008
  0
VERTEX
  8
PLAN_1
 62
     2
  6
CONTINUOUS
 10
-0.086575
 20
-0.142008
  0
VERTEX
  8
PLAN_1
 62
     2
  6
CONTINUOUS
 10
-0.086575
 20
-0.134811
  0
VERTEX
  8
PLAN_1
 62
     2
  6
CONTINUOUS
 10
-0.082256
 20
-0.134331
  0
VERTEX
  8
PLAN_1
 62
     2
  6
CONTINUOUS
 10
-0.078898
 20
-0.133850
  0
VERTEX
  8
PLAN_1
 62
     2
  6
CONTINUOUS
 10
-0.075539
 20
-0.133370
  0
VERTEX
  8
PLAN_1
 62
     2
  6
CONTINUOUS
 10
-0.073142
 20
-0.131933
  0
VERTEX
  8
PLAN_1
 62
     2
  6
CONTINUOUS
 10
-0.071220
 20
-0.130492
  0
VERTEX
  8
PLAN_1
 62
     2
  6
CONTINUOUS
 10
-0.069303
 20
-0.128094
  0
VERTEX
  8
PLAN_1
 62
     2
  6
CONTINUOUS
 10
-0.067862
 20
-0.124736
  0
VERTEX
  8
PLAN_1
 62
     2
  6
CONTINUOUS
 10
-0.066906
 20
-0.120898
  0
VERTEX
  8
PLAN_1
 62
     2
  6
CONTINUOUS
 10
-0.059709
 20
-0.120898
  0
VERTEX
  8
PLAN_1
 62
     2
  6
CONTINUOUS
 10
-0.059709
 20
-0.193819
  0
SEQEND
  8
0
  0
POLYLINE
  8
PLAN_1
 62
     2
  6
CONTINUOUS
 66
     1
 40
0.003000
 41
0.003000
  0
VERTEX
  8
PLAN_1
 62
     2
  6
CONTINUOUS
 10
-0.004055
 20
-0.139606
  0
VERTEX
  8
PLAN_1
 62
     2
  6
CONTINUOUS
 10
0.004579
 20
-0.139606
  0
VERTEX
  8
PLAN_1
 62
     2
  6
CONTINUOUS
 10
0.004579
 20
-0.147283
  0
VERTEX
  8
PLAN_1
 62
     2
  6
CONTINUOUS
 10
0.005539
 20
-0.145843
  0
VERTEX
  8
PLAN_1
 62
     2
  6
CONTINUOUS
 10
0.006976
 20
-0.144406
  0
VERTEX
  8
PLAN_1
 62
     2
  6
CONTINUOUS
 10
0.008417
 20
-0.142965
  0
VERTEX
  8
PLAN_1
 62
     2
  6
CONTINUOUS
 10
0.009854
 20
-0.141528
  0
VERTEX
  8
PLAN_1
 62
     2
  6
CONTINUOUS
 10
0.012256
 20
-0.140087
  0
VERTEX
  8
PLAN_1
 62
     2
  6
CONTINUOUS
 10
0.014654
 20
-0.139126
  0
VERTEX
  8
PLAN_1
 62
     2
  6
CONTINUOUS
 10
0.017531
 20
-0.138169
  0
VERTEX
  8
PLAN_1
 62
     2
  6
CONTINUOUS
 10
0.020890
 20
-0.138169
  0
VERTEX
  8
PLAN_1
 62
     2
  6
CONTINUOUS
 10
0.023768
 20
-0.138169
  0
VERTEX
  8
PLAN_1
 62
     2
  6
CONTINUOUS
 10
0.026169
 20
-0.138650
  0
VERTEX
  8
PLAN_1
 62
     2
  6
CONTINUOUS
 10
0.028567
 20
-0.139126
  0
VERTEX
  8
PLAN_1
 62
     2
  6
CONTINUOUS
 10
0.030484
 20
-0.140087
  0
VERTEX
  8
PLAN_1
 62
     2
  6
CONTINUOUS
 10
0.032886
 20
-0.141528
  0
VERTEX
  8
PLAN_1
 62
     2
  6
CONTINUOUS
 10
0.034323
 20
-0.142484
  0
VERTEX
  8
PLAN_1
 62
     2
  6
CONTINUOUS
 10
0.036244
 20
-0.144406
  0
VERTEX
  8
PLAN_1
 62
     2
  6
CONTINUOUS
 10
0.037681
 20
-0.145843
  0
VERTEX
  8
PLAN_1
 62
     2
  6
CONTINUOUS
 10
0.040559
 20
-0.150161
  0
VERTEX
  8
PLAN_1
 62
     2
  6
CONTINUOUS
 10
0.042000
 20
-0.154480
  0
VERTEX
  8
PLAN_1
 62
     2
  6
CONTINUOUS
 10
0.043437
 20
-0.159756
  0
VERTEX
  8
PLAN_1
 62
     2
  6
CONTINUOUS
 10
0.043917
 20
-0.165035
  0
VERTEX
  8
PLAN_1
 62
     2
  6
CONTINUOUS
 10
0.043437
 20
-0.170311
  0
VERTEX
  8
PLAN_1
 62
     2
  6
CONTINUOUS
 10
0.042480
 20
-0.175587
  0
VERTEX
  8
PLAN_1
 62
     2
  6
CONTINUOUS
 10
0.041039
 20
-0.180386
  0
VERTEX
  8
PLAN_1
 62
     2
  6
CONTINUOUS
 10
0.038642
 20
-0.185185
  0
VERTEX
  8
PLAN_1
 62
     2
  6
CONTINUOUS
 10
0.037201
 20
-0.187583
  0
VERTEX
  8
PLAN_1
 62
     2
  6
CONTINUOUS
 10
0.035283
 20
-0.189500
  0
VERTEX
  8
PLAN_1
 62
     2
  6
CONTINUOUS
 10
0.033362
 20
-0.191421
  0
VERTEX
  8
PLAN_1
 62
     2
  6
CONTINUOUS
 10
0.031445
 20
-0.192858
  0
VERTEX
  8
PLAN_1
 62
     2
  6
CONTINUOUS
 10
0.029047
 20
-0.193819
  0
VERTEX
  8
PLAN_1
 62
     2
  6
CONTINUOUS
 10
0.026169
 20
-0.194780
  0
VERTEX
  8
PLAN_1
 62
     2
  6
CONTINUOUS
 10
0.023287
 20
-0.195260
  0
VERTEX
  8
PLAN_1
 62
     2
  6
CONTINUOUS
 10
0.019929
 20
-0.195736
  0
VERTEX
  8
PLAN_1
 62
     2
  6
CONTINUOUS
 10
0.017051
 20
-0.195260
  0
VERTEX
  8
PLAN_1
 62
     2
  6
CONTINUOUS
 10
0.014654
 20
-0.194780
  0
VERTEX
  8
PLAN_1
 62
     2
  6
CONTINUOUS
 10
0.012736
 20
-0.194299
  0
VERTEX
  8
PLAN_1
 62
     2
  6
CONTINUOUS
 10
0.010815
 20
-0.193339
  0
VERTEX
  8
PLAN_1
 62
     2
  6
CONTINUOUS
 10
0.008898
 20
-0.192378
  0
VERTEX
  8
PLAN_1
 62
     2
  6
CONTINUOUS
 10
0.007457
 20
-0.190941
  0
VERTEX
  8
PLAN_1
 62
     2
  6
CONTINUOUS
 10
0.006496
 20
-0.189980
  0
VERTEX
  8
PLAN_1
 62
     2
  6
CONTINUOUS
 10
0.005539
 20
-0.188543
  0
VERTEX
  8
PLAN_1
 62
     2
  6
CONTINUOUS
 10
0.005059
 20
-0.188543
  0
VERTEX
  8
PLAN_1
 62
     2
  6
CONTINUOUS
 10
0.005059
 20
-0.215409
  0
VERTEX
  8
PLAN_1
 62
     2
  6
CONTINUOUS
 10
-0.004055
 20
-0.215409
  0
VERTEX
  8
PLAN_1
 62
     2
  6
CONTINUOUS
 10
-0.004055
 20
-0.139606
  0
SEQEND
  8
0
  0
POLYLINE
  8
PLAN_1
 62
     2
  6
CONTINUOUS
 66
     1
 40
0.003000
 41
0.003000
  0
VERTEX
  8
PLAN_1
 62
     2
  6
CONTINUOUS
 10
0.019453
 20
-0.187583
  0
VERTEX
  8
PLAN_1
 62
     2
  6
CONTINUOUS
 10
0.022811
 20
-0.187102
  0
VERTEX
  8
PLAN_1
 62
     2
  6
CONTINUOUS
 10
0.026169
 20
-0.186142
  0
VERTEX
  8
PLAN_1
 62
     2
  6
CONTINUOUS
 10
0.028567
 20
-0.184224
  0
VERTEX
  8
PLAN_1
 62
     2
  6
CONTINUOUS
 10
0.030484
 20
-0.181827
  0
VERTEX
  8
PLAN_1
 62
     2
  6
CONTINUOUS
 10
0.032406
 20
-0.178469
  0
VERTEX
  8
PLAN_1
 62
     2
  6
CONTINUOUS
 10
0.033362
 20
-0.175110
  0
VERTEX
  8
PLAN_1
 62
     2
  6
CONTINUOUS
 10
0.033843
 20
-0.171272
  0
VERTEX
  8
PLAN_1
 62
     2
  6
CONTINUOUS
 10
0.034323
 20
-0.166472
  0
VERTEX
  8
PLAN_1
 62
     2
  6
CONTINUOUS
 10
0.034323
 20
-0.163594
  0
VERTEX
  8
PLAN_1
 62
     2
  6
CONTINUOUS
 10
0.033843
 20
-0.160717
  0
VERTEX
  8
PLAN_1
 62
     2
  6
CONTINUOUS
 10
0.033362
 20
-0.157358
  0
VERTEX
  8
PLAN_1
 62
     2
  6
CONTINUOUS
 10
0.031925
 20
-0.154000
  0
VERTEX
  8
PLAN_1
 62
     2
  6
CONTINUOUS
 10
0.031445
 20
-0.152559
  0
VERTEX
  8
PLAN_1
 62
     2
  6
CONTINUOUS
 10
0.030484
 20
-0.151122
  0
VERTEX
  8
PLAN_1
 62
     2
  6
CONTINUOUS
 10
0.029047
 20
-0.149681
  0
VERTEX
  8
PLAN_1
 62
     2
  6
CONTINUOUS
 10
0.027606
 20
-0.148724
  0
VERTEX
  8
PLAN_1
 62
     2
  6
CONTINUOUS
 10
0.026169
 20
-0.147764
  0
VERTEX
  8
PLAN_1
 62
     2
  6
CONTINUOUS
 10
0.024248
 20
-0.146803
  0
VERTEX
  8
PLAN_1
 62
     2
  6
CONTINUOUS
 10
0.021850
 20
-0.146323
  0
VERTEX
  8
PLAN_1
 62
     2
  6
CONTINUOUS
 10
0.019453
 20
-0.146323
  0
VERTEX
  8
PLAN_1
 62
     2
  6
CONTINUOUS
 10
0.017051
 20
-0.146323
  0
VERTEX
  8
PLAN_1
 62
     2
  6
CONTINUOUS
 10
0.015134
 20
-0.146803
  0
VERTEX
  8
PLAN_1
 62
     2
  6
CONTINUOUS
 10
0.013213
 20
-0.147764
  0
VERTEX
  8
PLAN_1
 62
     2
  6
CONTINUOUS
 10
0.011295
 20
-0.148724
  0
VERTEX
  8
PLAN_1
 62
     2
  6
CONTINUOUS
 10
0.009854
 20
-0.149681
  0
VERTEX
  8
PLAN_1
 62
     2
  6
CONTINUOUS
 10
0.008898
 20
-0.151122
  0
VERTEX
  8
PLAN_1
 62
     2
  6
CONTINUOUS
 10
0.007937
 20
-0.153039
  0
VERTEX
  8
PLAN_1
 62
     2
  6
CONTINUOUS
 10
0.006976
 20
-0.154480
  0
VERTEX
  8
PLAN_1
 62
     2
  6
CONTINUOUS
 10
0.006020
 20
-0.158319
  0
VERTEX
  8
PLAN_1
 62
     2
  6
CONTINUOUS
 10
0.005059
 20
-0.162154
  0
VERTEX
  8
PLAN_1
 62
     2
  6
CONTINUOUS
 10
0.004579
 20
-0.165992
  0
VERTEX
  8
PLAN_1
 62
     2
  6
CONTINUOUS
 10
0.004579
 20
-0.169350
  0
VERTEX
  8
PLAN_1
 62
     2
  6
CONTINUOUS
 10
0.005059
 20
-0.174150
  0
VERTEX
  8
PLAN_1
 62
     2
  6
CONTINUOUS
 10
0.006020
 20
-0.178469
  0
VERTEX
  8
PLAN_1
 62
     2
  6
CONTINUOUS
 10
0.007937
 20
-0.181346
  0
VERTEX
  8
PLAN_1
 62
     2
  6
CONTINUOUS
 10
0.009854
 20
-0.183744
  0
VERTEX
  8
PLAN_1
 62
     2
  6
CONTINUOUS
 10
0.012256
 20
-0.185661
  0
VERTEX
  8
PLAN_1
 62
     2
  6
CONTINUOUS
 10
0.014654
 20
-0.187102
  0
VERTEX
  8
PLAN_1
 62
     2
  6
CONTINUOUS
 10
0.017051
 20
-0.187583
  0
VERTEX
  8
PLAN_1
 62
     2
  6
CONTINUOUS
 10
0.019453
 20
-0.187583
  0
SEQEND
  8
0
  0
POLYLINE
  8
PLAN_1
 62
     2
  6
CONTINUOUS
 66
     1
 40
0.003000
 41
0.003000
  0
VERTEX
  8
PLAN_1
 62
     2
  6
CONTINUOUS
 10
0.076539
 20
-0.138169
  0
VERTEX
  8
PLAN_1
 62
     2
  6
CONTINUOUS
 10
0.079898
 20
-0.138169
  0
VERTEX
  8
PLAN_1
 62
     2
  6
CONTINUOUS
 10
0.082780
 20
-0.138650
  0
VERTEX
  8
PLAN_1
 62
     2
  6
CONTINUOUS
 10
0.085657
 20
-0.139606
  0
VERTEX
  8
PLAN_1
 62
     2
  6
CONTINUOUS
 10
0.088055
 20
-0.140567
  0
VERTEX
  8
PLAN_1
 62
     2
  6
CONTINUOUS
 10
0.090453
 20
-0.142008
  0
VERTEX
  8
PLAN_1
 62
     2
  6
CONTINUOUS
 10
0.092374
 20
-0.143445
  0
VERTEX
  8
PLAN_1
 62
     2
  6
CONTINUOUS
 10
0.094291
 20
-0.145366
  0
VERTEX
  8
PLAN_1
 62
     2
  6
CONTINUOUS
 10
0.095732
 20
-0.147283
  0
VERTEX
  8
PLAN_1
 62
     2
  6
CONTINUOUS
 10
0.098610
 20
-0.151602
  0
VERTEX
  8
PLAN_1
 62
     2
  6
CONTINUOUS
 10
0.100528
 20
-0.156398
  0
VERTEX
  8
PLAN_1
 62
     2
  6
CONTINUOUS
 10
0.101488
 20
-0.161677
  0
VERTEX
  8
PLAN_1
 62
     2
  6
CONTINUOUS
 10
0.101969
 20
-0.166953
  0
VERTEX
  8
PLAN_1
 62
     2
  6
CONTINUOUS
 10
0.101488
 20
-0.172228
  0
VERTEX
  8
PLAN_1
 62
     2
  6
CONTINUOUS
 10
0.100528
 20
-0.177028
  0
VERTEX
  8
PLAN_1
 62
     2
  6
CONTINUOUS
 10
0.098610
 20
-0.181827
  0
VERTEX
  8
PLAN_1
 62
     2
  6
CONTINUOUS
 10
0.095732
 20
-0.186622
  0
VERTEX
  8
PLAN_1
 62
     2
  6
CONTINUOUS
 10
0.094291
 20
-0.188543
  0
VERTEX
  8
PLAN_1
 62
     2
  6
CONTINUOUS
 10
0.092374
 20
-0.189980
  0
VERTEX
  8
PLAN_1
 62
     2
  6
CONTINUOUS
 10
0.090453
 20
-0.191902
  0
VERTEX
  8
PLAN_1
 62
     2
  6
CONTINUOUS
 10
0.088055
 20
-0.192858
  0
VERTEX
  8
PLAN_1
 62
     2
  6
CONTINUOUS
 10
0.085657
 20
-0.194299
  0
VERTEX
  8
PLAN_1
 62
     2
  6
CONTINUOUS
 10
0.082780
 20
-0.194780
  0
VERTEX
  8
PLAN_1
 62
     2
  6
CONTINUOUS
 10
0.079898
 20
-0.195260
  0
VERTEX
  8
PLAN_1
 62
     2
  6
CONTINUOUS
 10
0.076539
 20
-0.195736
  0
VERTEX
  8
PLAN_1
 62
     2
  6
CONTINUOUS
 10
0.073661
 20
-0.195260
  0
VERTEX
  8
PLAN_1
 62
     2
  6
CONTINUOUS
 10
0.070783
 20
-0.194780
  0
VERTEX
  8
PLAN_1
 62
     2
  6
CONTINUOUS
 10
0.067906
 20
-0.194299
  0
VERTEX
  8
PLAN_1
 62
     2
  6
CONTINUOUS
 10
0.065508
 20
-0.192858
  0
VERTEX
  8
PLAN_1
 62
     2
  6
CONTINUOUS
 10
0.063106
 20
-0.191902
  0
VERTEX
  8
PLAN_1
 62
     2
  6
CONTINUOUS
 10
0.061189
 20
-0.189980
  0
VERTEX
  8
PLAN_1
 62
     2
  6
CONTINUOUS
 10
0.059272
 20
-0.188543
  0
VERTEX
  8
PLAN_1
 62
     2
  6
CONTINUOUS
 10
0.057350
 20
-0.186622
  0
VERTEX
  8
PLAN_1
 62
     2
  6
CONTINUOUS
 10
0.054953
 20
-0.181827
  0
VERTEX
  8
PLAN_1
 62
     2
  6
CONTINUOUS
 10
0.053035
 20
-0.177028
  0
VERTEX
  8
PLAN_1
 62
     2
  6
CONTINUOUS
 10
0.051594
 20
-0.172228
  0
VERTEX
  8
PLAN_1
 62
     2
  6
CONTINUOUS
 10
0.051594
 20
-0.166953
  0
VERTEX
  8
PLAN_1
 62
     2
  6
CONTINUOUS
 10
0.051594
 20
-0.161677
  0
VERTEX
  8
PLAN_1
 62
     2
  6
CONTINUOUS
 10
0.053035
 20
-0.156398
  0
VERTEX
  8
PLAN_1
 62
     2
  6
CONTINUOUS
 10
0.054953
 20
-0.151602
  0
VERTEX
  8
PLAN_1
 62
     2
  6
CONTINUOUS
 10
0.057350
 20
-0.147283
  0
VERTEX
  8
PLAN_1
 62
     2
  6
CONTINUOUS
 10
0.059272
 20
-0.145366
  0
VERTEX
  8
PLAN_1
 62
     2
  6
CONTINUOUS
 10
0.061189
 20
-0.143445
  0
VERTEX
  8
PLAN_1
 62
     2
  6
CONTINUOUS
 10
0.063106
 20
-0.142008
  0
VERTEX
  8
PLAN_1
 62
     2
  6
CONTINUOUS
 10
0.065508
 20
-0.140567
  0
VERTEX
  8
PLAN_1
 62
     2
  6
CONTINUOUS
 10
0.067906
 20
-0.139606
  0
VERTEX
  8
PLAN_1
 62
     2
  6
CONTINUOUS
 10
0.070783
 20
-0.138650
  0
VERTEX
  8
PLAN_1
 62
     2
  6
CONTINUOUS
 10
0.073661
 20
-0.138169
  0
VERTEX
  8
PLAN_1
 62
     2
  6
CONTINUOUS
 10
0.076539
 20
-0.138169
  0
SEQEND
  8
0
  0
POLYLINE
  8
PLAN_1
 62
     2
  6
CONTINUOUS
 66
     1
 40
0.003000
 41
0.003000
  0
VERTEX
  8
PLAN_1
 62
     2
  6
CONTINUOUS
 10
0.076539
 20
-0.187583
  0
VERTEX
  8
PLAN_1
 62
     2
  6
CONTINUOUS
 10
0.078941
 20
-0.187583
  0
VERTEX
  8
PLAN_1
 62
     2
  6
CONTINUOUS
 10
0.081339
 20
-0.187102
  0
VERTEX
  8
PLAN_1
 62
     2
  6
CONTINUOUS
 10
0.083256
 20
-0.186142
  0
VERTEX
  8
PLAN_1
 62
     2
  6
CONTINUOUS
 10
0.084697
 20
-0.185185
  0
VERTEX
  8
PLAN_1
 62
     2
  6
CONTINUOUS
 10
0.087575
 20
-0.182783
  0
VERTEX
  8
PLAN_1
 62
     2
  6
CONTINUOUS
 10
0.089496
 20
-0.179906
  0
VERTEX
  8
PLAN_1
 62
     2
  6
CONTINUOUS
 10
0.090933
 20
-0.176547
  0
VERTEX
  8
PLAN_1
 62
     2
  6
CONTINUOUS
 10
0.091894
 20
-0.173189
  0
VERTEX
  8
PLAN_1
 62
     2
  6
CONTINUOUS
 10
0.092374
 20
-0.169831
  0
VERTEX
  8
PLAN_1
 62
     2
  6
CONTINUOUS
 10
0.092374
 20
-0.166953
  0
VERTEX
  8
PLAN_1
 62
     2
  6
CONTINUOUS
 10
0.092374
 20
-0.163594
  0
VERTEX
  8
PLAN_1
 62
     2
  6
CONTINUOUS
 10
0.091894
 20
-0.160236
  0
VERTEX
  8
PLAN_1
 62
     2
  6
CONTINUOUS
 10
0.090933
 20
-0.156878
  0
VERTEX
  8
PLAN_1
 62
     2
  6
CONTINUOUS
 10
0.089496
 20
-0.153520
  0
VERTEX
  8
PLAN_1
 62
     2
  6
CONTINUOUS
 10
0.087575
 20
-0.150642
  0
VERTEX
  8
PLAN_1
 62
     2
  6
CONTINUOUS
 10
0.084697
 20
-0.148244
  0
VERTEX
  8
PLAN_1
 62
     2
  6
CONTINUOUS
 10
0.083256
 20
-0.147283
  0
VERTEX
  8
PLAN_1
 62
     2
  6
CONTINUOUS
 10
0.081339
 20
-0.146803
  0
VERTEX
  8
PLAN_1
 62
     2
  6
CONTINUOUS
 10
0.078941
 20
-0.146323
  0
VERTEX
  8
PLAN_1
 62
     2
  6
CONTINUOUS
 10
0.076539
 20
-0.145843
  0
VERTEX
  8
PLAN_1
 62
     2
  6
CONTINUOUS
 10
0.074142
 20
-0.146323
  0
VERTEX
  8
PLAN_1
 62
     2
  6
CONTINUOUS
 10
0.072224
 20
-0.146803
  0
VERTEX
  8
PLAN_1
 62
     2
  6
CONTINUOUS
 10
0.070303
 20
-0.147283
  0
VERTEX
  8
PLAN_1
 62
     2
  6
CONTINUOUS
 10
0.068866
 20
-0.148244
  0
VERTEX
  8
PLAN_1
 62
     2
  6
CONTINUOUS
 10
0.065988
 20
-0.150642
  0
VERTEX
  8
PLAN_1
 62
     2
  6
CONTINUOUS
 10
0.064067
 20
-0.153520
  0
VERTEX
  8
PLAN_1
 62
     2
  6
CONTINUOUS
 10
0.062630
 20
-0.156878
  0
VERTEX
  8
PLAN_1
 62
     2
  6
CONTINUOUS
 10
0.061669
 20
-0.160236
  0
VERTEX
  8
PLAN_1
 62
     2
  6
CONTINUOUS
 10
0.061189
 20
-0.163594
  0
VERTEX
  8
PLAN_1
 62
     2
  6
CONTINUOUS
 10
0.060709
 20
-0.166953
  0
VERTEX
  8
PLAN_1
 62
     2
  6
CONTINUOUS
 10
0.061189
 20
-0.169831
  0
VERTEX
  8
PLAN_1
 62
     2
  6
CONTINUOUS
 10
0.061669
 20
-0.173189
  0
VERTEX
  8
PLAN_1
 62
     2
  6
CONTINUOUS
 10
0.062630
 20
-0.176547
  0
VERTEX
  8
PLAN_1
 62
     2
  6
CONTINUOUS
 10
0.064067
 20
-0.179906
  0
VERTEX
  8
PLAN_1
 62
     2
  6
CONTINUOUS
 10
0.065988
 20
-0.182783
  0
VERTEX
  8
PLAN_1
 62
     2
  6
CONTINUOUS
 10
0.068866
 20
-0.185185
  0
VERTEX
  8
PLAN_1
 62
     2
  6
CONTINUOUS
 10
0.070303
 20
-0.186142
  0
VERTEX
  8
PLAN_1
 62
     2
  6
CONTINUOUS
 10
0.072224
 20
-0.187102
  0
VERTEX
  8
PLAN_1
 62
     2
  6
CONTINUOUS
 10
0.074142
 20
-0.187583
  0
VERTEX
  8
PLAN_1
 62
     2
  6
CONTINUOUS
 10
0.076539
 20
-0.187583
  0
SEQEND
  8
0
  0
POLYLINE
  8
PLAN_1
 62
     2
  6
CONTINUOUS
 66
     1
 40
0.003000
 41
0.003000
  0
VERTEX
  8
PLAN_1
 62
     2
  6
CONTINUOUS
 10
0.148024
 20
-0.193819
  0
VERTEX
  8
PLAN_1
 62
     2
  6
CONTINUOUS
 10
0.148024
 20
-0.186142
  0
VERTEX
  8
PLAN_1
 62
     2
  6
CONTINUOUS
 10
0.147543
 20
-0.186142
  0
VERTEX
  8
PLAN_1
 62
     2
  6
CONTINUOUS
 10
0.146106
 20
-0.188063
  0
VERTEX
  8
PLAN_1
 62
     2
  6
CONTINUOUS
 10
0.144665
 20
-0.189980
  0
VERTEX
  8
PLAN_1
 62
     2
  6
CONTINUOUS
 10
0.142748
 20
-0.191902
  0
VERTEX
  8
PLAN_1
 62
     2
  6
CONTINUOUS
 10
0.140827
 20
-0.193339
  0
VERTEX
  8
PLAN_1
 62
     2
  6
CONTINUOUS
 10
0.138909
 20
-0.194299
  0
VERTEX
  8
PLAN_1
 62
     2
  6
CONTINUOUS
 10
0.136512
 20
-0.194780
  0
VERTEX
  8
PLAN_1
 62
     2
  6
CONTINUOUS
 10
0.133630
 20
-0.195260
  0
VERTEX
  8
PLAN_1
 62
     2
  6
CONTINUOUS
 10
0.130272
 20
-0.195736
  0
VERTEX
  8
PLAN_1
 62
     2
  6
CONTINUOUS
 10
0.127394
 20
-0.195260
  0
VERTEX
  8
PLAN_1
 62
     2
  6
CONTINUOUS
 10
0.124516
 20
-0.194780
  0
VERTEX
  8
PLAN_1
 62
     2
  6
CONTINUOUS
 10
0.121157
 20
-0.193819
  0
VERTEX
  8
PLAN_1
 62
     2
  6
CONTINUOUS
 10
0.118760
 20
-0.191902
  0
VERTEX
  8
PLAN_1
 62
     2
  6
CONTINUOUS
 10
0.116362
 20
-0.189980
  0
VERTEX
  8
PLAN_1
 62
     2
  6
CONTINUOUS
 10
0.114441
 20
-0.187102
  0
VERTEX
  8
PLAN_1
 62
     2
  6
CONTINUOUS
 10
0.113004
 20
-0.183264
  0
VERTEX
  8
PLAN_1
 62
     2
  6
CONTINUOUS
 10
0.113004
 20
-0.178945
  0
VERTEX
  8
PLAN_1
 62
     2
  6
CONTINUOUS
 10
0.113004
 20
-0.139606
  0
VERTEX
  8
PLAN_1
 62
     2
  6
CONTINUOUS
 10
0.122118
 20
-0.139606
  0
VERTEX
  8
PLAN_1
 62
     2
  6
CONTINUOUS
 10
0.122118
 20
-0.175587
  0
VERTEX
  8
PLAN_1
 62
     2
  6
CONTINUOUS
 10
0.122118
 20
-0.178945
  0
VERTEX
  8
PLAN_1
 62
     2
  6
CONTINUOUS
 10
0.122598
 20
-0.181346
  0
VERTEX
  8
PLAN_1
 62
     2
  6
CONTINUOUS
 10
0.123555
 20
-0.183264
  0
VERTEX
  8
PLAN_1
 62
     2
  6
CONTINUOUS
 10
0.124996
 20
-0.185185
  0
VERTEX
  8
PLAN_1
 62
     2
  6
CONTINUOUS
 10
0.126437
 20
-0.186142
  0
VERTEX
  8
PLAN_1
 62
     2
  6
CONTINUOUS
 10
0.128354
 20
-0.187102
  0
VERTEX
  8
PLAN_1
 62
     2
  6
CONTINUOUS
 10
0.130272
 20
-0.187583
  0
VERTEX
  8
PLAN_1
 62
     2
  6
CONTINUOUS
 10
0.132193
 20
-0.187583
  0
VERTEX
  8
PLAN_1
 62
     2
  6
CONTINUOUS
 10
0.136512
 20
-0.187102
  0
VERTEX
  8
PLAN_1
 62
     2
  6
CONTINUOUS
 10
0.139870
 20
-0.186142
  0
VERTEX
  8
PLAN_1
 62
     2
  6
CONTINUOUS
 10
0.142268
 20
-0.184224
  0
VERTEX
  8
PLAN_1
 62
     2
  6
CONTINUOUS
 10
0.144185
 20
-0.181827
  0
VERTEX
  8
PLAN_1
 62
     2
  6
CONTINUOUS
 10
0.145626
 20
-0.178945
  0
VERTEX
  8
PLAN_1
 62
     2
  6
CONTINUOUS
 10
0.146587
 20
-0.175587
  0
VERTEX
  8
PLAN_1
 62
     2
  6
CONTINUOUS
 10
0.147063
 20
-0.172709
  0
VERTEX
  8
PLAN_1
 62
     2
  6
CONTINUOUS
 10
0.147543
 20
-0.169831
  0
VERTEX
  8
PLAN_1
 62
     2
  6
CONTINUOUS
 10
0.147543
 20
-0.139606
  0
VERTEX
  8
PLAN_1
 62
     2
  6
CONTINUOUS
 10
0.156661
 20
-0.139606
  0
VERTEX
  8
PLAN_1
 62
     2
  6
CONTINUOUS
 10
0.156661
 20
-0.193819
  0
VERTEX
  8
PLAN_1
 62
     2
  6
CONTINUOUS
 10
0.148024
 20
-0.193819
  0
SEQEND
  8
0
  0
POLYLINE
  8
PLAN_1
 62
     2
  6
CONTINUOUS
 66
     1
 40
0.003000
 41
0.003000
  0
VERTEX
  8
PLAN_1
 62
     2
  6
CONTINUOUS
 10
0.180646
 20
-0.193819
  0
VERTEX
  8
PLAN_1
 62
     2
  6
CONTINUOUS
 10
0.171531
 20
-0.193819
  0
VERTEX
  8
PLAN_1
 62
     2
  6
CONTINUOUS
 10
0.171531
 20
-0.139606
  0
VERTEX
  8
PLAN_1
 62
     2
  6
CONTINUOUS
 10
0.180165
 20
-0.139606
  0
VERTEX
  8
PLAN_1
 62
     2
  6
CONTINUOUS
 10
0.180165
 20
-0.148724
  0
VERTEX
  8
PLAN_1
 62
     2
  6
CONTINUOUS
 10
0.180646
 20
-0.148724
  0
VERTEX
  8
PLAN_1
 62
     2
  6
CONTINUOUS
 10
0.182087
 20
-0.146323
  0
VERTEX
  8
PLAN_1
 62
     2
  6
CONTINUOUS
 10
0.183524
 20
-0.144406
  0
VERTEX
  8
PLAN_1
 62
     2
  6
CONTINUOUS
 10
0.184965
 20
-0.142484
  0
VERTEX
  8
PLAN_1
 62
     2
  6
CONTINUOUS
 10
0.186882
 20
-0.141047
  0
VERTEX
  8
PLAN_1
 62
     2
  6
CONTINUOUS
 10
0.188803
 20
-0.139606
  0
VERTEX
  8
PLAN_1
 62
     2
  6
CONTINUOUS
 10
0.190720
 20
-0.138650
  0
VERTEX
  8
PLAN_1
 62
     2
  6
CONTINUOUS
 10
0.193122
 20
-0.138169
  0
VERTEX
  8
PLAN_1
 62
     2
  6
CONTINUOUS
 10
0.195520
 20
-0.138169
  0
VERTEX
  8
PLAN_1
 62
     2
  6
CONTINUOUS
 10
0.196000
 20
-0.138169
  0
VERTEX
  8
PLAN_1
 62
     2
  6
CONTINUOUS
 10
0.196480
 20
-0.138169
  0
VERTEX
  8
PLAN_1
 62
     2
  6
CONTINUOUS
 10
0.196957
 20
-0.138169
  0
VERTEX
  8
PLAN_1
 62
     2
  6
CONTINUOUS
 10
0.197437
 20
-0.138169
  0
VERTEX
  8
PLAN_1
 62
     2
  6
CONTINUOUS
 10
0.197917
 20
-0.138169
  0
VERTEX
  8
PLAN_1
 62
     2
  6
CONTINUOUS
 10
0.197917
 20
-0.147764
  0
VERTEX
  8
PLAN_1
 62
     2
  6
CONTINUOUS
 10
0.194559
 20
-0.147764
  0
VERTEX
  8
PLAN_1
 62
     2
  6
CONTINUOUS
 10
0.191681
 20
-0.148244
  0
VERTEX
  8
PLAN_1
 62
     2
  6
CONTINUOUS
 10
0.188803
 20
-0.149201
  0
VERTEX
  8
PLAN_1
 62
     2
  6
CONTINUOUS
 10
0.186406
 20
-0.150161
  0
VERTEX
  8
PLAN_1
 62
     2
  6
CONTINUOUS
 10
0.184484
 20
-0.152079
  0
VERTEX
  8
PLAN_1
 62
     2
  6
CONTINUOUS
 10
0.183047
 20
-0.154480
  0
VERTEX
  8
PLAN_1
 62
     2
  6
CONTINUOUS
 10
0.181606
 20
-0.156878
  0
VERTEX
  8
PLAN_1
 62
     2
  6
CONTINUOUS
 10
0.181126
 20
-0.159756
  0
VERTEX
  8
PLAN_1
 62
     2
  6
CONTINUOUS
 10
0.180646
 20
-0.162634
  0
VERTEX
  8
PLAN_1
 62
     2
  6
CONTINUOUS
 10
0.180646
 20
-0.193819
  0
SEQEND
  8
0
  0
POLYLINE
  8
PLAN_1
 62
     2
  6
CONTINUOUS
 66
     1
 40
0.003000
 41
0.003000
  0
VERTEX
  8
PLAN_1
 62
     2
  6
CONTINUOUS
 10
-0.929496
 20
-0.281134
  0
VERTEX
  8
PLAN_1
 62
     2
  6
CONTINUOUS
 10
-0.929016
 20
-0.276815
  0
VERTEX
  8
PLAN_1
 62
     2
  6
CONTINUOUS
 10
-0.928055
 20
-0.272976
  0
VERTEX
  8
PLAN_1
 62
     2
  6
CONTINUOUS
 10
-0.925657
 20
-0.269618
  0
VERTEX
  8
PLAN_1
 62
     2
  6
CONTINUOUS
 10
-0.923256
 20
-0.267220
  0
VERTEX
  8
PLAN_1
 62
     2
  6
CONTINUOUS
 10
-0.919898
 20
-0.265303
  0
VERTEX
  8
PLAN_1
 62
     2
  6
CONTINUOUS
 10
-0.916063
 20
-0.263862
  0
VERTEX
  8
PLAN_1
 62
     2
  6
CONTINUOUS
 10
-0.911744
 20
-0.263382
  0
VERTEX
  8
PLAN_1
 62
     2
  6
CONTINUOUS
 10
-0.906945
 20
-0.262902
  0
VERTEX
  8
PLAN_1
 62
     2
  6
CONTINUOUS
 10
-0.905028
 20
-0.262902
  0
VERTEX
  8
PLAN_1
 62
     2
  6
CONTINUOUS
 10
-0.902150
 20
-0.263382
  0
VERTEX
  8
PLAN_1
 62
     2
  6
CONTINUOUS
 10
-0.898791
 20
-0.264343
  0
VERTEX
  8
PLAN_1
 62
     2
  6
CONTINUOUS
 10
-0.895433
 20
-0.265303
  0
VERTEX
  8
PLAN_1
 62
     2
  6
CONTINUOUS
 10
-0.892075
 20
-0.267220
  0
VERTEX
  8
PLAN_1
 62
     2
  6
CONTINUOUS
 10
-0.889677
 20
-0.270098
  0
VERTEX
  8
PLAN_1
 62
     2
  6
CONTINUOUS
 10
-0.888236
 20
-0.271539
  0
VERTEX
  8
PLAN_1
 62
     2
  6
CONTINUOUS
 10
-0.887756
 20
-0.273457
  0
VERTEX
  8
PLAN_1
 62
     2
  6
CONTINUOUS
 10
-0.887276
 20
-0.275854
  0
VERTEX
  8
PLAN_1
 62
     2
  6
CONTINUOUS
 10
-0.886795
 20
-0.278256
  0
VERTEX
  8
PLAN_1
 62
     2
  6
CONTINUOUS
 10
-0.886795
 20
-0.309437
  0
VERTEX
  8
PLAN_1
 62
     2
  6
CONTINUOUS
 10
-0.886795
 20
-0.310398
  0
VERTEX
  8
PLAN_1
 62
     2
  6
CONTINUOUS
 10
-0.886795
 20
-0.310878
  0
VERTEX
  8
PLAN_1
 62
     2
  6
CONTINUOUS
 10
-0.886319
 20
-0.311358
  0
VERTEX
  8
PLAN_1
 62
     2
  6
CONTINUOUS
 10
-0.886319
 20
-0.311839
  0
VERTEX
  8
PLAN_1
 62
     2
  6
CONTINUOUS
 10
-0.885839
 20
-0.312319
  0
VERTEX
  8
PLAN_1
 62
     2
  6
CONTINUOUS
 10
-0.885358
 20
-0.312795
  0
VERTEX
  8
PLAN_1
 62
     2
  6
CONTINUOUS
 10
-0.884398
 20
-0.312795
  0
VERTEX
  8
PLAN_1
 62
     2
  6
CONTINUOUS
 10
-0.883917
 20
-0.312795
  0
VERTEX
  8
PLAN_1
 62
     2
  6
CONTINUOUS
 10
-0.883437
 20
-0.312795
  0
VERTEX
  8
PLAN_1
 62
     2
  6
CONTINUOUS
 10
-0.882961
 20
-0.312795
  0
VERTEX
  8
PLAN_1
 62
     2
  6
CONTINUOUS
 10
-0.882480
 20
-0.312795
  0
VERTEX
  8
PLAN_1
 62
     2
  6
CONTINUOUS
 10
-0.882000
 20
-0.312795
  0
VERTEX
  8
PLAN_1
 62
     2
  6
CONTINUOUS
 10
-0.881520
 20
-0.312319
  0
VERTEX
  8
PLAN_1
 62
     2
  6
CONTINUOUS
 10
-0.881039
 20
-0.312319
  0
VERTEX
  8
PLAN_1
 62
     2
  6
CONTINUOUS
 10
-0.881039
 20
-0.319035
  0
VERTEX
  8
PLAN_1
 62
     2
  6
CONTINUOUS
 10
-0.881520
 20
-0.319035
  0
VERTEX
  8
PLAN_1
 62
     2
  6
CONTINUOUS
 10
-0.882000
 20
-0.319512
  0
VERTEX
  8
PLAN_1
 62
     2
  6
CONTINUOUS
 10
-0.882480
 20
-0.319512
  0
VERTEX
  8
PLAN_1
 62
     2
  6
CONTINUOUS
 10
-0.883437
 20
-0.319512
  0
VERTEX
  8
PLAN_1
 62
     2
  6
CONTINUOUS
 10
-0.883917
 20
-0.319992
  0
VERTEX
  8
PLAN_1
 62
     2
  6
CONTINUOUS
 10
-0.884398
 20
-0.319992
  0
VERTEX
  8
PLAN_1
 62
     2
  6
CONTINUOUS
 10
-0.885358
 20
-0.319992
  0
VERTEX
  8
PLAN_1
 62
     2
  6
CONTINUOUS
 10
-0.885839
 20
-0.319992
  0
VERTEX
  8
PLAN_1
 62
     2
  6
CONTINUOUS
 10
-0.888717
 20
-0.319992
  0
VERTEX
  8
PLAN_1
 62
     2
  6
CONTINUOUS
 10
-0.890634
 20
-0.319512
  0
VERTEX
  8
PLAN_1
 62
     2
  6
CONTINUOUS
 10
-0.892555
 20
-0.318555
  0
VERTEX
  8
PLAN_1
 62
     2
  6
CONTINUOUS
 10
-0.893512
 20
-0.317594
  0
VERTEX
  8
PLAN_1
 62
     2
  6
CONTINUOUS
 10
-0.894472
 20
-0.316154
  0
VERTEX
  8
PLAN_1
 62
     2
  6
CONTINUOUS
 10
-0.894953
 20
-0.314717
  0
VERTEX
  8
PLAN_1
 62
     2
  6
CONTINUOUS
 10
-0.895433
 20
-0.313276
  0
VERTEX
  8
PLAN_1
 62
     2
  6
CONTINUOUS
 10
-0.895433
 20
-0.311839
  0
VERTEX
  8
PLAN_1
 62
     2
  6
CONTINUOUS
 10
-0.896870
 20
-0.313276
  0
VERTEX
  8
PLAN_1
 62
     2
  6
CONTINUOUS
 10
-0.898791
 20
-0.314717
  0
VERTEX
  8
PLAN_1
 62
     2
  6
CONTINUOUS
 10
-0.900709
 20
-0.316154
  0
VERTEX
  8
PLAN_1
 62
     2
  6
CONTINUOUS
 10
-0.902630
 20
-0.317594
  0
VERTEX
  8
PLAN_1
 62
     2
  6
CONTINUOUS
 10
-0.905508
 20
-0.319035
  0
VERTEX
  8
PLAN_1
 62
     2
  6
CONTINUOUS
 10
-0.908386
 20
-0.319512
  0
VERTEX
  8
PLAN_1
 62
     2
  6
CONTINUOUS
 10
-0.911744
 20
-0.320472
  0
VERTEX
  8
PLAN_1
 62
     2
  6
CONTINUOUS
 10
-0.915102
 20
-0.320472
  0
VERTEX
  8
PLAN_1
 62
     2
  6
CONTINUOUS
 10
-0.918941
 20
-0.320472
  0
VERTEX
  8
PLAN_1
 62
     2
  6
CONTINUOUS
 10
-0.922299
 20
-0.319512
  0
VERTEX
  8
PLAN_1
 62
     2
  6
CONTINUOUS
 10
-0.925177
 20
-0.318075
  0
VERTEX
  8
PLAN_1
 62
     2
  6
CONTINUOUS
 10
-0.927575
 20
-0.316154
  0
VERTEX
  8
PLAN_1
 62
     2
  6
CONTINUOUS
 10
-0.929496
 20
-0.313756
  0
VERTEX
  8
PLAN_1
 62
     2
  6
CONTINUOUS
 10
-0.930933
 20
-0.311358
  0
VERTEX
  8
PLAN_1
 62
     2
  6
CONTINUOUS
 10
-0.931894
 20
-0.308480
  0
VERTEX
  8
PLAN_1
 62
     2
  6
CONTINUOUS
 10
-0.932374
 20
-0.304642
  0
VERTEX
  8
PLAN_1
 62
     2
  6
CONTINUOUS
 10
-0.932374
 20
-0.302720
  0
VERTEX
  8
PLAN_1
 62
     2
  6
CONTINUOUS
 10
-0.931894
 20
-0.300323
  0
VERTEX
  8
PLAN_1
 62
     2
  6
CONTINUOUS
 10
-0.930933
 20
-0.297925
  0
VERTEX
  8
PLAN_1
 62
     2
  6
CONTINUOUS
 10
-0.929972
 20
-0.295528
  0
VERTEX
  8
PLAN_1
 62
     2
  6
CONTINUOUS
 10
-0.927575
 20
-0.292646
  0
VERTEX
  8
PLAN_1
 62
     2
  6
CONTINUOUS
 10
-0.924697
 20
-0.290728
  0
VERTEX
  8
PLAN_1
 62
     2
  6
CONTINUOUS
 10
-0.920858
 20
-0.288811
  0
VERTEX
  8
PLAN_1
 62
     2
  6
CONTINUOUS
 10
-0.915583
 20
-0.287850
  0
VERTEX
  8
PLAN_1
 62
     2
  6
CONTINUOUS
 10
-0.900709
 20
-0.285929
  0
VERTEX
  8
PLAN_1
 62
     2
  6
CONTINUOUS
 10
-0.899752
 20
-0.285929
  0
VERTEX
  8
PLAN_1
 62
     2
  6
CONTINUOUS
 10
-0.898791
 20
-0.285453
  0
VERTEX
  8
PLAN_1
 62
     2
  6
CONTINUOUS
 10
-0.898311
 20
-0.285453
  0
VERTEX
  8
PLAN_1
 62
     2
  6
CONTINUOUS
 10
-0.897350
 20
-0.284492
  0
VERTEX
  8
PLAN_1
 62
     2
  6
CONTINUOUS
 10
-0.896870
 20
-0.284012
  0
VERTEX
  8
PLAN_1
 62
     2
  6
CONTINUOUS
 10
-0.896394
 20
-0.282571
  0
VERTEX
  8
PLAN_1
 62
     2
  6
CONTINUOUS
 10
-0.895913
 20
-0.281134
  0
VERTEX
  8
PLAN_1
 62
     2
  6
CONTINUOUS
 10
-0.895913
 20
-0.279693
  0
VERTEX
  8
PLAN_1
 62
     2
  6
CONTINUOUS
 10
-0.895913
 20
-0.277295
  0
VERTEX
  8
PLAN_1
 62
     2
  6
CONTINUOUS
 10
-0.896870
 20
-0.275854
  0
VERTEX
  8
PLAN_1
 62
     2
  6
CONTINUOUS
 10
-0.897831
 20
-0.274417
  0
VERTEX
  8
PLAN_1
 62
     2
  6
CONTINUOUS
 10
-0.899272
 20
-0.272976
  0
VERTEX
  8
PLAN_1
 62
     2
  6
CONTINUOUS
 10
-0.900709
 20
-0.272020
  0
VERTEX
  8
PLAN_1
 62
     2
  6
CONTINUOUS
 10
-0.903106
 20
-0.271059
  0
VERTEX
  8
PLAN_1
 62
     2
  6
CONTINUOUS
 10
-0.905508
 20
-0.270579
  0
VERTEX
  8
PLAN_1
 62
     2
  6
CONTINUOUS
 10
-0.908866
 20
-0.270579
  0
VERTEX
  8
PLAN_1
 62
     2
  6
CONTINUOUS
 10
-0.912224
 20
-0.271059
  0
VERTEX
  8
PLAN_1
 62
     2
  6
CONTINUOUS
 10
-0.915102
 20
-0.271539
  0
VERTEX
  8
PLAN_1
 62
     2
  6
CONTINUOUS
 10
-0.917020
 20
-0.272976
  0
VERTEX
  8
PLAN_1
 62
     2
  6
CONTINUOUS
 10
-0.918461
 20
-0.274417
  0
VERTEX
  8
PLAN_1
 62
     2
  6
CONTINUOUS
 10
-0.919898
 20
-0.275854
  0
VERTEX
  8
PLAN_1
 62
     2
  6
CONTINUOUS
 10
-0.920378
 20
-0.277776
  0
VERTEX
  8
PLAN_1
 62
     2
  6
CONTINUOUS
 10
-0.920858
 20
-0.279693
  0
VERTEX
  8
PLAN_1
 62
     2
  6
CONTINUOUS
 10
-0.921339
 20
-0.281134
  0
VERTEX
  8
PLAN_1
 62
     2
  6
CONTINUOUS
 10
-0.929496
 20
-0.281134
  0
SEQEND
  8
0
  0
POLYLINE
  8
PLAN_1
 62
     2
  6
CONTINUOUS
 66
     1
 40
0.003000
 41
0.003000
  0
VERTEX
  8
PLAN_1
 62
     2
  6
CONTINUOUS
 10
-0.895913
 20
-0.291209
  0
VERTEX
  8
PLAN_1
 62
     2
  6
CONTINUOUS
 10
-0.896870
 20
-0.291689
  0
VERTEX
  8
PLAN_1
 62
     2
  6
CONTINUOUS
 10
-0.897350
 20
-0.292169
  0
VERTEX
  8
PLAN_1
 62
     2
  6
CONTINUOUS
 10
-0.898311
 20
-0.292646
  0
VERTEX
  8
PLAN_1
 62
     2
  6
CONTINUOUS
 10
-0.899752
 20
-0.292646
  0
VERTEX
  8
PLAN_1
 62
     2
  6
CONTINUOUS
 10
-0.901669
 20
-0.293126
  0
VERTEX
  8
PLAN_1
 62
     2
  6
CONTINUOUS
 10
-0.904067
 20
-0.293606
  0
VERTEX
  8
PLAN_1
 62
     2
  6
CONTINUOUS
 10
-0.907425
 20
-0.294087
  0
VERTEX
  8
PLAN_1
 62
     2
  6
CONTINUOUS
 10
-0.911264
 20
-0.294567
  0
VERTEX
  8
PLAN_1
 62
     2
  6
CONTINUOUS
 10
-0.913181
 20
-0.295047
  0
VERTEX
  8
PLAN_1
 62
     2
  6
CONTINUOUS
 10
-0.915102
 20
-0.295528
  0
VERTEX
  8
PLAN_1
 62
     2
  6
CONTINUOUS
 10
-0.917020
 20
-0.296004
  0
VERTEX
  8
PLAN_1
 62
     2
  6
CONTINUOUS
 10
-0.918941
 20
-0.296965
  0
VERTEX
  8
PLAN_1
 62
     2
  6
CONTINUOUS
 10
-0.920378
 20
-0.297925
  0
VERTEX
  8
PLAN_1
 62
     2
  6
CONTINUOUS
 10
-0.921819
 20
-0.299362
  0
VERTEX
  8
PLAN_1
 62
     2
  6
CONTINUOUS
 10
-0.922299
 20
-0.301283
  0
VERTEX
  8
PLAN_1
 62
     2
  6
CONTINUOUS
 10
-0.922780
 20
-0.303681
  0
VERTEX
  8
PLAN_1
 62
     2
  6
CONTINUOUS
 10
-0.922780
 20
-0.305602
  0
VERTEX
  8
PLAN_1
 62
     2
  6
CONTINUOUS
 10
-0.922299
 20
-0.307520
  0
VERTEX
  8
PLAN_1
 62
     2
  6
CONTINUOUS
 10
-0.921339
 20
-0.308961
  0
VERTEX
  8
PLAN_1
 62
     2
  6
CONTINUOUS
 10
-0.920378
 20
-0.310398
  0
VERTEX
  8
PLAN_1
 62
     2
  6
CONTINUOUS
 10
-0.918941
 20
-0.311358
  0
VERTEX
  8
PLAN_1
 62
     2
  6
CONTINUOUS
 10
-0.917500
 20
-0.312319
  0
VERTEX
  8
PLAN_1
 62
     2
  6
CONTINUOUS
 10
-0.915583
 20
-0.312795
  0
VERTEX
  8
PLAN_1
 62
     2
  6
CONTINUOUS
 10
-0.913181
 20
-0.312795
  0
VERTEX
  8
PLAN_1
 62
     2
  6
CONTINUOUS
 10
-0.909823
 20
-0.312795
  0
VERTEX
  8
PLAN_1
 62
     2
  6
CONTINUOUS
 10
-0.906945
 20
-0.311839
  0
VERTEX
  8
PLAN_1
 62
     2
  6
CONTINUOUS
 10
-0.904067
 20
-0.310878
  0
VERTEX
  8
PLAN_1
 62
     2
  6
CONTINUOUS
 10
-0.901189
 20
-0.309437
  0
VERTEX
  8
PLAN_1
 62
     2
  6
CONTINUOUS
 10
-0.899272
 20
-0.307520
  0
VERTEX
  8
PLAN_1
 62
     2
  6
CONTINUOUS
 10
-0.897350
 20
-0.305122
  0
VERTEX
  8
PLAN_1
 62
     2
  6
CONTINUOUS
 10
-0.896394
 20
-0.302720
  0
VERTEX
  8
PLAN_1
 62
     2
  6
CONTINUOUS
 10
-0.895913
 20
-0.300323
  0
VERTEX
  8
PLAN_1
 62
     2
  6
CONTINUOUS
 10
-0.895913
 20
-0.291209
  0
SEQEND
  8
0
  0
POLYLINE
  8
PLAN_1
 62
     2
  6
CONTINUOUS
 66
     1
 40
0.003000
 41
0.003000
  0
VERTEX
  8
PLAN_1
 62
     2
  6
CONTINUOUS
 10
-0.826346
 20
-0.319035
  0
VERTEX
  8
PLAN_1
 62
     2
  6
CONTINUOUS
 10
-0.834984
 20
-0.319035
  0
VERTEX
  8
PLAN_1
 62
     2
  6
CONTINUOUS
 10
-0.834984
 20
-0.311358
  0
VERTEX
  8
PLAN_1
 62
     2
  6
CONTINUOUS
 10
-0.836902
 20
-0.314236
  0
VERTEX
  8
PLAN_1
 62
     2
  6
CONTINUOUS
 10
-0.838343
 20
-0.316154
  0
VERTEX
  8
PLAN_1
 62
     2
  6
CONTINUOUS
 10
-0.840260
 20
-0.317594
  0
VERTEX
  8
PLAN_1
 62
     2
  6
CONTINUOUS
 10
-0.842181
 20
-0.319035
  0
VERTEX
  8
PLAN_1
 62
     2
  6
CONTINUOUS
 10
-0.844579
 20
-0.319512
  0
VERTEX
  8
PLAN_1
 62
     2
  6
CONTINUOUS
 10
-0.846496
 20
-0.319992
  0
VERTEX
  8
PLAN_1
 62
     2
  6
CONTINUOUS
 10
-0.848417
 20
-0.320472
  0
VERTEX
  8
PLAN_1
 62
     2
  6
CONTINUOUS
 10
-0.850815
 20
-0.320472
  0
VERTEX
  8
PLAN_1
 62
     2
  6
CONTINUOUS
 10
-0.853693
 20
-0.320472
  0
VERTEX
  8
PLAN_1
 62
     2
  6
CONTINUOUS
 10
-0.857051
 20
-0.319992
  0
VERTEX
  8
PLAN_1
 62
     2
  6
CONTINUOUS
 10
-0.859453
 20
-0.319035
  0
VERTEX
  8
PLAN_1
 62
     2
  6
CONTINUOUS
 10
-0.862331
 20
-0.317594
  0
VERTEX
  8
PLAN_1
 62
     2
  6
CONTINUOUS
 10
-0.864248
 20
-0.316154
  0
VERTEX
  8
PLAN_1
 62
     2
  6
CONTINUOUS
 10
-0.866169
 20
-0.314236
  0
VERTEX
  8
PLAN_1
 62
     2
  6
CONTINUOUS
 10
-0.868087
 20
-0.312319
  0
VERTEX
  8
PLAN_1
 62
     2
  6
CONTINUOUS
 10
-0.869528
 20
-0.310398
  0
VERTEX
  8
PLAN_1
 62
     2
  6
CONTINUOUS
 10
-0.871925
 20
-0.305602
  0
VERTEX
  8
PLAN_1
 62
     2
  6
CONTINUOUS
 10
-0.873362
 20
-0.300323
  0
VERTEX
  8
PLAN_1
 62
     2
  6
CONTINUOUS
 10
-0.874323
 20
-0.295047
  0
VERTEX
  8
PLAN_1
 62
     2
  6
CONTINUOUS
 10
-0.874323
 20
-0.290248
  0
VERTEX
  8
PLAN_1
 62
     2
  6
CONTINUOUS
 10
-0.874323
 20
-0.284492
  0
VERTEX
  8
PLAN_1
 62
     2
  6
CONTINUOUS
 10
-0.872886
 20
-0.279693
  0
VERTEX
  8
PLAN_1
 62
     2
  6
CONTINUOUS
 10
-0.870965
 20
-0.274898
  0
VERTEX
  8
PLAN_1
 62
     2
  6
CONTINUOUS
 10
-0.868567
 20
-0.271059
  0
VERTEX
  8
PLAN_1
 62
     2
  6
CONTINUOUS
 10
-0.867126
 20
-0.269138
  0
VERTEX
  8
PLAN_1
 62
     2
  6
CONTINUOUS
 10
-0.865209
 20
-0.267701
  0
VERTEX
  8
PLAN_1
 62
     2
  6
CONTINUOUS
 10
-0.863287
 20
-0.266260
  0
VERTEX
  8
PLAN_1
 62
     2
  6
CONTINUOUS
 10
-0.861370
 20
-0.265303
  0
VERTEX
  8
PLAN_1
 62
     2
  6
CONTINUOUS
 10
-0.859453
 20
-0.264343
  0
VERTEX
  8
PLAN_1
 62
     2
  6
CONTINUOUS
 10
-0.857051
 20
-0.263382
  0
VERTEX
  8
PLAN_1
 62
     2
  6
CONTINUOUS
 10
-0.854654
 20
-0.263382
  0
VERTEX
  8
PLAN_1
 62
     2
  6
CONTINUOUS
 10
-0.851776
 20
-0.262902
  0
VERTEX
  8
PLAN_1
 62
     2
  6
CONTINUOUS
 10
-0.848417
 20
-0.263382
  0
VERTEX
  8
PLAN_1
 62
     2
  6
CONTINUOUS
 10
-0.845539
 20
-0.263862
  0
VERTEX
  8
PLAN_1
 62
     2
  6
CONTINUOUS
 10
-0.843138
 20
-0.265303
  0
VERTEX
  8
PLAN_1
 62
     2
  6
CONTINUOUS
 10
-0.840740
 20
-0.266740
  0
VERTEX
  8
PLAN_1
 62
     2
  6
CONTINUOUS
 10
-0.839303
 20
-0.268181
  0
VERTEX
  8
PLAN_1
 62
     2
  6
CONTINUOUS
 10
-0.837862
 20
-0.269618
  0
VERTEX
  8
PLAN_1
 62
     2
  6
CONTINUOUS
 10
-0.836421
 20
-0.271059
  0
VERTEX
  8
PLAN_1
 62
     2
  6
CONTINUOUS
 10
-0.835465
 20
-0.272496
  0
VERTEX
  8
PLAN_1
 62
     2
  6
CONTINUOUS
 10
-0.835465
 20
-0.271539
  0
VERTEX
  8
PLAN_1
 62
     2
  6
CONTINUOUS
 10
-0.835465
 20
-0.244193
  0
VERTEX
  8
PLAN_1
 62
     2
  6
CONTINUOUS
 10
-0.826346
 20
-0.244193
  0
VERTEX
  8
PLAN_1
 62
     2
  6
CONTINUOUS
 10
-0.826346
 20
-0.319035
  0
SEQEND
  8
0
  0
POLYLINE
  8
PLAN_1
 62
     2
  6
CONTINUOUS
 66
     1
 40
0.003000
 41
0.003000
  0
VERTEX
  8
PLAN_1
 62
     2
  6
CONTINUOUS
 10
-0.850335
 20
-0.312795
  0
VERTEX
  8
PLAN_1
 62
     2
  6
CONTINUOUS
 10
-0.847937
 20
-0.312319
  0
VERTEX
  8
PLAN_1
 62
     2
  6
CONTINUOUS
 10
-0.845539
 20
-0.311839
  0
VERTEX
  8
PLAN_1
 62
     2
  6
CONTINUOUS
 10
-0.843138
 20
-0.310878
  0
VERTEX
  8
PLAN_1
 62
     2
  6
CONTINUOUS
 10
-0.840740
 20
-0.308961
  0
VERTEX
  8
PLAN_1
 62
     2
  6
CONTINUOUS
 10
-0.838823
 20
-0.306559
  0
VERTEX
  8
PLAN_1
 62
     2
  6
CONTINUOUS
 10
-0.836902
 20
-0.303201
  0
VERTEX
  8
PLAN_1
 62
     2
  6
CONTINUOUS
 10
-0.835945
 20
-0.299362
  0
VERTEX
  8
PLAN_1
 62
     2
  6
CONTINUOUS
 10
-0.835465
 20
-0.294567
  0
VERTEX
  8
PLAN_1
 62
     2
  6
CONTINUOUS
 10
-0.835465
 20
-0.290728
  0
VERTEX
  8
PLAN_1
 62
     2
  6
CONTINUOUS
 10
-0.835945
 20
-0.286890
  0
VERTEX
  8
PLAN_1
 62
     2
  6
CONTINUOUS
 10
-0.836902
 20
-0.283051
  0
VERTEX
  8
PLAN_1
 62
     2
  6
CONTINUOUS
 10
-0.837862
 20
-0.279693
  0
VERTEX
  8
PLAN_1
 62
     2
  6
CONTINUOUS
 10
-0.838823
 20
-0.277776
  0
VERTEX
  8
PLAN_1
 62
     2
  6
CONTINUOUS
 10
-0.839780
 20
-0.276335
  0
VERTEX
  8
PLAN_1
 62
     2
  6
CONTINUOUS
 10
-0.840740
 20
-0.274898
  0
VERTEX
  8
PLAN_1
 62
     2
  6
CONTINUOUS
 10
-0.842181
 20
-0.273457
  0
VERTEX
  8
PLAN_1
 62
     2
  6
CONTINUOUS
 10
-0.844098
 20
-0.272496
  0
VERTEX
  8
PLAN_1
 62
     2
  6
CONTINUOUS
 10
-0.845539
 20
-0.272020
  0
VERTEX
  8
PLAN_1
 62
     2
  6
CONTINUOUS
 10
-0.847937
 20
-0.271539
  0
VERTEX
  8
PLAN_1
 62
     2
  6
CONTINUOUS
 10
-0.850335
 20
-0.271059
  0
VERTEX
  8
PLAN_1
 62
     2
  6
CONTINUOUS
 10
-0.852736
 20
-0.271539
  0
VERTEX
  8
PLAN_1
 62
     2
  6
CONTINUOUS
 10
-0.855134
 20
-0.272020
  0
VERTEX
  8
PLAN_1
 62
     2
  6
CONTINUOUS
 10
-0.857051
 20
-0.272496
  0
VERTEX
  8
PLAN_1
 62
     2
  6
CONTINUOUS
 10
-0.858492
 20
-0.273457
  0
VERTEX
  8
PLAN_1
 62
     2
  6
CONTINUOUS
 10
-0.859929
 20
-0.274417
  0
VERTEX
  8
PLAN_1
 62
     2
  6
CONTINUOUS
 10
-0.860890
 20
-0.275854
  0
VERTEX
  8
PLAN_1
 62
     2
  6
CONTINUOUS
 10
-0.862331
 20
-0.277295
  0
VERTEX
  8
PLAN_1
 62
     2
  6
CONTINUOUS
 10
-0.862811
 20
-0.278736
  0
VERTEX
  8
PLAN_1
 62
     2
  6
CONTINUOUS
 10
-0.864248
 20
-0.282094
  0
VERTEX
  8
PLAN_1
 62
     2
  6
CONTINUOUS
 10
-0.864728
 20
-0.285453
  0
VERTEX
  8
PLAN_1
 62
     2
  6
CONTINUOUS
 10
-0.865209
 20
-0.288811
  0
VERTEX
  8
PLAN_1
 62
     2
  6
CONTINUOUS
 10
-0.865209
 20
-0.291689
  0
VERTEX
  8
PLAN_1
 62
     2
  6
CONTINUOUS
 10
-0.864728
 20
-0.296004
  0
VERTEX
  8
PLAN_1
 62
     2
  6
CONTINUOUS
 10
-0.864248
 20
-0.299843
  0
VERTEX
  8
PLAN_1
 62
     2
  6
CONTINUOUS
 10
-0.863287
 20
-0.303681
  0
VERTEX
  8
PLAN_1
 62
     2
  6
CONTINUOUS
 10
-0.861370
 20
-0.306559
  0
VERTEX
  8
PLAN_1
 62
     2
  6
CONTINUOUS
 10
-0.859453
 20
-0.308961
  0
VERTEX
  8
PLAN_1
 62
     2
  6
CONTINUOUS
 10
-0.857051
 20
-0.310878
  0
VERTEX
  8
PLAN_1
 62
     2
  6
CONTINUOUS
 10
-0.853693
 20
-0.312319
  0
VERTEX
  8
PLAN_1
 62
     2
  6
CONTINUOUS
 10
-0.850335
 20
-0.312795
  0
SEQEND
  8
0
  0
POLYLINE
  8
PLAN_1
 62
     2
  6
CONTINUOUS
 66
     1
 40
0.003000
 41
0.003000
  0
VERTEX
  8
PLAN_1
 62
     2
  6
CONTINUOUS
 10
-0.813874
 20
-0.281134
  0
VERTEX
  8
PLAN_1
 62
     2
  6
CONTINUOUS
 10
-0.813394
 20
-0.276815
  0
VERTEX
  8
PLAN_1
 62
     2
  6
CONTINUOUS
 10
-0.811957
 20
-0.272976
  0
VERTEX
  8
PLAN_1
 62
     2
  6
CONTINUOUS
 10
-0.810035
 20
-0.269618
  0
VERTEX
  8
PLAN_1
 62
     2
  6
CONTINUOUS
 10
-0.807638
 20
-0.267220
  0
VERTEX
  8
PLAN_1
 62
     2
  6
CONTINUOUS
 10
-0.804280
 20
-0.265303
  0
VERTEX
  8
PLAN_1
 62
     2
  6
CONTINUOUS
 10
-0.800441
 20
-0.263862
  0
VERTEX
  8
PLAN_1
 62
     2
  6
CONTINUOUS
 10
-0.796126
 20
-0.263382
  0
VERTEX
  8
PLAN_1
 62
     2
  6
CONTINUOUS
 10
-0.791327
 20
-0.262902
  0
VERTEX
  8
PLAN_1
 62
     2
  6
CONTINUOUS
 10
-0.789409
 20
-0.262902
  0
VERTEX
  8
PLAN_1
 62
     2
  6
CONTINUOUS
 10
-0.786528
 20
-0.263382
  0
VERTEX
  8
PLAN_1
 62
     2
  6
CONTINUOUS
 10
-0.783169
 20
-0.264343
  0
VERTEX
  8
PLAN_1
 62
     2
  6
CONTINUOUS
 10
-0.779811
 20
-0.265303
  0
VERTEX
  8
PLAN_1
 62
     2
  6
CONTINUOUS
 10
-0.776453
 20
-0.267220
  0
VERTEX
  8
PLAN_1
 62
     2
  6
CONTINUOUS
 10
-0.773575
 20
-0.270098
  0
VERTEX
  8
PLAN_1
 62
     2
  6
CONTINUOUS
 10
-0.772618
 20
-0.271539
  0
VERTEX
  8
PLAN_1
 62
     2
  6
CONTINUOUS
 10
-0.771657
 20
-0.273457
  0
VERTEX
  8
PLAN_1
 62
     2
  6
CONTINUOUS
 10
-0.771177
 20
-0.275854
  0
VERTEX
  8
PLAN_1
 62
     2
  6
CONTINUOUS
 10
-0.771177
 20
-0.278256
  0
VERTEX
  8
PLAN_1
 62
     2
  6
CONTINUOUS
 10
-0.771177
 20
-0.309437
  0
VERTEX
  8
PLAN_1
 62
     2
  6
CONTINUOUS
 10
-0.771177
 20
-0.310398
  0
VERTEX
  8
PLAN_1
 62
     2
  6
CONTINUOUS
 10
-0.771177
 20
-0.310878
  0
VERTEX
  8
PLAN_1
 62
     2
  6
CONTINUOUS
 10
-0.770697
 20
-0.311358
  0
VERTEX
  8
PLAN_1
 62
     2
  6
CONTINUOUS
 10
-0.770217
 20
-0.311839
  0
VERTEX
  8
PLAN_1
 62
     2
  6
CONTINUOUS
 10
-0.769736
 20
-0.312319
  0
VERTEX
  8
PLAN_1
 62
     2
  6
CONTINUOUS
 10
-0.769260
 20
-0.312795
  0
VERTEX
  8
PLAN_1
 62
     2
  6
CONTINUOUS
 10
-0.768780
 20
-0.312795
  0
VERTEX
  8
PLAN_1
 62
     2
  6
CONTINUOUS
 10
-0.768299
 20
-0.312795
  0
VERTEX
  8
PLAN_1
 62
     2
  6
CONTINUOUS
 10
-0.767819
 20
-0.312795
  0
VERTEX
  8
PLAN_1
 62
     2
  6
CONTINUOUS
 10
-0.767339
 20
-0.312795
  0
VERTEX
  8
PLAN_1
 62
     2
  6
CONTINUOUS
 10
-0.766858
 20
-0.312795
  0
VERTEX
  8
PLAN_1
 62
     2
  6
CONTINUOUS
 10
-0.766378
 20
-0.312795
  0
VERTEX
  8
PLAN_1
 62
     2
  6
CONTINUOUS
 10
-0.765902
 20
-0.312319
  0
VERTEX
  8
PLAN_1
 62
     2
  6
CONTINUOUS
 10
-0.765421
 20
-0.312319
  0
VERTEX
  8
PLAN_1
 62
     2
  6
CONTINUOUS
 10
-0.764941
 20
-0.312319
  0
VERTEX
  8
PLAN_1
 62
     2
  6
CONTINUOUS
 10
-0.764941
 20
-0.319035
  0
VERTEX
  8
PLAN_1
 62
     2
  6
CONTINUOUS
 10
-0.765902
 20
-0.319035
  0
VERTEX
  8
PLAN_1
 62
     2
  6
CONTINUOUS
 10
-0.766378
 20
-0.319512
  0
VERTEX
  8
PLAN_1
 62
     2
  6
CONTINUOUS
 10
-0.766858
 20
-0.319512
  0
VERTEX
  8
PLAN_1
 62
     2
  6
CONTINUOUS
 10
-0.767339
 20
-0.319512
  0
VERTEX
  8
PLAN_1
 62
     2
  6
CONTINUOUS
 10
-0.768299
 20
-0.319992
  0
VERTEX
  8
PLAN_1
 62
     2
  6
CONTINUOUS
 10
-0.768780
 20
-0.319992
  0
VERTEX
  8
PLAN_1
 62
     2
  6
CONTINUOUS
 10
-0.769260
 20
-0.319992
  0
VERTEX
  8
PLAN_1
 62
     2
  6
CONTINUOUS
 10
-0.770217
 20
-0.319992
  0
VERTEX
  8
PLAN_1
 62
     2
  6
CONTINUOUS
 10
-0.773094
 20
-0.319992
  0
VERTEX
  8
PLAN_1
 62
     2
  6
CONTINUOUS
 10
-0.775016
 20
-0.319512
  0
VERTEX
  8
PLAN_1
 62
     2
  6
CONTINUOUS
 10
-0.776453
 20
-0.318555
  0
VERTEX
  8
PLAN_1
 62
     2
  6
CONTINUOUS
 10
-0.777894
 20
-0.317594
  0
VERTEX
  8
PLAN_1
 62
     2
  6
CONTINUOUS
 10
-0.778854
 20
-0.316154
  0
VERTEX
  8
PLAN_1
 62
     2
  6
CONTINUOUS
 10
-0.779335
 20
-0.314717
  0
VERTEX
  8
PLAN_1
 62
     2
  6
CONTINUOUS
 10
-0.779811
 20
-0.313276
  0
VERTEX
  8
PLAN_1
 62
     2
  6
CONTINUOUS
 10
-0.779811
 20
-0.311839
  0
VERTEX
  8
PLAN_1
 62
     2
  6
CONTINUOUS
 10
-0.781252
 20
-0.313276
  0
VERTEX
  8
PLAN_1
 62
     2
  6
CONTINUOUS
 10
-0.782693
 20
-0.314717
  0
VERTEX
  8
PLAN_1
 62
     2
  6
CONTINUOUS
 10
-0.784610
 20
-0.316154
  0
VERTEX
  8
PLAN_1
 62
     2
  6
CONTINUOUS
 10
-0.787008
 20
-0.317594
  0
VERTEX
  8
PLAN_1
 62
     2
  6
CONTINUOUS
 10
-0.789409
 20
-0.319035
  0
VERTEX
  8
PLAN_1
 62
     2
  6
CONTINUOUS
 10
-0.792287
 20
-0.319512
  0
VERTEX
  8
PLAN_1
 62
     2
  6
CONTINUOUS
 10
-0.795646
 20
-0.320472
  0
VERTEX
  8
PLAN_1
 62
     2
  6
CONTINUOUS
 10
-0.799480
 20
-0.320472
  0
VERTEX
  8
PLAN_1
 62
     2
  6
CONTINUOUS
 10
-0.802839
 20
-0.320472
  0
VERTEX
  8
PLAN_1
 62
     2
  6
CONTINUOUS
 10
-0.806197
 20
-0.319512
  0
VERTEX
  8
PLAN_1
 62
     2
  6
CONTINUOUS
 10
-0.809079
 20
-0.318075
  0
VERTEX
  8
PLAN_1
 62
     2
  6
CONTINUOUS
 10
-0.811957
 20
-0.316154
  0
VERTEX
  8
PLAN_1
 62
     2
  6
CONTINUOUS
 10
-0.813874
 20
-0.313756
  0
VERTEX
  8
PLAN_1
 62
     2
  6
CONTINUOUS
 10
-0.815315
 20
-0.311358
  0
VERTEX
  8
PLAN_1
 62
     2
  6
CONTINUOUS
 10
-0.816272
 20
-0.308480
  0
VERTEX
  8
PLAN_1
 62
     2
  6
CONTINUOUS
 10
-0.816752
 20
-0.304642
  0
VERTEX
  8
PLAN_1
 62
     2
  6
CONTINUOUS
 10
-0.816272
 20
-0.302720
  0
VERTEX
  8
PLAN_1
 62
     2
  6
CONTINUOUS
 10
-0.816272
 20
-0.300323
  0
VERTEX
  8
PLAN_1
 62
     2
  6
CONTINUOUS
 10
-0.815315
 20
-0.297925
  0
VERTEX
  8
PLAN_1
 62
     2
  6
CONTINUOUS
 10
-0.813874
 20
-0.295528
  0
VERTEX
  8
PLAN_1
 62
     2
  6
CONTINUOUS
 10
-0.811957
 20
-0.292646
  0
VERTEX
  8
PLAN_1
 62
     2
  6
CONTINUOUS
 10
-0.809079
 20
-0.290728
  0
VERTEX
  8
PLAN_1
 62
     2
  6
CONTINUOUS
 10
-0.805240
 20
-0.288811
  0
VERTEX
  8
PLAN_1
 62
     2
  6
CONTINUOUS
 10
-0.799961
 20
-0.287850
  0
VERTEX
  8
PLAN_1
 62
     2
  6
CONTINUOUS
 10
-0.785091
 20
-0.285929
  0
VERTEX
  8
PLAN_1
 62
     2
  6
CONTINUOUS
 10
-0.784130
 20
-0.285929
  0
VERTEX
  8
PLAN_1
 62
     2
  6
CONTINUOUS
 10
-0.783169
 20
-0.285453
  0
VERTEX
  8
PLAN_1
 62
     2
  6
CONTINUOUS
 10
-0.782213
 20
-0.285453
  0
VERTEX
  8
PLAN_1
 62
     2
  6
CONTINUOUS
 10
-0.781732
 20
-0.284492
  0
VERTEX
  8
PLAN_1
 62
     2
  6
CONTINUOUS
 10
-0.781252
 20
-0.284012
  0
VERTEX
  8
PLAN_1
 62
     2
  6
CONTINUOUS
 10
-0.780772
 20
-0.282571
  0
VERTEX
  8
PLAN_1
 62
     2
  6
CONTINUOUS
 10
-0.780291
 20
-0.281134
  0
VERTEX
  8
PLAN_1
 62
     2
  6
CONTINUOUS
 10
-0.780291
 20
-0.279693
  0
VERTEX
  8
PLAN_1
 62
     2
  6
CONTINUOUS
 10
-0.780291
 20
-0.277295
  0
VERTEX
  8
PLAN_1
 62
     2
  6
CONTINUOUS
 10
-0.780772
 20
-0.275854
  0
VERTEX
  8
PLAN_1
 62
     2
  6
CONTINUOUS
 10
-0.781732
 20
-0.274417
  0
VERTEX
  8
PLAN_1
 62
     2
  6
CONTINUOUS
 10
-0.783169
 20
-0.272976
  0
VERTEX
  8
PLAN_1
 62
     2
  6
CONTINUOUS
 10
-0.785091
 20
-0.272020
  0
VERTEX
  8
PLAN_1
 62
     2
  6
CONTINUOUS
 10
-0.787488
 20
-0.271059
  0
VERTEX
  8
PLAN_1
 62
     2
  6
CONTINUOUS
 10
-0.789886
 20
-0.270579
  0
VERTEX
  8
PLAN_1
 62
     2
  6
CONTINUOUS
 10
-0.792768
 20
-0.270579
  0
VERTEX
  8
PLAN_1
 62
     2
  6
CONTINUOUS
 10
-0.796602
 20
-0.271059
  0
VERTEX
  8
PLAN_1
 62
     2
  6
CONTINUOUS
 10
-0.799004
 20
-0.271539
  0
VERTEX
  8
PLAN_1
 62
     2
  6
CONTINUOUS
 10
-0.801402
 20
-0.272976
  0
VERTEX
  8
PLAN_1
 62
     2
  6
CONTINUOUS
 10
-0.802839
 20
-0.274417
  0
VERTEX
  8
PLAN_1
 62
     2
  6
CONTINUOUS
 10
-0.803799
 20
-0.275854
  0
VERTEX
  8
PLAN_1
 62
     2
  6
CONTINUOUS
 10
-0.804760
 20
-0.277776
  0
VERTEX
  8
PLAN_1
 62
     2
  6
CONTINUOUS
 10
-0.805240
 20
-0.279693
  0
VERTEX
  8
PLAN_1
 62
     2
  6
CONTINUOUS
 10
-0.805240
 20
-0.281134
  0
VERTEX
  8
PLAN_1
 62
     2
  6
CONTINUOUS
 10
-0.813874
 20
-0.281134
  0
SEQEND
  8
0
  0
POLYLINE
  8
PLAN_1
 62
     2
  6
CONTINUOUS
 66
     1
 40
0.003000
 41
0.003000
  0
VERTEX
  8
PLAN_1
 62
     2
  6
CONTINUOUS
 10
-0.780291
 20
-0.291209
  0
VERTEX
  8
PLAN_1
 62
     2
  6
CONTINUOUS
 10
-0.780772
 20
-0.291689
  0
VERTEX
  8
PLAN_1
 62
     2
  6
CONTINUOUS
 10
-0.781732
 20
-0.292169
  0
VERTEX
  8
PLAN_1
 62
     2
  6
CONTINUOUS
 10
-0.782693
 20
-0.292646
  0
VERTEX
  8
PLAN_1
 62
     2
  6
CONTINUOUS
 10
-0.784130
 20
-0.292646
  0
VERTEX
  8
PLAN_1
 62
     2
  6
CONTINUOUS
 10
-0.786051
 20
-0.293126
  0
VERTEX
  8
PLAN_1
 62
     2
  6
CONTINUOUS
 10
-0.788449
 20
-0.293606
  0
VERTEX
  8
PLAN_1
 62
     2
  6
CONTINUOUS
 10
-0.791807
 20
-0.294087
  0
VERTEX
  8
PLAN_1
 62
     2
  6
CONTINUOUS
 10
-0.795646
 20
-0.294567
  0
VERTEX
  8
PLAN_1
 62
     2
  6
CONTINUOUS
 10
-0.797083
 20
-0.295047
  0
VERTEX
  8
PLAN_1
 62
     2
  6
CONTINUOUS
 10
-0.799004
 20
-0.295528
  0
VERTEX
  8
PLAN_1
 62
     2
  6
CONTINUOUS
 10
-0.800921
 20
-0.296004
  0
VERTEX
  8
PLAN_1
 62
     2
  6
CONTINUOUS
 10
-0.802839
 20
-0.296965
  0
VERTEX
  8
PLAN_1
 62
     2
  6
CONTINUOUS
 10
-0.804760
 20
-0.297925
  0
VERTEX
  8
PLAN_1
 62
     2
  6
CONTINUOUS
 10
-0.805720
 20
-0.299362
  0
VERTEX
  8
PLAN_1
 62
     2
  6
CONTINUOUS
 10
-0.806677
 20
-0.301283
  0
VERTEX
  8
PLAN_1
 62
     2
  6
CONTINUOUS
 10
-0.807157
 20
-0.303681
  0
VERTEX
  8
PLAN_1
 62
     2
  6
CONTINUOUS
 10
-0.807157
 20
-0.305602
  0
VERTEX
  8
PLAN_1
 62
     2
  6
CONTINUOUS
 10
-0.806677
 20
-0.307520
  0
VERTEX
  8
PLAN_1
 62
     2
  6
CONTINUOUS
 10
-0.805720
 20
-0.308961
  0
VERTEX
  8
PLAN_1
 62
     2
  6
CONTINUOUS
 10
-0.804760
 20
-0.310398
  0
VERTEX
  8
PLAN_1
 62
     2
  6
CONTINUOUS
 10
-0.803319
 20
-0.311358
  0
VERTEX
  8
PLAN_1
 62
     2
  6
CONTINUOUS
 10
-0.801402
 20
-0.312319
  0
VERTEX
  8
PLAN_1
 62
     2
  6
CONTINUOUS
 10
-0.799480
 20
-0.312795
  0
VERTEX
  8
PLAN_1
 62
     2
  6
CONTINUOUS
 10
-0.797083
 20
-0.312795
  0
VERTEX
  8
PLAN_1
 62
     2
  6
CONTINUOUS
 10
-0.794205
 20
-0.312795
  0
VERTEX
  8
PLAN_1
 62
     2
  6
CONTINUOUS
 10
-0.790846
 20
-0.311839
  0
VERTEX
  8
PLAN_1
 62
     2
  6
CONTINUOUS
 10
-0.787969
 20
-0.310878
  0
VERTEX
  8
PLAN_1
 62
     2
  6
CONTINUOUS
 10
-0.785571
 20
-0.309437
  0
VERTEX
  8
PLAN_1
 62
     2
  6
CONTINUOUS
 10
-0.783650
 20
-0.307520
  0
VERTEX
  8
PLAN_1
 62
     2
  6
CONTINUOUS
 10
-0.781732
 20
-0.305122
  0
VERTEX
  8
PLAN_1
 62
     2
  6
CONTINUOUS
 10
-0.780772
 20
-0.302720
  0
VERTEX
  8
PLAN_1
 62
     2
  6
CONTINUOUS
 10
-0.780291
 20
-0.300323
  0
VERTEX
  8
PLAN_1
 62
     2
  6
CONTINUOUS
 10
-0.780291
 20
-0.291209
  0
SEQEND
  8
0
  0
POLYLINE
  8
PLAN_1
 62
     2
  6
CONTINUOUS
 66
     1
 40
0.003000
 41
0.003000
  0
VERTEX
  8
PLAN_1
 62
     2
  6
CONTINUOUS
 10
-0.756303
 20
-0.264823
  0
VERTEX
  8
PLAN_1
 62
     2
  6
CONTINUOUS
 10
-0.747669
 20
-0.264823
  0
VERTEX
  8
PLAN_1
 62
     2
  6
CONTINUOUS
 10
-0.747669
 20
-0.272496
  0
VERTEX
  8
PLAN_1
 62
     2
  6
CONTINUOUS
 10
-0.746709
 20
-0.271059
  0
VERTEX
  8
PLAN_1
 62
     2
  6
CONTINUOUS
 10
-0.745272
 20
-0.269618
  0
VERTEX
  8
PLAN_1
 62
     2
  6
CONTINUOUS
 10
-0.743831
 20
-0.268181
  0
VERTEX
  8
PLAN_1
 62
     2
  6
CONTINUOUS
 10
-0.742394
 20
-0.266740
  0
VERTEX
  8
PLAN_1
 62
     2
  6
CONTINUOUS
 10
-0.739992
 20
-0.265303
  0
VERTEX
  8
PLAN_1
 62
     2
  6
CONTINUOUS
 10
-0.737594
 20
-0.263862
  0
VERTEX
  8
PLAN_1
 62
     2
  6
CONTINUOUS
 10
-0.734717
 20
-0.263382
  0
VERTEX
  8
PLAN_1
 62
     2
  6
CONTINUOUS
 10
-0.731358
 20
-0.262902
  0
VERTEX
  8
PLAN_1
 62
     2
  6
CONTINUOUS
 10
-0.728480
 20
-0.263382
  0
VERTEX
  8
PLAN_1
 62
     2
  6
CONTINUOUS
 10
-0.726079
 20
-0.263382
  0
VERTEX
  8
PLAN_1
 62
     2
  6
CONTINUOUS
 10
-0.723681
 20
-0.264343
  0
VERTEX
  8
PLAN_1
 62
     2
  6
CONTINUOUS
 10
-0.721764
 20
-0.265303
  0
VERTEX
  8
PLAN_1
 62
     2
  6
CONTINUOUS
 10
-0.719843
 20
-0.266260
  0
VERTEX
  8
PLAN_1
 62
     2
  6
CONTINUOUS
 10
-0.717925
 20
-0.267701
  0
VERTEX
  8
PLAN_1
 62
     2
  6
CONTINUOUS
 10
-0.716004
 20
-0.269138
  0
VERTEX
  8
PLAN_1
 62
     2
  6
CONTINUOUS
 10
-0.714567
 20
-0.271059
  0
VERTEX
  8
PLAN_1
 62
     2
  6
CONTINUOUS
 10
-0.712169
 20
-0.274898
  0
VERTEX
  8
PLAN_1
 62
     2
  6
CONTINUOUS
 10
-0.710248
 20
-0.279693
  0
VERTEX
  8
PLAN_1
 62
     2
  6
CONTINUOUS
 10
-0.708811
 20
-0.284492
  0
VERTEX
  8
PLAN_1
 62
     2
  6
CONTINUOUS
 10
-0.708811
 20
-0.290248
  0
VERTEX
  8
PLAN_1
 62
     2
  6
CONTINUOUS
 10
-0.708811
 20
-0.295047
  0
VERTEX
  8
PLAN_1
 62
     2
  6
CONTINUOUS
 10
-0.709768
 20
-0.300323
  0
VERTEX
  8
PLAN_1
 62
     2
  6
CONTINUOUS
 10
-0.711209
 20
-0.305602
  0
VERTEX
  8
PLAN_1
 62
     2
  6
CONTINUOUS
 10
-0.713606
 20
-0.310398
  0
VERTEX
  8
PLAN_1
 62
     2
  6
CONTINUOUS
 10
-0.715047
 20
-0.312319
  0
VERTEX
  8
PLAN_1
 62
     2
  6
CONTINUOUS
 10
-0.716965
 20
-0.314236
  0
VERTEX
  8
PLAN_1
 62
     2
  6
CONTINUOUS
 10
-0.718886
 20
-0.316154
  0
VERTEX
  8
PLAN_1
 62
     2
  6
CONTINUOUS
 10
-0.720803
 20
-0.317594
  0
VERTEX
  8
PLAN_1
 62
     2
  6
CONTINUOUS
 10
-0.723681
 20
-0.319035
  0
VERTEX
  8
PLAN_1
 62
     2
  6
CONTINUOUS
 10
-0.726079
 20
-0.319992
  0
VERTEX
  8
PLAN_1
 62
     2
  6
CONTINUOUS
 10
-0.729437
 20
-0.320472
  0
VERTEX
  8
PLAN_1
 62
     2
  6
CONTINUOUS
 10
-0.732319
 20
-0.320472
  0
VERTEX
  8
PLAN_1
 62
     2
  6
CONTINUOUS
 10
-0.735197
 20
-0.320472
  0
VERTEX
  8
PLAN_1
 62
     2
  6
CONTINUOUS
 10
-0.737594
 20
-0.319992
  0
VERTEX
  8
PLAN_1
 62
     2
  6
CONTINUOUS
 10
-0.739512
 20
-0.319512
  0
VERTEX
  8
PLAN_1
 62
     2
  6
CONTINUOUS
 10
-0.741433
 20
-0.318555
  0
VERTEX
  8
PLAN_1
 62
     2
  6
CONTINUOUS
 10
-0.743350
 20
-0.317114
  0
VERTEX
  8
PLAN_1
 62
     2
  6
CONTINUOUS
 10
-0.744791
 20
-0.316154
  0
VERTEX
  8
PLAN_1
 62
     2
  6
CONTINUOUS
 10
-0.745752
 20
-0.314717
  0
VERTEX
  8
PLAN_1
 62
     2
  6
CONTINUOUS
 10
-0.747189
 20
-0.313276
  0
VERTEX
  8
PLAN_1
 62
     2
  6
CONTINUOUS
 10
-0.747189
 20
-0.340622
  0
VERTEX
  8
PLAN_1
 62
     2
  6
CONTINUOUS
 10
-0.756303
 20
-0.340622
  0
VERTEX
  8
PLAN_1
 62
     2
  6
CONTINUOUS
 10
-0.756303
 20
-0.264823
  0
SEQEND
  8
0
  0
POLYLINE
  8
PLAN_1
 62
     2
  6
CONTINUOUS
 66
     1
 40
0.003000
 41
0.003000
  0
VERTEX
  8
PLAN_1
 62
     2
  6
CONTINUOUS
 10
-0.732795
 20
-0.312795
  0
VERTEX
  8
PLAN_1
 62
     2
  6
CONTINUOUS
 10
-0.729437
 20
-0.312319
  0
VERTEX
  8
PLAN_1
 62
     2
  6
CONTINUOUS
 10
-0.726079
 20
-0.310878
  0
VERTEX
  8
PLAN_1
 62
     2
  6
CONTINUOUS
 10
-0.723681
 20
-0.308961
  0
VERTEX
  8
PLAN_1
 62
     2
  6
CONTINUOUS
 10
-0.721764
 20
-0.306559
  0
VERTEX
  8
PLAN_1
 62
     2
  6
CONTINUOUS
 10
-0.720323
 20
-0.303681
  0
VERTEX
  8
PLAN_1
 62
     2
  6
CONTINUOUS
 10
-0.718886
 20
-0.299843
  0
VERTEX
  8
PLAN_1
 62
     2
  6
CONTINUOUS
 10
-0.718406
 20
-0.296004
  0
VERTEX
  8
PLAN_1
 62
     2
  6
CONTINUOUS
 10
-0.717925
 20
-0.291689
  0
VERTEX
  8
PLAN_1
 62
     2
  6
CONTINUOUS
 10
-0.717925
 20
-0.288811
  0
VERTEX
  8
PLAN_1
 62
     2
  6
CONTINUOUS
 10
-0.718406
 20
-0.285453
  0
VERTEX
  8
PLAN_1
 62
     2
  6
CONTINUOUS
 10
-0.718886
 20
-0.282094
  0
VERTEX
  8
PLAN_1
 62
     2
  6
CONTINUOUS
 10
-0.720323
 20
-0.278736
  0
VERTEX
  8
PLAN_1
 62
     2
  6
CONTINUOUS
 10
-0.720803
 20
-0.277295
  0
VERTEX
  8
PLAN_1
 62
     2
  6
CONTINUOUS
 10
-0.722244
 20
-0.275854
  0
VERTEX
  8
PLAN_1
 62
     2
  6
CONTINUOUS
 10
-0.723201
 20
-0.274417
  0
VERTEX
  8
PLAN_1
 62
     2
  6
CONTINUOUS
 10
-0.724642
 20
-0.273457
  0
VERTEX
  8
PLAN_1
 62
     2
  6
CONTINUOUS
 10
-0.726559
 20
-0.272496
  0
VERTEX
  8
PLAN_1
 62
     2
  6
CONTINUOUS
 10
-0.728480
 20
-0.272020
  0
VERTEX
  8
PLAN_1
 62
     2
  6
CONTINUOUS
 10
-0.730398
 20
-0.271539
  0
VERTEX
  8
PLAN_1
 62
     2
  6
CONTINUOUS
 10
-0.732795
 20
-0.271059
  0
VERTEX
  8
PLAN_1
 62
     2
  6
CONTINUOUS
 10
-0.735197
 20
-0.271539
  0
VERTEX
  8
PLAN_1
 62
     2
  6
CONTINUOUS
 10
-0.737594
 20
-0.272020
  0
VERTEX
  8
PLAN_1
 62
     2
  6
CONTINUOUS
 10
-0.739035
 20
-0.272496
  0
VERTEX
  8
PLAN_1
 62
     2
  6
CONTINUOUS
 10
-0.740953
 20
-0.273457
  0
VERTEX
  8
PLAN_1
 62
     2
  6
CONTINUOUS
 10
-0.742394
 20
-0.274898
  0
VERTEX
  8
PLAN_1
 62
     2
  6
CONTINUOUS
 10
-0.743350
 20
-0.276335
  0
VERTEX
  8
PLAN_1
 62
     2
  6
CONTINUOUS
 10
-0.744311
 20
-0.277776
  0
VERTEX
  8
PLAN_1
 62
     2
  6
CONTINUOUS
 10
-0.745272
 20
-0.279693
  0
VERTEX
  8
PLAN_1
 62
     2
  6
CONTINUOUS
 10
-0.746228
 20
-0.283051
  0
VERTEX
  8
PLAN_1
 62
     2
  6
CONTINUOUS
 10
-0.747189
 20
-0.286890
  0
VERTEX
  8
PLAN_1
 62
     2
  6
CONTINUOUS
 10
-0.747669
 20
-0.290728
  0
VERTEX
  8
PLAN_1
 62
     2
  6
CONTINUOUS
 10
-0.747669
 20
-0.294567
  0
VERTEX
  8
PLAN_1
 62
     2
  6
CONTINUOUS
 10
-0.747189
 20
-0.299362
  0
VERTEX
  8
PLAN_1
 62
     2
  6
CONTINUOUS
 10
-0.746228
 20
-0.303201
  0
VERTEX
  8
PLAN_1
 62
     2
  6
CONTINUOUS
 10
-0.744311
 20
-0.306559
  0
VERTEX
  8
PLAN_1
 62
     2
  6
CONTINUOUS
 10
-0.742394
 20
-0.308961
  0
VERTEX
  8
PLAN_1
 62
     2
  6
CONTINUOUS
 10
-0.739992
 20
-0.310878
  0
VERTEX
  8
PLAN_1
 62
     2
  6
CONTINUOUS
 10
-0.737594
 20
-0.311839
  0
VERTEX
  8
PLAN_1
 62
     2
  6
CONTINUOUS
 10
-0.735197
 20
-0.312319
  0
VERTEX
  8
PLAN_1
 62
     2
  6
CONTINUOUS
 10
-0.732795
 20
-0.312795
  0
SEQEND
  8
0
  0
POLYLINE
  8
PLAN_1
 62
     2
  6
CONTINUOUS
 66
     1
 40
0.003000
 41
0.003000
  0
VERTEX
  8
PLAN_1
 62
     2
  6
CONTINUOUS
 10
-0.686260
 20
-0.272020
  0
VERTEX
  8
PLAN_1
 62
     2
  6
CONTINUOUS
 10
-0.686260
 20
-0.307520
  0
VERTEX
  8
PLAN_1
 62
     2
  6
CONTINUOUS
 10
-0.686260
 20
-0.308961
  0
VERTEX
  8
PLAN_1
 62
     2
  6
CONTINUOUS
 10
-0.685783
 20
-0.309917
  0
VERTEX
  8
PLAN_1
 62
     2
  6
CONTINUOUS
 10
-0.685303
 20
-0.310878
  0
VERTEX
  8
PLAN_1
 62
     2
  6
CONTINUOUS
 10
-0.684343
 20
-0.311358
  0
VERTEX
  8
PLAN_1
 62
     2
  6
CONTINUOUS
 10
-0.683382
 20
-0.311839
  0
VERTEX
  8
PLAN_1
 62
     2
  6
CONTINUOUS
 10
-0.682425
 20
-0.311839
  0
VERTEX
  8
PLAN_1
 62
     2
  6
CONTINUOUS
 10
-0.681945
 20
-0.311839
  0
VERTEX
  8
PLAN_1
 62
     2
  6
CONTINUOUS
 10
-0.680984
 20
-0.311839
  0
VERTEX
  8
PLAN_1
 62
     2
  6
CONTINUOUS
 10
-0.677626
 20
-0.311839
  0
VERTEX
  8
PLAN_1
 62
     2
  6
CONTINUOUS
 10
-0.677626
 20
-0.319035
  0
VERTEX
  8
PLAN_1
 62
     2
  6
CONTINUOUS
 10
-0.679067
 20
-0.319035
  0
VERTEX
  8
PLAN_1
 62
     2
  6
CONTINUOUS
 10
-0.680024
 20
-0.319512
  0
VERTEX
  8
PLAN_1
 62
     2
  6
CONTINUOUS
 10
-0.680984
 20
-0.319512
  0
VERTEX
  8
PLAN_1
 62
     2
  6
CONTINUOUS
 10
-0.681945
 20
-0.319512
  0
VERTEX
  8
PLAN_1
 62
     2
  6
CONTINUOUS
 10
-0.682902
 20
-0.319512
  0
VERTEX
  8
PLAN_1
 62
     2
  6
CONTINUOUS
 10
-0.683862
 20
-0.319512
  0
VERTEX
  8
PLAN_1
 62
     2
  6
CONTINUOUS
 10
-0.684343
 20
-0.319512
  0
VERTEX
  8
PLAN_1
 62
     2
  6
CONTINUOUS
 10
-0.684823
 20
-0.319992
  0
VERTEX
  8
PLAN_1
 62
     2
  6
CONTINUOUS
 10
-0.687701
 20
-0.319512
  0
VERTEX
  8
PLAN_1
 62
     2
  6
CONTINUOUS
 10
-0.690098
 20
-0.319035
  0
VERTEX
  8
PLAN_1
 62
     2
  6
CONTINUOUS
 10
-0.692020
 20
-0.317594
  0
VERTEX
  8
PLAN_1
 62
     2
  6
CONTINUOUS
 10
-0.693457
 20
-0.316154
  0
VERTEX
  8
PLAN_1
 62
     2
  6
CONTINUOUS
 10
-0.694417
 20
-0.314717
  0
VERTEX
  8
PLAN_1
 62
     2
  6
CONTINUOUS
 10
-0.695378
 20
-0.312795
  0
VERTEX
  8
PLAN_1
 62
     2
  6
CONTINUOUS
 10
-0.695378
 20
-0.310398
  0
VERTEX
  8
PLAN_1
 62
     2
  6
CONTINUOUS
 10
-0.695854
 20
-0.308000
  0
VERTEX
  8
PLAN_1
 62
     2
  6
CONTINUOUS
 10
-0.695854
 20
-0.272020
  0
VERTEX
  8
PLAN_1
 62
     2
  6
CONTINUOUS
 10
-0.703051
 20
-0.272020
  0
VERTEX
  8
PLAN_1
 62
     2
  6
CONTINUOUS
 10
-0.703051
 20
-0.264823
  0
VERTEX
  8
PLAN_1
 62
     2
  6
CONTINUOUS
 10
-0.695854
 20
-0.264823
  0
VERTEX
  8
PLAN_1
 62
     2
  6
CONTINUOUS
 10
-0.695854
 20
-0.249469
  0
VERTEX
  8
PLAN_1
 62
     2
  6
CONTINUOUS
 10
-0.686260
 20
-0.249469
  0
VERTEX
  8
PLAN_1
 62
     2
  6
CONTINUOUS
 10
-0.686260
 20
-0.264823
  0
VERTEX
  8
PLAN_1
 62
     2
  6
CONTINUOUS
 10
-0.677626
 20
-0.264823
  0
VERTEX
  8
PLAN_1
 62
     2
  6
CONTINUOUS
 10
-0.677626
 20
-0.272020
  0
VERTEX
  8
PLAN_1
 62
     2
  6
CONTINUOUS
 10
-0.686260
 20
-0.272020
  0
SEQEND
  8
0
  0
POLYLINE
  8
PLAN_1
 62
     2
  6
CONTINUOUS
 66
     1
 40
0.003000
 41
0.003000
  0
VERTEX
  8
PLAN_1
 62
     2
  6
CONTINUOUS
 10
-0.668992
 20
-0.281134
  0
VERTEX
  8
PLAN_1
 62
     2
  6
CONTINUOUS
 10
-0.668512
 20
-0.276815
  0
VERTEX
  8
PLAN_1
 62
     2
  6
CONTINUOUS
 10
-0.667551
 20
-0.272976
  0
VERTEX
  8
PLAN_1
 62
     2
  6
CONTINUOUS
 10
-0.665154
 20
-0.269618
  0
VERTEX
  8
PLAN_1
 62
     2
  6
CONTINUOUS
 10
-0.662752
 20
-0.267220
  0
VERTEX
  8
PLAN_1
 62
     2
  6
CONTINUOUS
 10
-0.659394
 20
-0.265303
  0
VERTEX
  8
PLAN_1
 62
     2
  6
CONTINUOUS
 10
-0.655559
 20
-0.263862
  0
VERTEX
  8
PLAN_1
 62
     2
  6
CONTINUOUS
 10
-0.651240
 20
-0.263382
  0
VERTEX
  8
PLAN_1
 62
     2
  6
CONTINUOUS
 10
-0.646441
 20
-0.262902
  0
VERTEX
  8
PLAN_1
 62
     2
  6
CONTINUOUS
 10
-0.644524
 20
-0.262902
  0
VERTEX
  8
PLAN_1
 62
     2
  6
CONTINUOUS
 10
-0.641646
 20
-0.263382
  0
VERTEX
  8
PLAN_1
 62
     2
  6
CONTINUOUS
 10
-0.638287
 20
-0.264343
  0
VERTEX
  8
PLAN_1
 62
     2
  6
CONTINUOUS
 10
-0.634929
 20
-0.265303
  0
VERTEX
  8
PLAN_1
 62
     2
  6
CONTINUOUS
 10
-0.631571
 20
-0.267220
  0
VERTEX
  8
PLAN_1
 62
     2
  6
CONTINUOUS
 10
-0.629169
 20
-0.270098
  0
VERTEX
  8
PLAN_1
 62
     2
  6
CONTINUOUS
 10
-0.627732
 20
-0.271539
  0
VERTEX
  8
PLAN_1
 62
     2
  6
CONTINUOUS
 10
-0.627252
 20
-0.273457
  0
VERTEX
  8
PLAN_1
 62
     2
  6
CONTINUOUS
 10
-0.626772
 20
-0.275854
  0
VERTEX
  8
PLAN_1
 62
     2
  6
CONTINUOUS
 10
-0.626291
 20
-0.278256
  0
VERTEX
  8
PLAN_1
 62
     2
  6
CONTINUOUS
 10
-0.626291
 20
-0.309437
  0
VERTEX
  8
PLAN_1
 62
     2
  6
CONTINUOUS
 10
-0.626291
 20
-0.310398
  0
VERTEX
  8
PLAN_1
 62
     2
  6
CONTINUOUS
 10
-0.626291
 20
-0.310878
  0
VERTEX
  8
PLAN_1
 62
     2
  6
CONTINUOUS
 10
-0.625811
 20
-0.311358
  0
VERTEX
  8
PLAN_1
 62
     2
  6
CONTINUOUS
 10
-0.625811
 20
-0.311839
  0
VERTEX
  8
PLAN_1
 62
     2
  6
CONTINUOUS
 10
-0.625335
 20
-0.312319
  0
VERTEX
  8
PLAN_1
 62
     2
  6
CONTINUOUS
 10
-0.624854
 20
-0.312795
  0
VERTEX
  8
PLAN_1
 62
     2
  6
CONTINUOUS
 10
-0.623894
 20
-0.312795
  0
VERTEX
  8
PLAN_1
 62
     2
  6
CONTINUOUS
 10
-0.623413
 20
-0.312795
  0
VERTEX
  8
PLAN_1
 62
     2
  6
CONTINUOUS
 10
-0.622933
 20
-0.312795
  0
VERTEX
  8
PLAN_1
 62
     2
  6
CONTINUOUS
 10
-0.622453
 20
-0.312795
  0
VERTEX
  8
PLAN_1
 62
     2
  6
CONTINUOUS
 10
-0.621976
 20
-0.312795
  0
VERTEX
  8
PLAN_1
 62
     2
  6
CONTINUOUS
 10
-0.621496
 20
-0.312795
  0
VERTEX
  8
PLAN_1
 62
     2
  6
CONTINUOUS
 10
-0.621016
 20
-0.312319
  0
VERTEX
  8
PLAN_1
 62
     2
  6
CONTINUOUS
 10
-0.620535
 20
-0.312319
  0
VERTEX
  8
PLAN_1
 62
     2
  6
CONTINUOUS
 10
-0.620535
 20
-0.319035
  0
VERTEX
  8
PLAN_1
 62
     2
  6
CONTINUOUS
 10
-0.621016
 20
-0.319035
  0
VERTEX
  8
PLAN_1
 62
     2
  6
CONTINUOUS
 10
-0.621496
 20
-0.319512
  0
VERTEX
  8
PLAN_1
 62
     2
  6
CONTINUOUS
 10
-0.621976
 20
-0.319512
  0
VERTEX
  8
PLAN_1
 62
     2
  6
CONTINUOUS
 10
-0.622933
 20
-0.319512
  0
VERTEX
  8
PLAN_1
 62
     2
  6
CONTINUOUS
 10
-0.623413
 20
-0.319992
  0
VERTEX
  8
PLAN_1
 62
     2
  6
CONTINUOUS
 10
-0.623894
 20
-0.319992
  0
VERTEX
  8
PLAN_1
 62
     2
  6
CONTINUOUS
 10
-0.624854
 20
-0.319992
  0
VERTEX
  8
PLAN_1
 62
     2
  6
CONTINUOUS
 10
-0.625335
 20
-0.319992
  0
VERTEX
  8
PLAN_1
 62
     2
  6
CONTINUOUS
 10
-0.628213
 20
-0.319992
  0
VERTEX
  8
PLAN_1
 62
     2
  6
CONTINUOUS
 10
-0.630130
 20
-0.319512
  0
VERTEX
  8
PLAN_1
 62
     2
  6
CONTINUOUS
 10
-0.632051
 20
-0.318555
  0
VERTEX
  8
PLAN_1
 62
     2
  6
CONTINUOUS
 10
-0.633008
 20
-0.317594
  0
VERTEX
  8
PLAN_1
 62
     2
  6
CONTINUOUS
 10
-0.633969
 20
-0.316154
  0
VERTEX
  8
PLAN_1
 62
     2
  6
CONTINUOUS
 10
-0.634449
 20
-0.314717
  0
VERTEX
  8
PLAN_1
 62
     2
  6
CONTINUOUS
 10
-0.634929
 20
-0.313276
  0
VERTEX
  8
PLAN_1
 62
     2
  6
CONTINUOUS
 10
-0.634929
 20
-0.311839
  0
VERTEX
  8
PLAN_1
 62
     2
  6
CONTINUOUS
 10
-0.636366
 20
-0.313276
  0
VERTEX
  8
PLAN_1
 62
     2
  6
CONTINUOUS
 10
-0.638287
 20
-0.314717
  0
VERTEX
  8
PLAN_1
 62
     2
  6
CONTINUOUS
 10
-0.640205
 20
-0.316154
  0
VERTEX
  8
PLAN_1
 62
     2
  6
CONTINUOUS
 10
-0.642126
 20
-0.317594
  0
VERTEX
  8
PLAN_1
 62
     2
  6
CONTINUOUS
 10
-0.645004
 20
-0.319035
  0
VERTEX
  8
PLAN_1
 62
     2
  6
CONTINUOUS
 10
-0.647882
 20
-0.319512
  0
VERTEX
  8
PLAN_1
 62
     2
  6
CONTINUOUS
 10
-0.651240
 20
-0.320472
  0
VERTEX
  8
PLAN_1
 62
     2
  6
CONTINUOUS
 10
-0.654598
 20
-0.320472
  0
VERTEX
  8
PLAN_1
 62
     2
  6
CONTINUOUS
 10
-0.658437
 20
-0.320472
  0
VERTEX
  8
PLAN_1
 62
     2
  6
CONTINUOUS
 10
-0.661795
 20
-0.319512
  0
VERTEX
  8
PLAN_1
 62
     2
  6
CONTINUOUS
 10
-0.664673
 20
-0.318075
  0
VERTEX
  8
PLAN_1
 62
     2
  6
CONTINUOUS
 10
-0.667071
 20
-0.316154
  0
VERTEX
  8
PLAN_1
 62
     2
  6
CONTINUOUS
 10
-0.668992
 20
-0.313756
  0
VERTEX
  8
PLAN_1
 62
     2
  6
CONTINUOUS
 10
-0.670429
 20
-0.311358
  0
VERTEX
  8
PLAN_1
 62
     2
  6
CONTINUOUS
 10
-0.671390
 20
-0.308480
  0
VERTEX
  8
PLAN_1
 62
     2
  6
CONTINUOUS
 10
-0.671870
 20
-0.304642
  0
VERTEX
  8
PLAN_1
 62
     2
  6
CONTINUOUS
 10
-0.671870
 20
-0.302720
  0
VERTEX
  8
PLAN_1
 62
     2
  6
CONTINUOUS
 10
-0.671390
 20
-0.300323
  0
VERTEX
  8
PLAN_1
 62
     2
  6
CONTINUOUS
 10
-0.670429
 20
-0.297925
  0
VERTEX
  8
PLAN_1
 62
     2
  6
CONTINUOUS
 10
-0.669469
 20
-0.295528
  0
VERTEX
  8
PLAN_1
 62
     2
  6
CONTINUOUS
 10
-0.667071
 20
-0.292646
  0
VERTEX
  8
PLAN_1
 62
     2
  6
CONTINUOUS
 10
-0.664193
 20
-0.290728
  0
VERTEX
  8
PLAN_1
 62
     2
  6
CONTINUOUS
 10
-0.660354
 20
-0.288811
  0
VERTEX
  8
PLAN_1
 62
     2
  6
CONTINUOUS
 10
-0.655079
 20
-0.287850
  0
VERTEX
  8
PLAN_1
 62
     2
  6
CONTINUOUS
 10
-0.640205
 20
-0.285929
  0
VERTEX
  8
PLAN_1
 62
     2
  6
CONTINUOUS
 10
-0.639244
 20
-0.285929
  0
VERTEX
  8
PLAN_1
 62
     2
  6
CONTINUOUS
 10
-0.638287
 20
-0.285453
  0
VERTEX
  8
PLAN_1
 62
     2
  6
CONTINUOUS
 10
-0.637807
 20
-0.285453
  0
VERTEX
  8
PLAN_1
 62
     2
  6
CONTINUOUS
 10
-0.636846
 20
-0.284492
  0
VERTEX
  8
PLAN_1
 62
     2
  6
CONTINUOUS
 10
-0.636366
 20
-0.284012
  0
VERTEX
  8
PLAN_1
 62
     2
  6
CONTINUOUS
 10
-0.635886
 20
-0.282571
  0
VERTEX
  8
PLAN_1
 62
     2
  6
CONTINUOUS
 10
-0.635409
 20
-0.281134
  0
VERTEX
  8
PLAN_1
 62
     2
  6
CONTINUOUS
 10
-0.635409
 20
-0.279693
  0
VERTEX
  8
PLAN_1
 62
     2
  6
CONTINUOUS
 10
-0.635409
 20
-0.277295
  0
VERTEX
  8
PLAN_1
 62
     2
  6
CONTINUOUS
 10
-0.636366
 20
-0.275854
  0
VERTEX
  8
PLAN_1
 62
     2
  6
CONTINUOUS
 10
-0.637327
 20
-0.274417
  0
VERTEX
  8
PLAN_1
 62
     2
  6
CONTINUOUS
 10
-0.638768
 20
-0.272976
  0
VERTEX
  8
PLAN_1
 62
     2
  6
CONTINUOUS
 10
-0.640205
 20
-0.272020
  0
VERTEX
  8
PLAN_1
 62
     2
  6
CONTINUOUS
 10
-0.642602
 20
-0.271059
  0
VERTEX
  8
PLAN_1
 62
     2
  6
CONTINUOUS
 10
-0.645004
 20
-0.270579
  0
VERTEX
  8
PLAN_1
 62
     2
  6
CONTINUOUS
 10
-0.648362
 20
-0.270579
  0
VERTEX
  8
PLAN_1
 62
     2
  6
CONTINUOUS
 10
-0.651720
 20
-0.271059
  0
VERTEX
  8
PLAN_1
 62
     2
  6
CONTINUOUS
 10
-0.654598
 20
-0.271539
  0
VERTEX
  8
PLAN_1
 62
     2
  6
CONTINUOUS
 10
-0.656516
 20
-0.272976
  0
VERTEX
  8
PLAN_1
 62
     2
  6
CONTINUOUS
 10
-0.657957
 20
-0.274417
  0
VERTEX
  8
PLAN_1
 62
     2
  6
CONTINUOUS
 10
-0.659394
 20
-0.275854
  0
VERTEX
  8
PLAN_1
 62
     2
  6
CONTINUOUS
 10
-0.659874
 20
-0.277776
  0
VERTEX
  8
PLAN_1
 62
     2
  6
CONTINUOUS
 10
-0.660354
 20
-0.279693
  0
VERTEX
  8
PLAN_1
 62
     2
  6
CONTINUOUS
 10
-0.660835
 20
-0.281134
  0
VERTEX
  8
PLAN_1
 62
     2
  6
CONTINUOUS
 10
-0.668992
 20
-0.281134
  0
SEQEND
  8
0
  0
POLYLINE
  8
PLAN_1
 62
     2
  6
CONTINUOUS
 66
     1
 40
0.003000
 41
0.003000
  0
VERTEX
  8
PLAN_1
 62
     2
  6
CONTINUOUS
 10
-0.635409
 20
-0.291209
  0
VERTEX
  8
PLAN_1
 62
     2
  6
CONTINUOUS
 10
-0.636366
 20
-0.291689
  0
VERTEX
  8
PLAN_1
 62
     2
  6
CONTINUOUS
 10
-0.636846
 20
-0.292169
  0
VERTEX
  8
PLAN_1
 62
     2
  6
CONTINUOUS
 10
-0.637807
 20
-0.292646
  0
VERTEX
  8
PLAN_1
 62
     2
  6
CONTINUOUS
 10
-0.639244
 20
-0.292646
  0
VERTEX
  8
PLAN_1
 62
     2
  6
CONTINUOUS
 10
-0.641165
 20
-0.293126
  0
VERTEX
  8
PLAN_1
 62
     2
  6
CONTINUOUS
 10
-0.643563
 20
-0.293606
  0
VERTEX
  8
PLAN_1
 62
     2
  6
CONTINUOUS
 10
-0.646921
 20
-0.294087
  0
VERTEX
  8
PLAN_1
 62
     2
  6
CONTINUOUS
 10
-0.650760
 20
-0.294567
  0
VERTEX
  8
PLAN_1
 62
     2
  6
CONTINUOUS
 10
-0.652677
 20
-0.295047
  0
VERTEX
  8
PLAN_1
 62
     2
  6
CONTINUOUS
 10
-0.654598
 20
-0.295528
  0
VERTEX
  8
PLAN_1
 62
     2
  6
CONTINUOUS
 10
-0.656516
 20
-0.296004
  0
VERTEX
  8
PLAN_1
 62
     2
  6
CONTINUOUS
 10
-0.658437
 20
-0.296965
  0
VERTEX
  8
PLAN_1
 62
     2
  6
CONTINUOUS
 10
-0.659874
 20
-0.297925
  0
VERTEX
  8
PLAN_1
 62
     2
  6
CONTINUOUS
 10
-0.661315
 20
-0.299362
  0
VERTEX
  8
PLAN_1
 62
     2
  6
CONTINUOUS
 10
-0.662276
 20
-0.301283
  0
VERTEX
  8
PLAN_1
 62
     2
  6
CONTINUOUS
 10
-0.662276
 20
-0.303681
  0
VERTEX
  8
PLAN_1
 62
     2
  6
CONTINUOUS
 10
-0.662276
 20
-0.305602
  0
VERTEX
  8
PLAN_1
 62
     2
  6
CONTINUOUS
 10
-0.661795
 20
-0.307520
  0
VERTEX
  8
PLAN_1
 62
     2
  6
CONTINUOUS
 10
-0.660835
 20
-0.308961
  0
VERTEX
  8
PLAN_1
 62
     2
  6
CONTINUOUS
 10
-0.659874
 20
-0.310398
  0
VERTEX
  8
PLAN_1
 62
     2
  6
CONTINUOUS
 10
-0.658437
 20
-0.311358
  0
VERTEX
  8
PLAN_1
 62
     2
  6
CONTINUOUS
 10
-0.656996
 20
-0.312319
  0
VERTEX
  8
PLAN_1
 62
     2
  6
CONTINUOUS
 10
-0.655079
 20
-0.312795
  0
VERTEX
  8
PLAN_1
 62
     2
  6
CONTINUOUS
 10
-0.652677
 20
-0.312795
  0
VERTEX
  8
PLAN_1
 62
     2
  6
CONTINUOUS
 10
-0.649319
 20
-0.312795
  0
VERTEX
  8
PLAN_1
 62
     2
  6
CONTINUOUS
 10
-0.646441
 20
-0.311839
  0
VERTEX
  8
PLAN_1
 62
     2
  6
CONTINUOUS
 10
-0.643563
 20
-0.310878
  0
VERTEX
  8
PLAN_1
 62
     2
  6
CONTINUOUS
 10
-0.640685
 20
-0.309437
  0
VERTEX
  8
PLAN_1
 62
     2
  6
CONTINUOUS
 10
-0.638768
 20
-0.307520
  0
VERTEX
  8
PLAN_1
 62
     2
  6
CONTINUOUS
 10
-0.636846
 20
-0.305122
  0
VERTEX
  8
PLAN_1
 62
     2
  6
CONTINUOUS
 10
-0.635886
 20
-0.302720
  0
VERTEX
  8
PLAN_1
 62
     2
  6
CONTINUOUS
 10
-0.635409
 20
-0.300323
  0
VERTEX
  8
PLAN_1
 62
     2
  6
CONTINUOUS
 10
-0.635409
 20
-0.291209
  0
SEQEND
  8
0
  0
POLYLINE
  8
PLAN_1
 62
     2
  6
CONTINUOUS
 66
     1
 40
0.003000
 41
0.003000
  0
VERTEX
  8
PLAN_1
 62
     2
  6
CONTINUOUS
 10
-0.599906
 20
-0.272020
  0
VERTEX
  8
PLAN_1
 62
     2
  6
CONTINUOUS
 10
-0.599906
 20
-0.307520
  0
VERTEX
  8
PLAN_1
 62
     2
  6
CONTINUOUS
 10
-0.599425
 20
-0.308961
  0
VERTEX
  8
PLAN_1
 62
     2
  6
CONTINUOUS
 10
-0.598945
 20
-0.309917
  0
VERTEX
  8
PLAN_1
 62
     2
  6
CONTINUOUS
 10
-0.598469
 20
-0.310878
  0
VERTEX
  8
PLAN_1
 62
     2
  6
CONTINUOUS
 10
-0.597508
 20
-0.311358
  0
VERTEX
  8
PLAN_1
 62
     2
  6
CONTINUOUS
 10
-0.596547
 20
-0.311839
  0
VERTEX
  8
PLAN_1
 62
     2
  6
CONTINUOUS
 10
-0.595587
 20
-0.311839
  0
VERTEX
  8
PLAN_1
 62
     2
  6
CONTINUOUS
 10
-0.595110
 20
-0.311839
  0
VERTEX
  8
PLAN_1
 62
     2
  6
CONTINUOUS
 10
-0.594150
 20
-0.311839
  0
VERTEX
  8
PLAN_1
 62
     2
  6
CONTINUOUS
 10
-0.590791
 20
-0.311839
  0
VERTEX
  8
PLAN_1
 62
     2
  6
CONTINUOUS
 10
-0.590791
 20
-0.319035
  0
VERTEX
  8
PLAN_1
 62
     2
  6
CONTINUOUS
 10
-0.592228
 20
-0.319035
  0
VERTEX
  8
PLAN_1
 62
     2
  6
CONTINUOUS
 10
-0.593189
 20
-0.319512
  0
VERTEX
  8
PLAN_1
 62
     2
  6
CONTINUOUS
 10
-0.594150
 20
-0.319512
  0
VERTEX
  8
PLAN_1
 62
     2
  6
CONTINUOUS
 10
-0.595110
 20
-0.319512
  0
VERTEX
  8
PLAN_1
 62
     2
  6
CONTINUOUS
 10
-0.596067
 20
-0.319512
  0
VERTEX
  8
PLAN_1
 62
     2
  6
CONTINUOUS
 10
-0.597028
 20
-0.319512
  0
VERTEX
  8
PLAN_1
 62
     2
  6
CONTINUOUS
 10
-0.597508
 20
-0.319512
  0
VERTEX
  8
PLAN_1
 62
     2
  6
CONTINUOUS
 10
-0.597988
 20
-0.319992
  0
VERTEX
  8
PLAN_1
 62
     2
  6
CONTINUOUS
 10
-0.600866
 20
-0.319512
  0
VERTEX
  8
PLAN_1
 62
     2
  6
CONTINUOUS
 10
-0.603264
 20
-0.319035
  0
VERTEX
  8
PLAN_1
 62
     2
  6
CONTINUOUS
 10
-0.605185
 20
-0.317594
  0
VERTEX
  8
PLAN_1
 62
     2
  6
CONTINUOUS
 10
-0.606622
 20
-0.316154
  0
VERTEX
  8
PLAN_1
 62
     2
  6
CONTINUOUS
 10
-0.607583
 20
-0.314717
  0
VERTEX
  8
PLAN_1
 62
     2
  6
CONTINUOUS
 10
-0.608543
 20
-0.312795
  0
VERTEX
  8
PLAN_1
 62
     2
  6
CONTINUOUS
 10
-0.608543
 20
-0.310398
  0
VERTEX
  8
PLAN_1
 62
     2
  6
CONTINUOUS
 10
-0.609020
 20
-0.308000
  0
VERTEX
  8
PLAN_1
 62
     2
  6
CONTINUOUS
 10
-0.609020
 20
-0.272020
  0
VERTEX
  8
PLAN_1
 62
     2
  6
CONTINUOUS
 10
-0.616217
 20
-0.272020
  0
VERTEX
  8
PLAN_1
 62
     2
  6
CONTINUOUS
 10
-0.616217
 20
-0.264823
  0
VERTEX
  8
PLAN_1
 62
     2
  6
CONTINUOUS
 10
-0.609020
 20
-0.264823
  0
VERTEX
  8
PLAN_1
 62
     2
  6
CONTINUOUS
 10
-0.609020
 20
-0.249469
  0
VERTEX
  8
PLAN_1
 62
     2
  6
CONTINUOUS
 10
-0.599906
 20
-0.249469
  0
VERTEX
  8
PLAN_1
 62
     2
  6
CONTINUOUS
 10
-0.599906
 20
-0.264823
  0
VERTEX
  8
PLAN_1
 62
     2
  6
CONTINUOUS
 10
-0.590791
 20
-0.264823
  0
VERTEX
  8
PLAN_1
 62
     2
  6
CONTINUOUS
 10
-0.590791
 20
-0.272020
  0
VERTEX
  8
PLAN_1
 62
     2
  6
CONTINUOUS
 10
-0.599906
 20
-0.272020
  0
SEQEND
  8
0
  0
POLYLINE
  8
PLAN_1
 62
     2
  6
CONTINUOUS
 66
     1
 40
0.003000
 41
0.003000
  0
VERTEX
  8
PLAN_1
 62
     2
  6
CONTINUOUS
 10
-0.535618
 20
-0.301764
  0
VERTEX
  8
PLAN_1
 62
     2
  6
CONTINUOUS
 10
-0.536098
 20
-0.303201
  0
VERTEX
  8
PLAN_1
 62
     2
  6
CONTINUOUS
 10
-0.536579
 20
-0.304642
  0
VERTEX
  8
PLAN_1
 62
     2
  6
CONTINUOUS
 10
-0.537059
 20
-0.306559
  0
VERTEX
  8
PLAN_1
 62
     2
  6
CONTINUOUS
 10
-0.538020
 20
-0.308480
  0
VERTEX
  8
PLAN_1
 62
     2
  6
CONTINUOUS
 10
-0.539457
 20
-0.310878
  0
VERTEX
  8
PLAN_1
 62
     2
  6
CONTINUOUS
 10
-0.540898
 20
-0.312795
  0
VERTEX
  8
PLAN_1
 62
     2
  6
CONTINUOUS
 10
-0.543295
 20
-0.315197
  0
VERTEX
  8
PLAN_1
 62
     2
  6
CONTINUOUS
 10
-0.545693
 20
-0.316634
  0
VERTEX
  8
PLAN_1
 62
     2
  6
CONTINUOUS
 10
-0.546654
 20
-0.317594
  0
VERTEX
  8
PLAN_1
 62
     2
  6
CONTINUOUS
 10
-0.547614
 20
-0.318075
  0
VERTEX
  8
PLAN_1
 62
     2
  6
CONTINUOUS
 10
-0.549051
 20
-0.318555
  0
VERTEX
  8
PLAN_1
 62
     2
  6
CONTINUOUS
 10
-0.550492
 20
-0.319512
  0
VERTEX
  8
PLAN_1
 62
     2
  6
CONTINUOUS
 10
-0.552409
 20
-0.319992
  0
VERTEX
  8
PLAN_1
 62
     2
  6
CONTINUOUS
 10
-0.554811
 20
-0.320472
  0
VERTEX
  8
PLAN_1
 62
     2
  6
CONTINUOUS
 10
-0.557209
 20
-0.320472
  0
VERTEX
  8
PLAN_1
 62
     2
  6
CONTINUOUS
 10
-0.560087
 20
-0.320472
  0
VERTEX
  8
PLAN_1
 62
     2
  6
CONTINUOUS
 10
-0.562965
 20
-0.320472
  0
VERTEX
  8
PLAN_1
 62
     2
  6
CONTINUOUS
 10
-0.565843
 20
-0.319992
  0
VERTEX
  8
PLAN_1
 62
     2
  6
CONTINUOUS
 10
-0.568244
 20
-0.319512
  0
VERTEX
  8
PLAN_1
 62
     2
  6
CONTINUOUS
 10
-0.570642
 20
-0.318555
  0
VERTEX
  8
PLAN_1
 62
     2
  6
CONTINUOUS
 10
-0.572559
 20
-0.317594
  0
VERTEX
  8
PLAN_1
 62
     2
  6
CONTINUOUS
 10
-0.574480
 20
-0.316154
  0
VERTEX
  8
PLAN_1
 62
     2
  6
CONTINUOUS
 10
-0.576398
 20
-0.314717
  0
VERTEX
  8
PLAN_1
 62
     2
  6
CONTINUOUS
 10
-0.578319
 20
-0.312795
  0
VERTEX
  8
PLAN_1
 62
     2
  6
CONTINUOUS
 10
-0.579756
 20
-0.310878
  0
VERTEX
  8
PLAN_1
 62
     2
  6
CONTINUOUS
 10
-0.580717
 20
-0.308961
  0
VERTEX
  8
PLAN_1
 62
     2
  6
CONTINUOUS
 10
-0.582157
 20
-0.306559
  0
VERTEX
  8
PLAN_1
 62
     2
  6
CONTINUOUS
 10
-0.583114
 20
-0.304161
  0
VERTEX
  8
PLAN_1
 62
     2
  6
CONTINUOUS
 10
-0.584075
 20
-0.298886
  0
VERTEX
  8
PLAN_1
 62
     2
  6
CONTINUOUS
 10
-0.584555
 20
-0.293126
  0
VERTEX
  8
PLAN_1
 62
     2
  6
CONTINUOUS
 10
-0.584075
 20
-0.287370
  0
VERTEX
  8
PLAN_1
 62
     2
  6
CONTINUOUS
 10
-0.583114
 20
-0.281614
  0
VERTEX
  8
PLAN_1
 62
     2
  6
CONTINUOUS
 10
-0.582157
 20
-0.278736
  0
VERTEX
  8
PLAN_1
 62
     2
  6
CONTINUOUS
 10
-0.581197
 20
-0.276335
  0
VERTEX
  8
PLAN_1
 62
     2
  6
CONTINUOUS
 10
-0.579756
 20
-0.273937
  0
VERTEX
  8
PLAN_1
 62
     2
  6
CONTINUOUS
 10
-0.578319
 20
-0.272020
  0
VERTEX
  8
PLAN_1
 62
     2
  6
CONTINUOUS
 10
-0.576398
 20
-0.270098
  0
VERTEX
  8
PLAN_1
 62
     2
  6
CONTINUOUS
 10
-0.574480
 20
-0.268181
  0
VERTEX
  8
PLAN_1
 62
     2
  6
CONTINUOUS
 10
-0.572559
 20
-0.266740
  0
VERTEX
  8
PLAN_1
 62
     2
  6
CONTINUOUS
 10
-0.570161
 20
-0.265303
  0
VERTEX
  8
PLAN_1
 62
     2
  6
CONTINUOUS
 10
-0.567764
 20
-0.264343
  0
VERTEX
  8
PLAN_1
 62
     2
  6
CONTINUOUS
 10
-0.564886
 20
-0.263862
  0
VERTEX
  8
PLAN_1
 62
     2
  6
CONTINUOUS
 10
-0.561528
 20
-0.263382
  0
VERTEX
  8
PLAN_1
 62
     2
  6
CONTINUOUS
 10
-0.558650
 20
-0.262902
  0
VERTEX
  8
PLAN_1
 62
     2
  6
CONTINUOUS
 10
-0.555768
 20
-0.263382
  0
VERTEX
  8
PLAN_1
 62
     2
  6
CONTINUOUS
 10
-0.552890
 20
-0.263862
  0
VERTEX
  8
PLAN_1
 62
     2
  6
CONTINUOUS
 10
-0.550492
 20
-0.264343
  0
VERTEX
  8
PLAN_1
 62
     2
  6
CONTINUOUS
 10
-0.548094
 20
-0.265303
  0
VERTEX
  8
PLAN_1
 62
     2
  6
CONTINUOUS
 10
-0.546173
 20
-0.266740
  0
VERTEX
  8
PLAN_1
 62
     2
  6
CONTINUOUS
 10
-0.544256
 20
-0.268181
  0
VERTEX
  8
PLAN_1
 62
     2
  6
CONTINUOUS
 10
-0.542335
 20
-0.269618
  0
VERTEX
  8
PLAN_1
 62
     2
  6
CONTINUOUS
 10
-0.540898
 20
-0.271539
  0
VERTEX
  8
PLAN_1
 62
     2
  6
CONTINUOUS
 10
-0.539457
 20
-0.273937
  0
VERTEX
  8
PLAN_1
 62
     2
  6
CONTINUOUS
 10
-0.538500
 20
-0.276335
  0
VERTEX
  8
PLAN_1
 62
     2
  6
CONTINUOUS
 10
-0.537539
 20
-0.278736
  0
VERTEX
  8
PLAN_1
 62
     2
  6
CONTINUOUS
 10
-0.536579
 20
-0.281614
  0
VERTEX
  8
PLAN_1
 62
     2
  6
CONTINUOUS
 10
-0.535618
 20
-0.287850
  0
VERTEX
  8
PLAN_1
 62
     2
  6
CONTINUOUS
 10
-0.535142
 20
-0.294567
  0
VERTEX
  8
PLAN_1
 62
     2
  6
CONTINUOUS
 10
-0.574961
 20
-0.294567
  0
VERTEX
  8
PLAN_1
 62
     2
  6
CONTINUOUS
 10
-0.574480
 20
-0.298886
  0
VERTEX
  8
PLAN_1
 62
     2
  6
CONTINUOUS
 10
-0.574000
 20
-0.302244
  0
VERTEX
  8
PLAN_1
 62
     2
  6
CONTINUOUS
 10
-0.572559
 20
-0.305602
  0
VERTEX
  8
PLAN_1
 62
     2
  6
CONTINUOUS
 10
-0.570642
 20
-0.308000
  0
VERTEX
  8
PLAN_1
 62
     2
  6
CONTINUOUS
 10
-0.568724
 20
-0.309917
  0
VERTEX
  8
PLAN_1
 62
     2
  6
CONTINUOUS
 10
-0.565843
 20
-0.311358
  0
VERTEX
  8
PLAN_1
 62
     2
  6
CONTINUOUS
 10
-0.562484
 20
-0.312319
  0
VERTEX
  8
PLAN_1
 62
     2
  6
CONTINUOUS
 10
-0.559126
 20
-0.312795
  0
VERTEX
  8
PLAN_1
 62
     2
  6
CONTINUOUS
 10
-0.555768
 20
-0.312319
  0
VERTEX
  8
PLAN_1
 62
     2
  6
CONTINUOUS
 10
-0.553370
 20
-0.311358
  0
VERTEX
  8
PLAN_1
 62
     2
  6
CONTINUOUS
 10
-0.550972
 20
-0.310398
  0
VERTEX
  8
PLAN_1
 62
     2
  6
CONTINUOUS
 10
-0.549051
 20
-0.308961
  0
VERTEX
  8
PLAN_1
 62
     2
  6
CONTINUOUS
 10
-0.547134
 20
-0.307039
  0
VERTEX
  8
PLAN_1
 62
     2
  6
CONTINUOUS
 10
-0.546173
 20
-0.305122
  0
VERTEX
  8
PLAN_1
 62
     2
  6
CONTINUOUS
 10
-0.545217
 20
-0.303681
  0
VERTEX
  8
PLAN_1
 62
     2
  6
CONTINUOUS
 10
-0.544736
 20
-0.301764
  0
VERTEX
  8
PLAN_1
 62
     2
  6
CONTINUOUS
 10
-0.535618
 20
-0.301764
  0
SEQEND
  8
0
  0
POLYLINE
  8
PLAN_1
 62
     2
  6
CONTINUOUS
 66
     1
 40
0.003000
 41
0.003000
  0
VERTEX
  8
PLAN_1
 62
     2
  6
CONTINUOUS
 10
-0.544736
 20
-0.287370
  0
VERTEX
  8
PLAN_1
 62
     2
  6
CONTINUOUS
 10
-0.544736
 20
-0.284492
  0
VERTEX
  8
PLAN_1
 62
     2
  6
CONTINUOUS
 10
-0.545693
 20
-0.281614
  0
VERTEX
  8
PLAN_1
 62
     2
  6
CONTINUOUS
 10
-0.546654
 20
-0.278736
  0
VERTEX
  8
PLAN_1
 62
     2
  6
CONTINUOUS
 10
-0.548094
 20
-0.276335
  0
VERTEX
  8
PLAN_1
 62
     2
  6
CONTINUOUS
 10
-0.550012
 20
-0.274417
  0
VERTEX
  8
PLAN_1
 62
     2
  6
CONTINUOUS
 10
-0.552890
 20
-0.272496
  0
VERTEX
  8
PLAN_1
 62
     2
  6
CONTINUOUS
 10
-0.555768
 20
-0.271539
  0
VERTEX
  8
PLAN_1
 62
     2
  6
CONTINUOUS
 10
-0.559606
 20
-0.271059
  0
VERTEX
  8
PLAN_1
 62
     2
  6
CONTINUOUS
 10
-0.562965
 20
-0.271539
  0
VERTEX
  8
PLAN_1
 62
     2
  6
CONTINUOUS
 10
-0.565843
 20
-0.272496
  0
VERTEX
  8
PLAN_1
 62
     2
  6
CONTINUOUS
 10
-0.568244
 20
-0.274417
  0
VERTEX
  8
PLAN_1
 62
     2
  6
CONTINUOUS
 10
-0.570642
 20
-0.276335
  0
VERTEX
  8
PLAN_1
 62
     2
  6
CONTINUOUS
 10
-0.572083
 20
-0.278736
  0
VERTEX
  8
PLAN_1
 62
     2
  6
CONTINUOUS
 10
-0.573520
 20
-0.281614
  0
VERTEX
  8
PLAN_1
 62
     2
  6
CONTINUOUS
 10
-0.574480
 20
-0.284492
  0
VERTEX
  8
PLAN_1
 62
     2
  6
CONTINUOUS
 10
-0.574961
 20
-0.287370
  0
VERTEX
  8
PLAN_1
 62
     2
  6
CONTINUOUS
 10
-0.544736
 20
-0.287370
  0
SEQEND
  8
0
  0
POLYLINE
  8
PLAN_1
 62
     2
  6
CONTINUOUS
 66
     1
 40
0.003000
 41
0.003000
  0
VERTEX
  8
PLAN_1
 62
     2
  6
CONTINUOUS
 10
-0.488602
 20
-0.319035
  0
VERTEX
  8
PLAN_1
 62
     2
  6
CONTINUOUS
 10
-0.488602
 20
-0.310878
  0
VERTEX
  8
PLAN_1
 62
     2
  6
CONTINUOUS
 10
-0.490524
 20
-0.313276
  0
VERTEX
  8
PLAN_1
 62
     2
  6
CONTINUOUS
 10
-0.491961
 20
-0.315197
  0
VERTEX
  8
PLAN_1
 62
     2
  6
CONTINUOUS
 10
-0.493882
 20
-0.316634
  0
VERTEX
  8
PLAN_1
 62
     2
  6
CONTINUOUS
 10
-0.495799
 20
-0.318075
  0
VERTEX
  8
PLAN_1
 62
     2
  6
CONTINUOUS
 10
-0.497720
 20
-0.319035
  0
VERTEX
  8
PLAN_1
 62
     2
  6
CONTINUOUS
 10
-0.500118
 20
-0.319992
  0
VERTEX
  8
PLAN_1
 62
     2
  6
CONTINUOUS
 10
-0.502996
 20
-0.320472
  0
VERTEX
  8
PLAN_1
 62
     2
  6
CONTINUOUS
 10
-0.505874
 20
-0.320472
  0
VERTEX
  8
PLAN_1
 62
     2
  6
CONTINUOUS
 10
-0.509232
 20
-0.320472
  0
VERTEX
  8
PLAN_1
 62
     2
  6
CONTINUOUS
 10
-0.512110
 20
-0.319992
  0
VERTEX
  8
PLAN_1
 62
     2
  6
CONTINUOUS
 10
-0.514992
 20
-0.318555
  0
VERTEX
  8
PLAN_1
 62
     2
  6
CONTINUOUS
 10
-0.517870
 20
-0.317114
  0
VERTEX
  8
PLAN_1
 62
     2
  6
CONTINUOUS
 10
-0.520268
 20
-0.314717
  0
VERTEX
  8
PLAN_1
 62
     2
  6
CONTINUOUS
 10
-0.522185
 20
-0.311839
  0
VERTEX
  8
PLAN_1
 62
     2
  6
CONTINUOUS
 10
-0.523146
 20
-0.308000
  0
VERTEX
  8
PLAN_1
 62
     2
  6
CONTINUOUS
 10
-0.523626
 20
-0.303681
  0
VERTEX
  8
PLAN_1
 62
     2
  6
CONTINUOUS
 10
-0.523626
 20
-0.264823
  0
VERTEX
  8
PLAN_1
 62
     2
  6
CONTINUOUS
 10
-0.514512
 20
-0.264823
  0
VERTEX
  8
PLAN_1
 62
     2
  6
CONTINUOUS
 10
-0.514512
 20
-0.300803
  0
VERTEX
  8
PLAN_1
 62
     2
  6
CONTINUOUS
 10
-0.514512
 20
-0.303681
  0
VERTEX
  8
PLAN_1
 62
     2
  6
CONTINUOUS
 10
-0.514031
 20
-0.306559
  0
VERTEX
  8
PLAN_1
 62
     2
  6
CONTINUOUS
 10
-0.513071
 20
-0.308480
  0
VERTEX
  8
PLAN_1
 62
     2
  6
CONTINUOUS
 10
-0.511634
 20
-0.309917
  0
VERTEX
  8
PLAN_1
 62
     2
  6
CONTINUOUS
 10
-0.510193
 20
-0.311358
  0
VERTEX
  8
PLAN_1
 62
     2
  6
CONTINUOUS
 10
-0.508276
 20
-0.311839
  0
VERTEX
  8
PLAN_1
 62
     2
  6
CONTINUOUS
 10
-0.506354
 20
-0.312319
  0
VERTEX
  8
PLAN_1
 62
     2
  6
CONTINUOUS
 10
-0.503957
 20
-0.312795
  0
VERTEX
  8
PLAN_1
 62
     2
  6
CONTINUOUS
 10
-0.500118
 20
-0.312319
  0
VERTEX
  8
PLAN_1
 62
     2
  6
CONTINUOUS
 10
-0.496760
 20
-0.310878
  0
VERTEX
  8
PLAN_1
 62
     2
  6
CONTINUOUS
 10
-0.494362
 20
-0.308961
  0
VERTEX
  8
PLAN_1
 62
     2
  6
CONTINUOUS
 10
-0.492441
 20
-0.306559
  0
VERTEX
  8
PLAN_1
 62
     2
  6
CONTINUOUS
 10
-0.491004
 20
-0.303681
  0
VERTEX
  8
PLAN_1
 62
     2
  6
CONTINUOUS
 10
-0.490043
 20
-0.300803
  0
VERTEX
  8
PLAN_1
 62
     2
  6
CONTINUOUS
 10
-0.489083
 20
-0.297445
  0
VERTEX
  8
PLAN_1
 62
     2
  6
CONTINUOUS
 10
-0.489083
 20
-0.294567
  0
VERTEX
  8
PLAN_1
 62
     2
  6
CONTINUOUS
 10
-0.489083
 20
-0.264823
  0
VERTEX
  8
PLAN_1
 62
     2
  6
CONTINUOUS
 10
-0.479969
 20
-0.264823
  0
VERTEX
  8
PLAN_1
 62
     2
  6
CONTINUOUS
 10
-0.479969
 20
-0.319035
  0
VERTEX
  8
PLAN_1
 62
     2
  6
CONTINUOUS
 10
-0.488602
 20
-0.319035
  0
SEQEND
  8
0
  0
POLYLINE
  8
PLAN_1
 62
     2
  6
CONTINUOUS
 66
     1
 40
0.003000
 41
0.003000
  0
VERTEX
  8
PLAN_1
 62
     2
  6
CONTINUOUS
 10
-0.455980
 20
-0.319035
  0
VERTEX
  8
PLAN_1
 62
     2
  6
CONTINUOUS
 10
-0.465098
 20
-0.319035
  0
VERTEX
  8
PLAN_1
 62
     2
  6
CONTINUOUS
 10
-0.465098
 20
-0.264823
  0
VERTEX
  8
PLAN_1
 62
     2
  6
CONTINUOUS
 10
-0.456461
 20
-0.264823
  0
VERTEX
  8
PLAN_1
 62
     2
  6
CONTINUOUS
 10
-0.456461
 20
-0.273457
  0
VERTEX
  8
PLAN_1
 62
     2
  6
CONTINUOUS
 10
-0.455980
 20
-0.273457
  0
VERTEX
  8
PLAN_1
 62
     2
  6
CONTINUOUS
 10
-0.454543
 20
-0.271539
  0
VERTEX
  8
PLAN_1
 62
     2
  6
CONTINUOUS
 10
-0.453102
 20
-0.269138
  0
VERTEX
  8
PLAN_1
 62
     2
  6
CONTINUOUS
 10
-0.451665
 20
-0.267701
  0
VERTEX
  8
PLAN_1
 62
     2
  6
CONTINUOUS
 10
-0.449744
 20
-0.265780
  0
VERTEX
  8
PLAN_1
 62
     2
  6
CONTINUOUS
 10
-0.447827
 20
-0.264823
  0
VERTEX
  8
PLAN_1
 62
     2
  6
CONTINUOUS
 10
-0.445425
 20
-0.263862
  0
VERTEX
  8
PLAN_1
 62
     2
  6
CONTINUOUS
 10
-0.443508
 20
-0.263382
  0
VERTEX
  8
PLAN_1
 62
     2
  6
CONTINUOUS
 10
-0.440630
 20
-0.262902
  0
VERTEX
  8
PLAN_1
 62
     2
  6
CONTINUOUS
 10
-0.440150
 20
-0.262902
  0
VERTEX
  8
PLAN_1
 62
     2
  6
CONTINUOUS
 10
-0.439669
 20
-0.262902
  0
VERTEX
  8
PLAN_1
 62
     2
  6
CONTINUOUS
 10
-0.439189
 20
-0.263382
  0
VERTEX
  8
PLAN_1
 62
     2
  6
CONTINUOUS
 10
-0.438709
 20
-0.263382
  0
VERTEX
  8
PLAN_1
 62
     2
  6
CONTINUOUS
 10
-0.438232
 20
-0.263382
  0
VERTEX
  8
PLAN_1
 62
     2
  6
CONTINUOUS
 10
-0.438232
 20
-0.272976
  0
VERTEX
  8
PLAN_1
 62
     2
  6
CONTINUOUS
 10
-0.442067
 20
-0.272976
  0
VERTEX
  8
PLAN_1
 62
     2
  6
CONTINUOUS
 10
-0.444949
 20
-0.272976
  0
VERTEX
  8
PLAN_1
 62
     2
  6
CONTINUOUS
 10
-0.447827
 20
-0.273937
  0
VERTEX
  8
PLAN_1
 62
     2
  6
CONTINUOUS
 10
-0.450224
 20
-0.275378
  0
VERTEX
  8
PLAN_1
 62
     2
  6
CONTINUOUS
 10
-0.452142
 20
-0.277295
  0
VERTEX
  8
PLAN_1
 62
     2
  6
CONTINUOUS
 10
-0.453583
 20
-0.279213
  0
VERTEX
  8
PLAN_1
 62
     2
  6
CONTINUOUS
 10
-0.455024
 20
-0.281614
  0
VERTEX
  8
PLAN_1
 62
     2
  6
CONTINUOUS
 10
-0.455500
 20
-0.284492
  0
VERTEX
  8
PLAN_1
 62
     2
  6
CONTINUOUS
 10
-0.455980
 20
-0.287370
  0
VERTEX
  8
PLAN_1
 62
     2
  6
CONTINUOUS
 10
-0.455980
 20
-0.319035
  0
SEQEND
  8
0
  0
POLYLINE
  8
PLAN_1
 62
     2
  6
CONTINUOUS
 66
     1
 40
0.003000
 41
0.003000
  0
VERTEX
  8
PLAN_1
 62
     2
  6
CONTINUOUS
 10
-0.372024
 20
-0.319035
  0
VERTEX
  8
PLAN_1
 62
     2
  6
CONTINUOUS
 10
-0.381618
 20
-0.319035
  0
VERTEX
  8
PLAN_1
 62
     2
  6
CONTINUOUS
 10
-0.381618
 20
-0.267220
  0
VERTEX
  8
PLAN_1
 62
     2
  6
CONTINUOUS
 10
-0.398890
 20
-0.267220
  0
VERTEX
  8
PLAN_1
 62
     2
  6
CONTINUOUS
 10
-0.398890
 20
-0.260024
  0
VERTEX
  8
PLAN_1
 62
     2
  6
CONTINUOUS
 10
-0.394575
 20
-0.259543
  0
VERTEX
  8
PLAN_1
 62
     2
  6
CONTINUOUS
 10
-0.391217
 20
-0.259063
  0
VERTEX
  8
PLAN_1
 62
     2
  6
CONTINUOUS
 10
-0.388335
 20
-0.258106
  0
VERTEX
  8
PLAN_1
 62
     2
  6
CONTINUOUS
 10
-0.385457
 20
-0.257146
  0
VERTEX
  8
PLAN_1
 62
     2
  6
CONTINUOUS
 10
-0.383539
 20
-0.255228
  0
VERTEX
  8
PLAN_1
 62
     2
  6
CONTINUOUS
 10
-0.381618
 20
-0.252827
  0
VERTEX
  8
PLAN_1
 62
     2
  6
CONTINUOUS
 10
-0.380181
 20
-0.249949
  0
VERTEX
  8
PLAN_1
 62
     2
  6
CONTINUOUS
 10
-0.379220
 20
-0.246110
  0
VERTEX
  8
PLAN_1
 62
     2
  6
CONTINUOUS
 10
-0.372024
 20
-0.246110
  0
VERTEX
  8
PLAN_1
 62
     2
  6
CONTINUOUS
 10
-0.372024
 20
-0.319035
  0
SEQEND
  8
0
  0
SOLID
  8
PLAN_1
 62
     2
 10
-0.346118
 20
-0.320953
 11
-0.353315
 21
-0.320953
 12
-0.320693
 22
-0.242276
 13
-0.327890
 23
-0.242276
  0
POLYLINE
  8
PLAN_1
 62
     2
  6
CONTINUOUS
 66
     1
 40
0.003000
 41
0.003000
  0
VERTEX
  8
PLAN_1
 62
     2
  6
CONTINUOUS
 10
-0.346118
 20
-0.320953
  0
VERTEX
  8
PLAN_1
 62
     2
  6
CONTINUOUS
 10
-0.353315
 20
-0.320953
  0
VERTEX
  8
PLAN_1
 62
     2
  6
CONTINUOUS
 10
-0.327890
 20
-0.242276
  0
VERTEX
  8
PLAN_1
 62
     2
  6
CONTINUOUS
 10
-0.320693
 20
-0.242276
  0
VERTEX
  8
PLAN_1
 62
     2
  6
CONTINUOUS
 10
-0.346118
 20
-0.320953
  0
SEQEND
  8
0
  0
POLYLINE
  8
PLAN_1
 62
     2
  6
CONTINUOUS
 66
     1
 40
0.003000
 41
0.003000
  0
VERTEX
  8
PLAN_1
 62
     2
  6
CONTINUOUS
 10
-0.317815
 20
-0.272020
  0
VERTEX
  8
PLAN_1
 62
     2
  6
CONTINUOUS
 10
-0.317815
 20
-0.267701
  0
VERTEX
  8
PLAN_1
 62
     2
  6
CONTINUOUS
 10
-0.317335
 20
-0.264343
  0
VERTEX
  8
PLAN_1
 62
     2
  6
CONTINUOUS
 10
-0.316374
 20
-0.260984
  0
VERTEX
  8
PLAN_1
 62
     2
  6
CONTINUOUS
 10
-0.314933
 20
-0.258106
  0
VERTEX
  8
PLAN_1
 62
     2
  6
CONTINUOUS
 10
-0.313496
 20
-0.255709
  0
VERTEX
  8
PLAN_1
 62
     2
  6
CONTINUOUS
 10
-0.312055
 20
-0.253307
  0
VERTEX
  8
PLAN_1
 62
     2
  6
CONTINUOUS
 10
-0.310138
 20
-0.251390
  0
VERTEX
  8
PLAN_1
 62
     2
  6
CONTINUOUS
 10
-0.308217
 20
-0.249949
  0
VERTEX
  8
PLAN_1
 62
     2
  6
CONTINUOUS
 10
-0.304382
 20
-0.248031
  0
VERTEX
  8
PLAN_1
 62
     2
  6
CONTINUOUS
 10
-0.300063
 20
-0.246591
  0
VERTEX
  8
PLAN_1
 62
     2
  6
CONTINUOUS
 10
-0.296224
 20
-0.246110
  0
VERTEX
  8
PLAN_1
 62
     2
  6
CONTINUOUS
 10
-0.292866
 20
-0.246110
  0
VERTEX
  8
PLAN_1
 62
     2
  6
CONTINUOUS
 10
-0.288067
 20
-0.246110
  0
VERTEX
  8
PLAN_1
 62
     2
  6
CONTINUOUS
 10
-0.283752
 20
-0.247551
  0
VERTEX
  8
PLAN_1
 62
     2
  6
CONTINUOUS
 10
-0.279913
 20
-0.248992
  0
VERTEX
  8
PLAN_1
 62
     2
  6
CONTINUOUS
 10
-0.276555
 20
-0.251870
  0
VERTEX
  8
PLAN_1
 62
     2
  6
CONTINUOUS
 10
-0.273677
 20
-0.254748
  0
VERTEX
  8
PLAN_1
 62
     2
  6
CONTINUOUS
 10
-0.271756
 20
-0.258587
  0
VERTEX
  8
PLAN_1
 62
     2
  6
CONTINUOUS
 10
-0.270319
 20
-0.262902
  0
VERTEX
  8
PLAN_1
 62
     2
  6
CONTINUOUS
 10
-0.269839
 20
-0.267701
  0
VERTEX
  8
PLAN_1
 62
     2
  6
CONTINUOUS
 10
-0.270319
 20
-0.272496
  0
VERTEX
  8
PLAN_1
 62
     2
  6
CONTINUOUS
 10
-0.271276
 20
-0.276335
  0
VERTEX
  8
PLAN_1
 62
     2
  6
CONTINUOUS
 10
-0.273197
 20
-0.279693
  0
VERTEX
  8
PLAN_1
 62
     2
  6
CONTINUOUS
 10
-0.275594
 20
-0.282571
  0
VERTEX
  8
PLAN_1
 62
     2
  6
CONTINUOUS
 10
-0.278472
 20
-0.285453
  0
VERTEX
  8
PLAN_1
 62
     2
  6
CONTINUOUS
 10
-0.281831
 20
-0.287850
  0
VERTEX
  8
PLAN_1
 62
     2
  6
CONTINUOUS
 10
-0.285189
 20
-0.289768
  0
VERTEX
  8
PLAN_1
 62
     2
  6
CONTINUOUS
 10
-0.289508
 20
-0.292169
  0
VERTEX
  8
PLAN_1
 62
     2
  6
CONTINUOUS
 10
-0.297185
 20
-0.296484
  0
VERTEX
  8
PLAN_1
 62
     2
  6
CONTINUOUS
 10
-0.300543
 20
-0.298406
  0
VERTEX
  8
PLAN_1
 62
     2
  6
CONTINUOUS
 10
-0.302941
 20
-0.300323
  0
VERTEX
  8
PLAN_1
 62
     2
  6
CONTINUOUS
 10
-0.305339
 20
-0.302244
  0
VERTEX
  8
PLAN_1
 62
     2
  6
CONTINUOUS
 10
-0.306780
 20
-0.304161
  0
VERTEX
  8
PLAN_1
 62
     2
  6
CONTINUOUS
 10
-0.308217
 20
-0.306079
  0
VERTEX
  8
PLAN_1
 62
     2
  6
CONTINUOUS
 10
-0.308697
 20
-0.308000
  0
VERTEX
  8
PLAN_1
 62
     2
  6
CONTINUOUS
 10
-0.309177
 20
-0.309437
  0
VERTEX
  8
PLAN_1
 62
     2
  6
CONTINUOUS
 10
-0.309657
 20
-0.310398
  0
VERTEX
  8
PLAN_1
 62
     2
  6
CONTINUOUS
 10
-0.269839
 20
-0.310398
  0
VERTEX
  8
PLAN_1
 62
     2
  6
CONTINUOUS
 10
-0.269839
 20
-0.319035
  0
VERTEX
  8
PLAN_1
 62
     2
  6
CONTINUOUS
 10
-0.319732
 20
-0.319035
  0
VERTEX
  8
PLAN_1
 62
     2
  6
CONTINUOUS
 10
-0.319252
 20
-0.313756
  0
VERTEX
  8
PLAN_1
 62
     2
  6
CONTINUOUS
 10
-0.318291
 20
-0.308961
  0
VERTEX
  8
PLAN_1
 62
     2
  6
CONTINUOUS
 10
-0.316854
 20
-0.304642
  0
VERTEX
  8
PLAN_1
 62
     2
  6
CONTINUOUS
 10
-0.314933
 20
-0.300803
  0
VERTEX
  8
PLAN_1
 62
     2
  6
CONTINUOUS
 10
-0.312055
 20
-0.297925
  0
VERTEX
  8
PLAN_1
 62
     2
  6
CONTINUOUS
 10
-0.309177
 20
-0.295047
  0
VERTEX
  8
PLAN_1
 62
     2
  6
CONTINUOUS
 10
-0.306299
 20
-0.292169
  0
VERTEX
  8
PLAN_1
 62
     2
  6
CONTINUOUS
 10
-0.302461
 20
-0.289768
  0
VERTEX
  8
PLAN_1
 62
     2
  6
CONTINUOUS
 10
-0.292866
 20
-0.284492
  0
VERTEX
  8
PLAN_1
 62
     2
  6
CONTINUOUS
 10
-0.289988
 20
-0.282571
  0
VERTEX
  8
PLAN_1
 62
     2
  6
CONTINUOUS
 10
-0.287591
 20
-0.281134
  0
VERTEX
  8
PLAN_1
 62
     2
  6
CONTINUOUS
 10
-0.285189
 20
-0.279693
  0
VERTEX
  8
PLAN_1
 62
     2
  6
CONTINUOUS
 10
-0.283272
 20
-0.277776
  0
VERTEX
  8
PLAN_1
 62
     2
  6
CONTINUOUS
 10
-0.281831
 20
-0.275854
  0
VERTEX
  8
PLAN_1
 62
     2
  6
CONTINUOUS
 10
-0.280394
 20
-0.273457
  0
VERTEX
  8
PLAN_1
 62
     2
  6
CONTINUOUS
 10
-0.279913
 20
-0.270579
  0
VERTEX
  8
PLAN_1
 62
     2
  6
CONTINUOUS
 10
-0.279433
 20
-0.267220
  0
VERTEX
  8
PLAN_1
 62
     2
  6
CONTINUOUS
 10
-0.279913
 20
-0.265303
  0
VERTEX
  8
PLAN_1
 62
     2
  6
CONTINUOUS
 10
-0.280394
 20
-0.262902
  0
VERTEX
  8
PLAN_1
 62
     2
  6
CONTINUOUS
 10
-0.281350
 20
-0.260504
  0
VERTEX
  8
PLAN_1
 62
     2
  6
CONTINUOUS
 10
-0.282791
 20
-0.258587
  0
VERTEX
  8
PLAN_1
 62
     2
  6
CONTINUOUS
 10
-0.284709
 20
-0.256665
  0
VERTEX
  8
PLAN_1
 62
     2
  6
CONTINUOUS
 10
-0.287110
 20
-0.255228
  0
VERTEX
  8
PLAN_1
 62
     2
  6
CONTINUOUS
 10
-0.290469
 20
-0.254268
  0
VERTEX
  8
PLAN_1
 62
     2
  6
CONTINUOUS
 10
-0.293827
 20
-0.254268
  0
VERTEX
  8
PLAN_1
 62
     2
  6
CONTINUOUS
 10
-0.296705
 20
-0.254268
  0
VERTEX
  8
PLAN_1
 62
     2
  6
CONTINUOUS
 10
-0.298622
 20
-0.254748
  0
VERTEX
  8
PLAN_1
 62
     2
  6
CONTINUOUS
 10
-0.300543
 20
-0.255228
  0
VERTEX
  8
PLAN_1
 62
     2
  6
CONTINUOUS
 10
-0.301980
 20
-0.256185
  0
VERTEX
  8
PLAN_1
 62
     2
  6
CONTINUOUS
 10
-0.304858
 20
-0.258587
  0
VERTEX
  8
PLAN_1
 62
     2
  6
CONTINUOUS
 10
-0.306299
 20
-0.260984
  0
VERTEX
  8
PLAN_1
 62
     2
  6
CONTINUOUS
 10
-0.307740
 20
-0.264343
  0
VERTEX
  8
PLAN_1
 62
     2
  6
CONTINUOUS
 10
-0.308217
 20
-0.267220
  0
VERTEX
  8
PLAN_1
 62
     2
  6
CONTINUOUS
 10
-0.308697
 20
-0.270098
  0
VERTEX
  8
PLAN_1
 62
     2
  6
CONTINUOUS
 10
-0.308697
 20
-0.272020
  0
VERTEX
  8
PLAN_1
 62
     2
  6
CONTINUOUS
 10
-0.317815
 20
-0.272020
  0
SEQEND
  8
0
  0
SOLID
  8
PLAN_1
 62
     2
 10
-0.242492
 20
-0.244193
 11
-0.234815
 21
-0.244193
 12
-0.242492
 22
-0.271059
 13
-0.234815
 23
-0.271059
  0
POLYLINE
  8
PLAN_1
 62
     2
  6
CONTINUOUS
 66
     1
 40
0.003000
 41
0.003000
  0
VERTEX
  8
PLAN_1
 62
     2
  6
CONTINUOUS
 10
-0.242492
 20
-0.244193
  0
VERTEX
  8
PLAN_1
 62
     2
  6
CONTINUOUS
 10
-0.234815
 20
-0.244193
  0
VERTEX
  8
PLAN_1
 62
     2
  6
CONTINUOUS
 10
-0.234815
 20
-0.271059
  0
VERTEX
  8
PLAN_1
 62
     2
  6
CONTINUOUS
 10
-0.242492
 20
-0.271059
  0
VERTEX
  8
PLAN_1
 62
     2
  6
CONTINUOUS
 10
-0.242492
 20
-0.244193
  0
SEQEND
  8
0
  0
SOLID
  8
PLAN_1
 62
     2
 10
-0.257366
 20
-0.244193
 11
-0.249689
 21
-0.244193
 12
-0.257366
 22
-0.271059
 13
-0.249689
 23
-0.271059
  0
POLYLINE
  8
PLAN_1
 62
     2
  6
CONTINUOUS
 66
     1
 40
0.003000
 41
0.003000
  0
VERTEX
  8
PLAN_1
 62
     2
  6
CONTINUOUS
 10
-0.257366
 20
-0.244193
  0
VERTEX
  8
PLAN_1
 62
     2
  6
CONTINUOUS
 10
-0.249689
 20
-0.244193
  0
VERTEX
  8
PLAN_1
 62
     2
  6
CONTINUOUS
 10
-0.249689
 20
-0.271059
  0
VERTEX
  8
PLAN_1
 62
     2
  6
CONTINUOUS
 10
-0.257366
 20
-0.271059
  0
VERTEX
  8
PLAN_1
 62
     2
  6
CONTINUOUS
 10
-0.257366
 20
-0.244193
  0
SEQEND
  8
0
  0
POLYLINE
  8
PLAN_1
 62
     2
  6
CONTINUOUS
 66
     1
 40
0.003000
 41
0.003000
  0
VERTEX
  8
PLAN_1
 62
     2
  6
CONTINUOUS
 10
-0.141264
 20
-0.244193
  0
VERTEX
  8
PLAN_1
 62
     2
  6
CONTINUOUS
 10
-0.131669
 20
-0.244193
  0
VERTEX
  8
PLAN_1
 62
     2
  6
CONTINUOUS
 10
-0.131669
 20
-0.319035
  0
VERTEX
  8
PLAN_1
 62
     2
  6
CONTINUOUS
 10
-0.142705
 20
-0.319035
  0
VERTEX
  8
PLAN_1
 62
     2
  6
CONTINUOUS
 10
-0.181083
 20
-0.258587
  0
VERTEX
  8
PLAN_1
 62
     2
  6
CONTINUOUS
 10
-0.181083
 20
-0.319035
  0
VERTEX
  8
PLAN_1
 62
     2
  6
CONTINUOUS
 10
-0.190681
 20
-0.319035
  0
VERTEX
  8
PLAN_1
 62
     2
  6
CONTINUOUS
 10
-0.190681
 20
-0.244193
  0
VERTEX
  8
PLAN_1
 62
     2
  6
CONTINUOUS
 10
-0.178685
 20
-0.244193
  0
VERTEX
  8
PLAN_1
 62
     2
  6
CONTINUOUS
 10
-0.141744
 20
-0.304642
  0
VERTEX
  8
PLAN_1
 62
     2
  6
CONTINUOUS
 10
-0.141264
 20
-0.304642
  0
VERTEX
  8
PLAN_1
 62
     2
  6
CONTINUOUS
 10
-0.141264
 20
-0.244193
  0
SEQEND
  8
0
  0
POLYLINE
  8
PLAN_1
 62
     2
  6
CONTINUOUS
 66
     1
 40
0.003000
 41
0.003000
  0
VERTEX
  8
PLAN_1
 62
     2
  6
CONTINUOUS
 10
-0.104323
 20
-0.319035
  0
VERTEX
  8
PLAN_1
 62
     2
  6
CONTINUOUS
 10
-0.114398
 20
-0.319035
  0
VERTEX
  8
PLAN_1
 62
     2
  6
CONTINUOUS
 10
-0.114398
 20
-0.244193
  0
VERTEX
  8
PLAN_1
 62
     2
  6
CONTINUOUS
 10
-0.080815
 20
-0.244193
  0
VERTEX
  8
PLAN_1
 62
     2
  6
CONTINUOUS
 10
-0.076020
 20
-0.244673
  0
VERTEX
  8
PLAN_1
 62
     2
  6
CONTINUOUS
 10
-0.071701
 20
-0.246110
  0
VERTEX
  8
PLAN_1
 62
     2
  6
CONTINUOUS
 10
-0.067862
 20
-0.248031
  0
VERTEX
  8
PLAN_1
 62
     2
  6
CONTINUOUS
 10
-0.064984
 20
-0.250429
  0
VERTEX
  8
PLAN_1
 62
     2
  6
CONTINUOUS
 10
-0.062106
 20
-0.253307
  0
VERTEX
  8
PLAN_1
 62
     2
  6
CONTINUOUS
 10
-0.060189
 20
-0.257146
  0
VERTEX
  8
PLAN_1
 62
     2
  6
CONTINUOUS
 10
-0.059228
 20
-0.260984
  0
VERTEX
  8
PLAN_1
 62
     2
  6
CONTINUOUS
 10
-0.058748
 20
-0.265303
  0
VERTEX
  8
PLAN_1
 62
     2
  6
CONTINUOUS
 10
-0.059228
 20
-0.269138
  0
VERTEX
  8
PLAN_1
 62
     2
  6
CONTINUOUS
 10
-0.060189
 20
-0.272976
  0
VERTEX
  8
PLAN_1
 62
     2
  6
CONTINUOUS
 10
-0.061626
 20
-0.276815
  0
VERTEX
  8
PLAN_1
 62
     2
  6
CONTINUOUS
 10
-0.064024
 20
-0.280173
  0
VERTEX
  8
PLAN_1
 62
     2
  6
CONTINUOUS
 10
-0.065465
 20
-0.282094
  0
VERTEX
  8
PLAN_1
 62
     2
  6
CONTINUOUS
 10
-0.066906
 20
-0.283051
  0
VERTEX
  8
PLAN_1
 62
     2
  6
CONTINUOUS
 10
-0.068823
 20
-0.284492
  0
VERTEX
  8
PLAN_1
 62
     2
  6
CONTINUOUS
 10
-0.070740
 20
-0.285453
  0
VERTEX
  8
PLAN_1
 62
     2
  6
CONTINUOUS
 10
-0.073142
 20
-0.286409
  0
VERTEX
  8
PLAN_1
 62
     2
  6
CONTINUOUS
 10
-0.075539
 20
-0.286890
  0
VERTEX
  8
PLAN_1
 62
     2
  6
CONTINUOUS
 10
-0.077937
 20
-0.287370
  0
VERTEX
  8
PLAN_1
 62
     2
  6
CONTINUOUS
 10
-0.080815
 20
-0.287370
  0
VERTEX
  8
PLAN_1
 62
     2
  6
CONTINUOUS
 10
-0.104323
 20
-0.287370
  0
VERTEX
  8
PLAN_1
 62
     2
  6
CONTINUOUS
 10
-0.104323
 20
-0.319035
  0
SEQEND
  8
0
  0
POLYLINE
  8
PLAN_1
 62
     2
  6
CONTINUOUS
 66
     1
 40
0.003000
 41
0.003000
  0
VERTEX
  8
PLAN_1
 62
     2
  6
CONTINUOUS
 10
-0.104323
 20
-0.278736
  0
VERTEX
  8
PLAN_1
 62
     2
  6
CONTINUOUS
 10
-0.084654
 20
-0.278736
  0
VERTEX
  8
PLAN_1
 62
     2
  6
CONTINUOUS
 10
-0.081295
 20
-0.278736
  0
VERTEX
  8
PLAN_1
 62
     2
  6
CONTINUOUS
 10
-0.078417
 20
-0.278256
  0
VERTEX
  8
PLAN_1
 62
     2
  6
CONTINUOUS
 10
-0.075539
 20
-0.277295
  0
VERTEX
  8
PLAN_1
 62
     2
  6
CONTINUOUS
 10
-0.073622
 20
-0.275854
  0
VERTEX
  8
PLAN_1
 62
     2
  6
CONTINUOUS
 10
-0.071701
 20
-0.273937
  0
VERTEX
  8
PLAN_1
 62
     2
  6
CONTINUOUS
 10
-0.070264
 20
-0.272020
  0
VERTEX
  8
PLAN_1
 62
     2
  6
CONTINUOUS
 10
-0.069783
 20
-0.269138
  0
VERTEX
  8
PLAN_1
 62
     2
  6
CONTINUOUS
 10
-0.069303
 20
-0.265303
  0
VERTEX
  8
PLAN_1
 62
     2
  6
CONTINUOUS
 10
-0.069783
 20
-0.262421
  0
VERTEX
  8
PLAN_1
 62
     2
  6
CONTINUOUS
 10
-0.070264
 20
-0.259543
  0
VERTEX
  8
PLAN_1
 62
     2
  6
CONTINUOUS
 10
-0.071701
 20
-0.257146
  0
VERTEX
  8
PLAN_1
 62
     2
  6
CONTINUOUS
 10
-0.073622
 20
-0.255709
  0
VERTEX
  8
PLAN_1
 62
     2
  6
CONTINUOUS
 10
-0.075539
 20
-0.254268
  0
VERTEX
  8
PLAN_1
 62
     2
  6
CONTINUOUS
 10
-0.078417
 20
-0.253787
  0
VERTEX
  8
PLAN_1
 62
     2
  6
CONTINUOUS
 10
-0.080815
 20
-0.253307
  0
VERTEX
  8
PLAN_1
 62
     2
  6
CONTINUOUS
 10
-0.084173
 20
-0.252827
  0
VERTEX
  8
PLAN_1
 62
     2
  6
CONTINUOUS
 10
-0.104323
 20
-0.252827
  0
VERTEX
  8
PLAN_1
 62
     2
  6
CONTINUOUS
 10
-0.104323
 20
-0.278736
  0
SEQEND
  8
0
  0
POLYLINE
  8
PLAN_1
 62
     2
  6
CONTINUOUS
 66
     1
 40
0.003000
 41
0.003000
  0
VERTEX
  8
PLAN_1
 62
     2
  6
CONTINUOUS
 10
-0.052512
 20
-0.244193
  0
VERTEX
  8
PLAN_1
 62
     2
  6
CONTINUOUS
 10
0.007937
 20
-0.244193
  0
VERTEX
  8
PLAN_1
 62
     2
  6
CONTINUOUS
 10
0.007937
 20
-0.253307
  0
VERTEX
  8
PLAN_1
 62
     2
  6
CONTINUOUS
 10
-0.017488
 20
-0.253307
  0
VERTEX
  8
PLAN_1
 62
     2
  6
CONTINUOUS
 10
-0.017488
 20
-0.319035
  0
VERTEX
  8
PLAN_1
 62
     2
  6
CONTINUOUS
 10
-0.027563
 20
-0.319035
  0
VERTEX
  8
PLAN_1
 62
     2
  6
CONTINUOUS
 10
-0.027563
 20
-0.253307
  0
VERTEX
  8
PLAN_1
 62
     2
  6
CONTINUOUS
 10
-0.052512
 20
-0.253307
  0
VERTEX
  8
PLAN_1
 62
     2
  6
CONTINUOUS
 10
-0.052512
 20
-0.244193
  0
SEQEND
  8
0
  0
ENDSEC
  0
EOF
