999
DXF file: C:\Users\sesa63760\Dev\_Creo\CAD\MCADID0004140_3D-CAD\drw0001_2.dxf
999
Pro/ENGINEER 2019471 by Parametric Technology Corporation
  0
SECTION
  2
HEADER
  9
$ACADVER
  1
AC1024
  9
$DWGCODEPAGE
  3
ANSI_1252
  9
$EXTMAX
 10
63.0140184324
 20
89.1198260687
 30
0.0
  9
$EXTMIN
 10
0.0
 20
0.0
 30
0.0
  9
$LIMMIN
 10
0.0
 20
0.0
  9
$LIMMAX
 10
63.0140184324
 20
89.1198260687
  9
$VIEWCTR
 10
31.5070092162
 20
44.5599130343
  9
$VIEWSIZE
 40
89.1198260687
  9
$CLAYER
  8
0
  9
$LTSCALE
 40
5.809292366
  9
$CELTYPE
  6
BYLAYER
  9
$DIMSCALE
 40
1.0
  9
$DIMASZ
 40
0.7501668861
  9
$DIMEXO
 40
1.0
  9
$DIMDLI
 40
4.0136929074
  9
$DIMEXE
 40
1.0
  9
$DIMCEN
 40
0.9506114781
  9
$DIMLFAC
 40
1.0
  9
$DIMBLK
  1
_FILLED
  9
$DIMALT
 70
0
  9
$DIMALTF
 40
0.0393700787
  9
$DIMTXT
 40
1.0502336405
  9
$DIMTOL
 70
1
  9
$DIMLIM
 70
0
  9
$DIMTFAC
 40
1.0
  9
$DIMTP
 40
0.01
  9
$DIMTM
 40
0.01
  9
$DIMGAP
 40
0.625
  9
$DIMDSEP
 70
46
  9
$AUNITS
 70
0
  9
$PDMODE
 70
3
  9
$PDSIZE
 40
0.3125
  9
$HANDSEED
  5
30A
  9
$TILEMODE
 70
1
  9
$MEASUREMENT
 70
1
  9
$INSUNITS
 70
4
  0
ENDSEC
  0
SECTION
  2
CLASSES
  0
CLASS
  1
ACDBDICTIONARYWDFLT
  2
AcDbDictionaryWithDefault
  3
AutoCAD 2000
 90
0
 91
1
280
0
281
0
  0
CLASS
  1
ACDBPLACEHOLDER
  2
AcDbPlaceHolder
  3
AutoCAD 2000
 90
0
 91
1
280
0
281
0
  0
CLASS
  1
LAYOUT
  2
AcDbLayout
  3
AutoCAD 2000
 90
0
 91
0
280
0
281
0
  0
ENDSEC
  0
SECTION
  2
TABLES
  0
TABLE
  2
VPORT
  5
8
100
AcDbSymbolTable
 70
2
  0
VPORT
  5
1F4
100
AcDbSymbolTableRecord
100
AcDbViewportTableRecord
  2
*ACTIVE
 70
0
 10
0.0
 20
0.0
 11
1.0
 21
1.0
 12
31.5070092162
 22
44.5599130343
 13
0.0
 23
0.0
 14
1.0
 24
1.0
 15
0.0
 25
0.0
 16
0.0
 26
0.0
 36
1.0
 17
0.0
 27
0.0
 37
0.0
 40
89.1198260687
 41
0.7070707071
 42
50.0
 43
0.0
 44
0.0
 50
0.0
 51
0.0
 71
0
 72
100
 73
1
 74
1
 75
0
 76
0
 77
0
 78
0
  0
ENDTAB
  0
TABLE
  2
LTYPE
  5
5
100
AcDbSymbolTable
 70
6
  0
LTYPE
  5
14
100
AcDbSymbolTableRecord
100
AcDbLinetypeTableRecord
  2
BYBLOCK
 70
0
  3

 72
65
 73
0
 40
0.0
  0
LTYPE
  5
15
100
AcDbSymbolTableRecord
100
AcDbLinetypeTableRecord
  2
BYLAYER
 70
0
  3

 72
65
 73
0
 40
0.0
  0
LTYPE
  5
16
100
AcDbSymbolTableRecord
100
AcDbLinetypeTableRecord
  2
CONTINUOUS
 70
64
  3
Solid line
 72
65
 73
0
 40
0.0
  0
LTYPE
  5
1F5
100
AcDbSymbolTableRecord
100
AcDbLinetypeTableRecord
  2
CENTER
 70
64
  3
____ _ ____ _ ____ _ ____ _ ____ _ ____ _ ____
 72
65
 73
4
 40
0.6
 49
0.375
 74
0
 49
-0.075
 74
0
 49
0.075
 74
0
 49
-0.075
 74
0
  0
LTYPE
  5
1F6
100
AcDbSymbolTableRecord
100
AcDbLinetypeTableRecord
  2
HIDDEN
 70
64
  3
- - - - - - - - - - - - - - - - - - - -
 72
65
 73
2
 40
0.2
 49
0.1
 74
0
 49
-0.1
 74
0
  0
LTYPE
  5
1F7
100
AcDbSymbolTableRecord
100
AcDbLinetypeTableRecord
  2
PHANTOM
 70
64
  3
_____ _ _ _____ _ _ _____ _ _ _____
 72
65
 73
6
 40
0.8
 49
0.45
 74
0
 49
-0.05
 74
0
 49
0.1
 74
0
 49
-0.05
 74
0
 49
0.1
 74
0
 49
-0.05
 74
0
  0
LTYPE
  5
1F8
100
AcDbSymbolTableRecord
100
AcDbLinetypeTableRecord
  2
DOT
 70
64
  3
. . . . . . . . . . . . . . . . . . . .
 72
65
 73
2
 40
0.2
 49
0.1
 74
0
 49
-0.1
 74
0
  0
LTYPE
  5
1F9
100
AcDbSymbolTableRecord
100
AcDbLinetypeTableRecord
  2
DASHED
 70
64
  3
- - - - - - - - - - - - - - - - - - - -
 72
65
 73
2
 40
0.2
 49
0.1
 74
0
 49
-0.1
 74
0
  0
ENDTAB
  0
TABLE
  2
LAYER
  5
2
100
AcDbSymbolTable
 70
36
  0
LAYER
  5
10
100
AcDbSymbolTableRecord
100
AcDbLayerTableRecord
  2
0
 70
0
 62
7
  6
CONTINUOUS
370
-3
390
F
  0
LAYER
  5
1FA
100
AcDbSymbolTableRecord
100
AcDbLayerTableRecord
  2
DEFAULT_1
 70
0
 62
7
  6
CENTER
370
-3
390
F
  0
LAYER
  5
1FB
100
AcDbSymbolTableRecord
100
AcDbLayerTableRecord
  2
DEFAULT_2
 70
0
 62
7
  6
HIDDEN
370
-3
390
F
  0
LAYER
  5
1FC
100
AcDbSymbolTableRecord
100
AcDbLayerTableRecord
  2
DEFAULT_3
 70
0
 62
7
  6
PHANTOM
370
-3
390
F
  0
LAYER
  5
1FD
100
AcDbSymbolTableRecord
100
AcDbLayerTableRecord
  2
00_COMPONENTS
 70
0
 62
7
  6
CONTINUOUS
370
-3
390
F
  0
LAYER
  5
1FE
100
AcDbSymbolTableRecord
100
AcDbLayerTableRecord
  2
01_1_DEFAULT_DATUMS
 70
0
 62
7
  6
CONTINUOUS
370
-3
390
F
  0
LAYER
  5
1FF
100
AcDbSymbolTableRecord
100
AcDbLayerTableRecord
  2
01_PLANES
 70
0
 62
7
  6
CONTINUOUS
370
-3
390
F
  0
LAYER
  5
200
100
AcDbSymbolTableRecord
100
AcDbLayerTableRecord
  2
02_COORD_SYS
 70
0
 62
7
  6
CONTINUOUS
370
-3
390
F
  0
LAYER
  5
201
100
AcDbSymbolTableRecord
100
AcDbLayerTableRecord
  2
03_AXES
 70
0
 62
7
  6
CONTINUOUS
370
-3
390
F
  0
LAYER
  5
202
100
AcDbSymbolTableRecord
100
AcDbLayerTableRecord
  2
04_POINTS
 70
0
 62
7
  6
CONTINUOUS
370
-3
390
F
  0
LAYER
  5
203
100
AcDbSymbolTableRecord
100
AcDbLayerTableRecord
  2
05_CURVES
 70
0
 62
7
  6
CONTINUOUS
370
-3
390
F
  0
LAYER
  5
204
100
AcDbSymbolTableRecord
100
AcDbLayerTableRecord
  2
06_SURFS
 70
0
 62
7
  6
CONTINUOUS
370
-3
390
F
  0
LAYER
  5
205
100
AcDbSymbolTableRecord
100
AcDbLayerTableRecord
  2
07_COSMETICS
 70
0
 62
7
  6
CONTINUOUS
370
-3
390
F
  0
LAYER
  5
206
100
AcDbSymbolTableRecord
100
AcDbLayerTableRecord
  2
10_NOTES
 70
0
 62
7
  6
CONTINUOUS
370
-3
390
F
  0
LAYER
  5
207
100
AcDbSymbolTableRecord
100
AcDbLayerTableRecord
  2
11_NOTES_PUB
 70
0
 62
7
  6
CONTINUOUS
370
-3
390
F
  0
LAYER
  5
208
100
AcDbSymbolTableRecord
100
AcDbLayerTableRecord
  2
13_REF_GTOL
 70
0
 62
7
  6
CONTINUOUS
370
-3
390
F
  0
LAYER
  5
209
100
AcDbSymbolTableRecord
100
AcDbLayerTableRecord
  2
16_MISC
 70
0
 62
7
  6
CONTINUOUS
370
-3
390
F
  0
LAYER
  5
20A
100
AcDbSymbolTableRecord
100
AcDbLayerTableRecord
  2
17_NO_PRINT
 70
0
 62
7
  6
CONTINUOUS
370
-3
390
F
  0
LAYER
  5
20B
100
AcDbSymbolTableRecord
100
AcDbLayerTableRecord
  2
18_DATUM_CAMS_JOINTS
 70
0
 62
7
  6
CONTINUOUS
370
-3
390
F
  0
LAYER
  5
20C
100
AcDbSymbolTableRecord
100
AcDbLayerTableRecord
  2
19_DATUM_FUNCTIONAL
 70
0
 62
7
  6
CONTINUOUS
370
-3
390
F
  0
LAYER
  5
20D
100
AcDbSymbolTableRecord
100
AcDbLayerTableRecord
  2
20_DATUM_KINEMATIC_SCHEME
 70
0
 62
7
  6
CONTINUOUS
370
-3
390
F
  0
ENDTAB
  0
TABLE
  2
STYLE
  5
3
100
AcDbSymbolTable
 70
1
  0
STYLE
  5
11
100
AcDbSymbolTableRecord
100
AcDbTextStyleTableRecord
  2
STANDARD
 70
0
 40
0.0
 41
1.0
 50
0.0
 71
0
 42
0.2
  3
ARIAL.TTF
  4

  0
STYLE
  5
20E
100
AcDbSymbolTableRecord
100
AcDbTextStyleTableRecord
  2
TEXTSTYLE_1
 70
0
 40
0.0
 41
0.8
 50
0.0
 71
0
 42
0.2
  3
gdt
  4

  0
ENDTAB
  0
TABLE
  2
VIEW
  5
6
100
AcDbSymbolTable
 70
0
  0
ENDTAB
  0
TABLE
  2
UCS
  5
7
100
AcDbSymbolTable
 70
0
  0
ENDTAB
  0
TABLE
  2
APPID
  5
9
100
AcDbSymbolTable
 70
1
  0
APPID
  5
20F
100
AcDbSymbolTableRecord
100
AcDbRegAppTableRecord
  2
ACAD
 70
0
  0
ENDTAB
  0
TABLE
  2
BLOCK_RECORD
  5
1
100
AcDbSymbolTable
 70
0
  0
BLOCK_RECORD
  5
210
100
AcDbSymbolTableRecord
100
AcDbBlockTableRecord
  2
*Model_Space
  0
BLOCK_RECORD
  5
211
100
AcDbSymbolTableRecord
100
AcDbBlockTableRecord
  2
*Paper_Space
  0
BLOCK_RECORD
  5
212
100
AcDbSymbolTableRecord
100
AcDbBlockTableRecord
  2
_FILLED
  0
ENDTAB
  0
TABLE
  2
DIMSTYLE
  5
A
100
AcDbSymbolTable
 70
1
100
AcDbDimStyleTable
 71
0
  0
DIMSTYLE
105
213
100
AcDbSymbolTableRecord
100
AcDbDimStyleTableRecord
  2
STANDARD
 70
0
  3

  4

 40
1.0
 41
0.7501668861
 42
1.0
 43
0.38
 44
1.0
 45
0.0
 46
0.0
 47
0.01
 48
0.01
140
1.0502336405
141
0.09
142
0.0
143
25.4
144
1.0
145
0.0
146
1.0
147
0.625
 71
1
 72
0
 73
0
 74
0
 75
0
 76
0
 77
1
 78
8
 79
2
170
0
171
1
172
0
173
0
174
0
175
0
176
0
177
0
178
0
270
2
179
2
271
2
272
2
273
2
274
2
275
0
280
0
281
0
282
0
283
1
284
8
285
0
286
0
287
3
288
0
340
11
278
46
341
212
342
212
343
212
344
212
  0
ENDTAB
  0
ENDSEC
  0
SECTION
  2
BLOCKS
  0
BLOCK
  5
20
100
AcDbEntity
  8
0
100
AcDbBlockBegin
  2
*Model_Space
 70
0
 10
0.0
 20
0.0
 30
0.0
  3
*Model_Space
  1

  0
ENDBLK
  5
21
100
AcDbEntity
  8
0
100
AcDbBlockEnd
  0
BLOCK
  5
1C
100
AcDbEntity
  8
0
100
AcDbBlockBegin
  2
*Paper_Space
 70
0
 10
0.0
 20
0.0
 30
0.0
  3
*Paper_Space
  1

  0
ENDBLK
  5
1D
100
AcDbEntity
  8
0
100
AcDbBlockEnd
  0
BLOCK
  5
214
100
AcDbEntity
  8
0
100
AcDbBlockBegin
  2
_FILLED
 70
64
 10
0.0
 20
0.0
  3
_FILLED
  1

  0
SOLID
  5
215
100
AcDbEntity
  8
0
  6
BYBLOCK
 62
0
100
AcDbTrace
 10
0.0
 20
0.0
 11
-1.0
 21
0.25
 12
-1.0
 22
-0.25
 13
-1.0
 23
-0.25
  0
ENDBLK
  5
216
100
AcDbEntity
  8
0
  6
BYBLOCK
 62
0
100
AcDbBlockEnd
  0
ENDSEC
  0
SECTION
  2
ENTITIES
  0
LWPOLYLINE
  5
217
100
AcDbEntity
  8
0
100
AcDbPolyline
 62
7
  6
BYLAYER
 90
3
 70
0
 10
6.9594070038
 20
72.9388032359
 10
6.9214117184
 20
72.8749483559
 10
6.9090623098
 20
72.8008470216
  0
LINE
  5
218
100
AcDbEntity
  8
0
100
AcDbLine
 62
7
  6
BYLAYER
 10
12.3276816738
 20
75.6705180934
 11
7.1737672121
 21
70.3644524401
  0
LINE
  5
219
100
AcDbEntity
  8
0
100
AcDbLine
 62
7
  6
BYLAYER
 10
7.0356587606
 20
70.4986513027
 11
12.1937272815
 21
75.8005732033
  0
LINE
  5
21A
100
AcDbEntity
  8
0
100
AcDbLine
 62
7
  6
BYLAYER
 10
53.5959043663
 20
11.9220764376
 11
43.9702775064
 21
11.9220764376
  0
LINE
  5
21B
100
AcDbEntity
  8
0
100
AcDbLine
 62
7
  6
BYLAYER
 10
43.7937481652
 20
12.0340582751
 11
53.7724337075
 21
12.0340582751
  0
LINE
  5
21C
100
AcDbEntity
  8
0
100
AcDbLine
 62
7
  6
BYLAYER
 10
43.6330909362
 20
12.375135453
 11
53.9330909364
 21
12.3751354529
  0
LINE
  5
21D
100
AcDbEntity
  8
0
100
AcDbLine
 62
7
  6
BYLAYER
 10
54.0272420305
 20
14.1204071648
 11
43.5389398422
 21
14.1204071648
  0
LINE
  5
21E
100
AcDbEntity
  8
0
100
AcDbLine
 62
7
  6
BYLAYER
 10
43.3830909363
 20
14.2762560707
 11
54.1830909363
 21
14.2762560707
  0
LINE
  5
21F
100
AcDbEntity
  8
0
100
AcDbLine
 62
7
  6
BYLAYER
 10
43.3830909364
 20
14.8198255691
 11
54.1830909363
 21
14.8198255691
  0
LINE
  5
220
100
AcDbEntity
  8
0
100
AcDbLine
 62
7
  6
BYLAYER
 10
43.4840429208
 20
14.9199571199
 11
54.0821389519
 21
14.9199571199
  0
LINE
  5
221
100
AcDbEntity
  8
0
100
AcDbLine
 62
7
  6
BYLAYER
 10
43.484042921
 20
16.0241576559
 11
54.0821389517
 21
16.0241576559
  0
LINE
  5
222
100
AcDbEntity
  8
0
100
AcDbLine
 62
7
  6
BYLAYER
 10
42.7830909364
 20
16.729916198
 11
54.7830909363
 21
16.729916198
  0
LINE
  5
223
100
AcDbEntity
  8
0
100
AcDbLine
 62
7
  6
BYLAYER
 10
6.9090666336
 20
72.8006830406
 11
8.1014400352
 21
27.8651990694
  0
LINE
  5
224
100
AcDbEntity
  8
0
100
AcDbLine
 62
7
  6
BYLAYER
 10
6.9459427911
 20
72.1649577127
 11
8.0494193319
 21
30.5796184693
  0
LINE
  5
225
100
AcDbEntity
  8
0
100
AcDbLine
 62
7
  6
BYLAYER
 10
39.8361866522
 20
76.1290827181
 11
39.6947654183
 21
76.0705042292
  0
LINE
  5
226
100
AcDbEntity
  8
0
100
AcDbLine
 62
7
  6
BYLAYER
 10
7.1737828716
 20
70.3644454572
 11
8.3013693746
 21
27.8705042404
  0
LINE
  5
227
100
AcDbEntity
  8
0
100
AcDbLine
 62
7
  6
BYLAYER
 10
8.3013696623
 20
27.8705042481
 11
8.3013696604
 21
27.6705042477
  0
LINE
  5
228
100
AcDbEntity
  8
0
100
AcDbLine
 62
7
  6
BYLAYER
 10
24.2776082226
 20
67.7705042492
 11
21.1776082212
 21
64.6705042477
  0
LINE
  5
229
100
AcDbEntity
  8
0
100
AcDbLine
 62
7
  6
BYLAYER
 10
42.7830909363
 20
22.4474643517
 11
54.7830909363
 21
22.4474643517
  0
LINE
  5
22A
100
AcDbEntity
  8
0
100
AcDbLine
 62
7
  6
BYLAYER
 10
12.3276981955
 20
75.8705042477
 11
12.327698195
 21
75.6705042473
  0
LINE
  5
22B
100
AcDbEntity
  8
0
100
AcDbLine
 62
7
  6
BYLAYER
 10
55.2830909363
 20
22.9217431614
 11
42.2830909363
 21
22.9217431614
  0
LINE
  5
22C
100
AcDbEntity
  8
0
100
AcDbLine
 62
7
  6
BYLAYER
 10
15.8776884807
 20
27.6705042477
 11
15.8776884807
 21
25.8705042472
  0
LINE
  5
22D
100
AcDbEntity
  8
0
100
AcDbLine
 62
7
  6
BYLAYER
 10
40.5190295777
 20
76.8119256041
 11
39.836186865
 21
76.1290828914
  0
LINE
  5
22E
100
AcDbEntity
  8
0
100
AcDbLine
 62
7
  6
BYLAYER
 10
40.660450934
 20
76.7222680569
 11
39.9776079022
 21
76.0394250251
  0
LINE
  5
22F
100
AcDbEntity
  8
0
100
AcDbLine
 62
7
  6
BYLAYER
 10
36.8776884807
 20
25.8705042476
 11
15.8776884807
 21
25.8705042476
  0
LINE
  5
230
100
AcDbEntity
  8
0
100
AcDbLine
 62
7
  6
BYLAYER
 10
55.2830909363
 20
25.9217431614
 11
42.2830909363
 21
25.9217431614
  0
LINE
  5
231
100
AcDbEntity
  8
0
100
AcDbLine
 62
7
  6
BYLAYER
 10
36.8776884807
 20
26.6703307671
 11
15.8776884807
 21
26.6703307671
  0
LINE
  5
232
100
AcDbEntity
  8
0
100
AcDbLine
 62
7
  6
BYLAYER
 10
42.0948457679
 20
27.6705042477
 11
8.3013696613
 21
27.6705042477
  0
LINE
  5
233
100
AcDbEntity
  8
0
100
AcDbLine
 62
7
  6
BYLAYER
 10
42.0948457686
 20
27.8705042477
 11
8.3013696602
 21
27.8705042477
  0
LWPOLYLINE
  5
234
100
AcDbEntity
  8
0
100
AcDbPolyline
 62
7
  6
BYLAYER
 90
3
 70
0
 10
36.5173279251
 20
76.018740185
 10
36.4460269821
 20
75.9119617734
 10
36.3241430061
 20
75.8705042477
  0
LINE
  5
235
100
AcDbEntity
  8
0
100
AcDbLine
 62
7
  6
BYLAYER
 10
8.3013693746
 20
27.8705042404
 11
8.1014400352
 21
27.8651990694
  0
LINE
  5
236
100
AcDbEntity
  8
0
100
AcDbLine
 62
7
  6
BYLAYER
 10
21.1776082212
 20
64.6705042477
 11
21.1776082212
 21
35.6705042477
  0
LINE
  5
237
100
AcDbEntity
  8
0
100
AcDbLine
 62
7
  6
BYLAYER
 10
8.0294263695
 20
30.5790879515
 11
8.0494193319
 21
30.5796184693
  0
LINE
  5
238
100
AcDbEntity
  8
0
100
AcDbLine
 62
7
  6
BYLAYER
 10
7.9905214509
 20
32.7992291893
 11
7.9705284886
 21
32.7986986714
  0
LINE
  5
239
100
AcDbEntity
  8
0
100
AcDbLine
 62
7
  6
BYLAYER
 10
43.484042921
 20
16.0241576559
 11
42.7830909364
 21
16.729916198
  0
LINE
  5
23A
100
AcDbEntity
  8
0
100
AcDbLine
 62
7
  6
BYLAYER
 10
21.1776082212
 20
35.6705042477
 11
38.8638997221
 21
35.6705042477
  0
LINE
  5
23B
100
AcDbEntity
  8
0
100
AcDbLine
 62
7
  6
BYLAYER
 10
54.0821389519
 20
14.9199571199
 11
54.1830909363
 21
14.8198255691
  0
LINE
  5
23C
100
AcDbEntity
  8
0
100
AcDbLine
 62
7
  6
BYLAYER
 10
36.7058376462
 20
76.7222680568
 11
36.517327989
 21
76.0187404387
  0
LINE
  5
23D
100
AcDbEntity
  8
0
100
AcDbLine
 62
7
  6
BYLAYER
 10
36.8990228109
 20
76.7222680569
 11
36.6707933866
 21
75.8705042477
  0
LINE
  5
23E
100
AcDbEntity
  8
0
100
AcDbLine
 62
7
  6
BYLAYER
 10
55.1776884807
 20
40.7533469602
 11
54.9776884808
 21
40.7533469602
  0
LINE
  5
23F
100
AcDbEntity
  8
0
100
AcDbLine
 62
7
  6
BYLAYER
 10
42.236267125
 20
27.729082892
 11
42.0948457688
 21
27.8705042482
  0
LINE
  5
240
100
AcDbEntity
  8
0
100
AcDbLine
 62
7
  6
BYLAYER
 10
42.7325690016
 20
27.9425420564
 11
42.5911476455
 21
28.0839634125
  0
LINE
  5
241
100
AcDbEntity
  8
0
100
AcDbLine
 62
7
  6
BYLAYER
 10
43.7937481652
 20
12.0340582751
 11
43.6330909363
 21
12.3751354527
  0
LINE
  5
242
100
AcDbEntity
  8
0
100
AcDbLine
 62
7
  6
BYLAYER
 10
56.9776082211
 20
43.6707431614
 11
55.1776884807
 21
43.6707431614
  0
LINE
  5
243
100
AcDbEntity
  8
0
100
AcDbLine
 62
7
  6
BYLAYER
 10
33.5776884807
 20
75.7705042477
 11
33.5776884807
 21
75.6705042477
  0
LINE
  5
244
100
AcDbEntity
  8
0
100
AcDbLine
 62
7
  6
BYLAYER
 10
33.6776884807
 20
76.3484307948
 11
33.6776884807
 21
75.6705042477
  0
LINE
  5
245
100
AcDbEntity
  8
0
100
AcDbLine
 62
7
  6
BYLAYER
 10
34.733719169
 20
76.3205042481
 11
34.733719169
 21
76.5205042477
  0
LINE
  5
246
100
AcDbEntity
  8
0
100
AcDbLine
 62
7
  6
BYLAYER
 10
34.8317655713
 20
76.3205042481
 11
34.8317655713
 21
76.5205042477
  0
LINE
  5
247
100
AcDbEntity
  8
0
100
AcDbLine
 62
7
  6
BYLAYER
 10
34.9425104628
 20
76.3205042485
 11
34.9425104625
 21
76.5205042477
  0
LINE
  5
248
100
AcDbEntity
  8
0
100
AcDbLine
 62
7
  6
BYLAYER
 10
35.0495638559
 20
76.5205042477
 11
35.0495638559
 21
76.3205042485
  0
LINE
  5
249
100
AcDbEntity
  8
0
100
AcDbLine
 62
7
  6
BYLAYER
 10
35.1123192959
 20
76.3205042481
 11
35.1123192959
 21
76.5205042477
  0
LINE
  5
24A
100
AcDbEntity
  8
0
100
AcDbLine
 62
7
  6
BYLAYER
 10
35.1612172014
 20
76.3205042485
 11
35.1612172016
 21
76.5205042477
  0
LINE
  5
24B
100
AcDbEntity
  8
0
100
AcDbLine
 62
7
  6
BYLAYER
 10
35.1769204817
 20
76.3205042485
 11
35.1769204814
 21
76.5205042477
  0
LINE
  5
24C
100
AcDbEntity
  8
0
100
AcDbLine
 62
7
  6
BYLAYER
 10
35.4500335342
 20
76.5205042477
 11
35.4500335342
 21
76.3205042485
  0
LINE
  5
24D
100
AcDbEntity
  8
0
100
AcDbLine
 62
7
  6
BYLAYER
 10
35.4796231849
 20
76.5205042477
 11
35.4796231849
 21
76.3205042485
  0
LINE
  5
24E
100
AcDbEntity
  8
0
100
AcDbLine
 62
7
  6
BYLAYER
 10
35.5423786227
 20
76.3205042481
 11
35.5423786227
 21
76.5205042477
  0
LINE
  5
24F
100
AcDbEntity
  8
0
100
AcDbLine
 62
7
  6
BYLAYER
 10
35.5682190974
 20
76.5205042477
 11
35.5682190974
 21
76.3205042485
  0
LINE
  5
250
100
AcDbEntity
  8
0
100
AcDbLine
 62
7
  6
BYLAYER
 10
35.7047179433
 20
76.3205042485
 11
35.7047179441
 21
76.5205042477
  0
LINE
  5
251
100
AcDbEntity
  8
0
100
AcDbLine
 62
7
  6
BYLAYER
 10
35.807243488
 20
76.3205042481
 11
35.807243488
 21
76.5205042477
  0
LINE
  5
252
100
AcDbEntity
  8
0
100
AcDbLine
 62
7
  6
BYLAYER
 10
35.8878507705
 20
76.3205042485
 11
35.8878507703
 21
76.5205042477
  0
LINE
  5
253
100
AcDbEntity
  8
0
100
AcDbLine
 62
7
  6
BYLAYER
 10
36.0454603618
 20
76.3205042485
 11
36.0454603616
 21
76.5205042477
  0
LINE
  5
254
100
AcDbEntity
  8
0
100
AcDbLine
 62
7
  6
BYLAYER
 10
36.2335536398
 20
76.3205042485
 11
36.2335536397
 21
76.5205042477
  0
LINE
  5
255
100
AcDbEntity
  8
0
100
AcDbLine
 62
7
  6
BYLAYER
 10
36.3179821982
 20
76.5205042477
 11
36.3179821982
 21
76.3205042485
  0
LINE
  5
256
100
AcDbEntity
  8
0
100
AcDbLine
 62
7
  6
BYLAYER
 10
36.3949989278
 20
76.5205042477
 11
36.3949989278
 21
76.3205042485
  0
LINE
  5
257
100
AcDbEntity
  8
0
100
AcDbLine
 62
7
  6
BYLAYER
 10
36.587072098
 20
76.5205042477
 11
36.587072098
 21
76.3205042485
  0
LINE
  5
258
100
AcDbEntity
  8
0
100
AcDbLine
 62
7
  6
BYLAYER
 10
36.6166040691
 20
76.3205042485
 11
36.6166040698
 21
76.5205042477
  0
LINE
  5
259
100
AcDbEntity
  8
0
100
AcDbLine
 62
7
  6
BYLAYER
 10
36.7105131543
 20
76.0187404387
 11
36.7105131543
 21
75.8705042477
  0
LINE
  5
25A
100
AcDbEntity
  8
0
100
AcDbLine
 62
7
  6
BYLAYER
 10
36.7208599999
 20
76.3205042485
 11
36.7208599994
 21
76.5205042477
  0
LINE
  5
25B
100
AcDbEntity
  8
0
100
AcDbLine
 62
7
  6
BYLAYER
 10
36.7504784913
 20
76.3205042481
 11
36.7504784913
 21
76.5205042477
  0
LINE
  5
25C
100
AcDbEntity
  8
0
100
AcDbLine
 62
7
  6
BYLAYER
 10
36.8776884807
 20
27.6705042477
 11
36.8776884807
 21
25.8705042472
  0
LINE
  5
25D
100
AcDbEntity
  8
0
100
AcDbLine
 62
7
  6
BYLAYER
 10
36.8990228114
 20
76.8705042477
 11
36.8990228114
 21
76.722268057
  0
LINE
  5
25E
100
AcDbEntity
  8
0
100
AcDbLine
 62
7
  6
BYLAYER
 10
36.9349956301
 20
76.3205042485
 11
36.9349956298
 21
76.5205042477
  0
LINE
  5
25F
100
AcDbEntity
  8
0
100
AcDbLine
 62
7
  6
BYLAYER
 10
37.0829294623
 20
76.3205042485
 11
37.0829294624
 21
76.5205042477
  0
LINE
  5
260
100
AcDbEntity
  8
0
100
AcDbLine
 62
7
  6
BYLAYER
 10
37.135259308
 20
76.3205042481
 11
37.135259308
 21
76.5205042477
  0
LINE
  5
261
100
AcDbEntity
  8
0
100
AcDbLine
 62
7
  6
BYLAYER
 10
37.1439833545
 20
76.3205042481
 11
37.1439833545
 21
76.5205042477
  0
LINE
  5
262
100
AcDbEntity
  8
0
100
AcDbLine
 62
7
  6
BYLAYER
 10
37.2109349837
 20
76.5205042477
 11
37.2109349837
 21
76.3205042485
  0
LINE
  5
263
100
AcDbEntity
  8
0
100
AcDbLine
 62
7
  6
BYLAYER
 10
37.2866106607
 20
76.3205042485
 11
37.2866106608
 21
76.5205042477
  0
LINE
  5
264
100
AcDbEntity
  8
0
100
AcDbLine
 62
7
  6
BYLAYER
 10
37.4343714551
 20
76.5205042477
 11
37.4343714553
 21
76.3205042485
  0
LINE
  5
265
100
AcDbEntity
  8
0
100
AcDbLine
 62
7
  6
BYLAYER
 10
37.5339409184
 20
76.3205042485
 11
37.5339409184
 21
76.5205042477
  0
LINE
  5
266
100
AcDbEntity
  8
0
100
AcDbLine
 62
7
  6
BYLAYER
 10
38.2947655088
 20
76.8705042477
 11
38.2947655077
 21
76.722268057
  0
LINE
  5
267
100
AcDbEntity
  8
0
100
AcDbLine
 62
7
  6
BYLAYER
 10
38.6776884807
 20
76.3484307948
 11
38.6776884807
 21
75.6705042477
  0
LINE
  5
268
100
AcDbEntity
  8
0
100
AcDbLine
 62
7
  6
BYLAYER
 10
38.7776884807
 20
75.7705042477
 11
38.7776884807
 21
75.6705042477
  0
LINE
  5
269
100
AcDbEntity
  8
0
100
AcDbLine
 62
7
  6
BYLAYER
 10
38.9999303645
 20
75.8705042477
 11
38.9999303645
 21
76.0187404402
  0
LINE
  5
26A
100
AcDbEntity
  8
0
100
AcDbLine
 62
7
  6
BYLAYER
 10
39.2604509746
 20
76.0705042477
 11
39.260451054
 21
75.8705042477
  0
LINE
  5
26B
100
AcDbEntity
  8
0
100
AcDbLine
 62
7
  6
BYLAYER
 10
39.6947654604
 20
76.0705042477
 11
39.6947655091
 21
75.8705042477
  0
LINE
  5
26C
100
AcDbEntity
  8
0
100
AcDbLine
 62
7
  6
BYLAYER
 10
39.9552861548
 20
76.0187404294
 11
39.9552861548
 21
75.8705042477
  0
LINE
  5
26D
100
AcDbEntity
  8
0
100
AcDbLine
 62
7
  6
BYLAYER
 10
40.6604509348
 20
76.8705042477
 11
40.6604509341
 21
76.7222680567
  0
LINE
  5
26E
100
AcDbEntity
  8
0
100
AcDbLine
 62
7
  6
BYLAYER
 10
42.0561859336
 20
76.8690130556
 11
42.0561859336
 21
76.7222680563
  0
LINE
  5
26F
100
AcDbEntity
  8
0
100
AcDbLine
 62
7
  6
BYLAYER
 10
42.0948457691
 20
27.870504247
 11
42.0948457682
 21
27.6705042477
  0
LINE
  5
270
100
AcDbEntity
  8
0
100
AcDbLine
 62
7
  6
BYLAYER
 10
42.2447032885
 20
76.0187404386
 11
42.2447032885
 21
75.8705042477
  0
LINE
  5
271
100
AcDbEntity
  8
0
100
AcDbLine
 62
7
  6
BYLAYER
 10
42.2830909363
 20
25.9217431614
 11
42.2830909363
 21
22.9217431614
  0
LINE
  5
272
100
AcDbEntity
  8
0
100
AcDbLine
 62
7
  6
BYLAYER
 10
42.7830909363
 20
22.4474643517
 11
42.7830909363
 21
16.7299161981
  0
LINE
  5
273
100
AcDbEntity
  8
0
100
AcDbLine
 62
7
  6
BYLAYER
 10
47.1776082213
 20
43.9842127468
 11
38.8638997223
 21
35.6705042477
  0
LINE
  5
274
100
AcDbEntity
  8
0
100
AcDbLine
 62
7
  6
BYLAYER
 10
43.3830909363
 20
14.819825569
 11
43.3830909363
 21
14.2762560711
  0
LINE
  5
275
100
AcDbEntity
  8
0
100
AcDbLine
 62
7
  6
BYLAYER
 10
43.484042921
 20
16.0241576559
 11
43.484042921
 21
14.9199571201
  0
LINE
  5
276
100
AcDbEntity
  8
0
100
AcDbLine
 62
7
  6
BYLAYER
 10
43.6330909363
 20
14.1204071649
 11
43.6330909363
 21
12.3751354531
  0
LINE
  5
277
100
AcDbEntity
  8
0
100
AcDbLine
 62
7
  6
BYLAYER
 10
54.0462775004
 20
39.2562505556
 11
53.9048561445
 21
39.3976719115
  0
LINE
  5
278
100
AcDbEntity
  8
0
100
AcDbLine
 62
7
  6
BYLAYER
 10
55.1191098369
 20
40.6119256038
 11
54.9776884807
 21
40.7533469602
  0
LINE
  5
279
100
AcDbEntity
  8
0
100
AcDbLine
 62
7
  6
BYLAYER
 10
47.1776082211
 20
43.9842127467
 11
47.1776082211
 21
67.7705042492
  0
LINE
  5
27A
100
AcDbEntity
  8
0
100
AcDbLine
 62
7
  6
BYLAYER
 10
42.7325690018
 20
27.9425420565
 11
42.2830909363
 21
25.9217431614
  0
LINE
  5
27B
100
AcDbEntity
  8
0
100
AcDbLine
 62
7
  6
BYLAYER
 10
48.8276082215
 20
71.8705042477
 11
48.8276082215
 21
69.8705042477
  0
LINE
  5
27C
100
AcDbEntity
  8
0
100
AcDbLine
 62
7
  6
BYLAYER
 10
49.0276082213
 20
71.8705042486
 11
49.0276082213
 21
69.8705042486
  0
LINE
  5
27D
100
AcDbEntity
  8
0
100
AcDbLine
 62
7
  6
BYLAYER
 10
54.9776884807
 20
40.7533469602
 11
42.0948457678
 21
27.8705042474
  0
LINE
  5
27E
100
AcDbEntity
  8
0
100
AcDbLine
 62
7
  6
BYLAYER
 10
55.119109837
 20
40.6119256039
 11
42.2362671241
 21
27.7290828911
  0
LINE
  5
27F
100
AcDbEntity
  8
0
100
AcDbLine
 62
7
  6
BYLAYER
 10
54.0462775004
 20
39.2562505556
 11
42.7325690014
 21
27.9425420566
  0
LINE
  5
280
100
AcDbEntity
  8
0
100
AcDbLine
 62
7
  6
BYLAYER
 10
42.0561936312
 20
76.7222680559
 11
42.2844230559
 21
75.8705042472
  0
LINE
  5
281
100
AcDbEntity
  8
0
100
AcDbLine
 62
7
  6
BYLAYER
 10
42.2493787964
 20
76.722268057
 11
42.4378884535
 21
76.0187404387
  0
LINE
  5
282
100
AcDbEntity
  8
0
100
AcDbLine
 62
7
  6
BYLAYER
 10
55.2830911331
 20
25.9217410393
 11
54.0462751987
 21
39.2562753742
  0
LINE
  5
283
100
AcDbEntity
  8
0
100
AcDbLine
 62
7
  6
BYLAYER
 10
53.3276082213
 20
71.8705042477
 11
53.3276082213
 21
69.8705042486
  0
LINE
  5
284
100
AcDbEntity
  8
0
100
AcDbLine
 62
7
  6
BYLAYER
 10
53.5276082213
 20
71.8705042486
 11
53.5276082213
 21
69.8705042477
  0
LINE
  5
285
100
AcDbEntity
  8
0
100
AcDbLine
 62
7
  6
BYLAYER
 10
53.9330909363
 20
14.1204071649
 11
53.9330909363
 21
12.3751354529
  0
LINE
  5
286
100
AcDbEntity
  8
0
100
AcDbLine
 62
7
  6
BYLAYER
 10
54.0821389517
 20
16.0241576559
 11
54.0821389517
 21
14.9199571201
  0
LINE
  5
287
100
AcDbEntity
  8
0
100
AcDbLine
 62
7
  6
BYLAYER
 10
54.1830909363
 20
14.819825569
 11
54.1830909363
 21
14.2762560709
  0
LINE
  5
288
100
AcDbEntity
  8
0
100
AcDbLine
 62
7
  6
BYLAYER
 10
54.7830909363
 20
22.4474643517
 11
54.7830909363
 21
16.7299161981
  0
LINE
  5
289
100
AcDbEntity
  8
0
100
AcDbLine
 62
7
  6
BYLAYER
 10
54.9776884807
 20
75.8705042477
 11
54.9776884814
 21
40.7533469607
  0
LINE
  5
28A
100
AcDbEntity
  8
0
100
AcDbLine
 62
7
  6
BYLAYER
 10
55.1776884807
 20
75.6705042477
 11
55.1776884807
 21
40.7533469607
  0
LINE
  5
28B
100
AcDbEntity
  8
0
100
AcDbLine
 62
7
  6
BYLAYER
 10
55.2830909363
 20
25.9217431614
 11
55.2830909363
 21
22.9217431614
  0
LINE
  5
28C
100
AcDbEntity
  8
0
100
AcDbLine
 62
7
  6
BYLAYER
 10
56.1776082211
 20
43.6707431614
 11
56.1776082211
 21
72.8707431614
  0
LINE
  5
28D
100
AcDbEntity
  8
0
100
AcDbLine
 62
7
  6
BYLAYER
 10
47.1776082211
 20
67.7705042492
 11
24.2776082226
 21
67.7705042492
  0
LINE
  5
28E
100
AcDbEntity
  8
0
100
AcDbLine
 62
7
  6
BYLAYER
 10
56.9776082219
 20
43.6707431614
 11
56.9776082219
 21
72.8707431614
  0
LINE
  5
28F
100
AcDbEntity
  8
0
100
AcDbLine
 62
7
  6
BYLAYER
 10
7.0048406615
 20
69.945347392
 11
6.9848476992
 21
69.9448168741
  0
LINE
  5
290
100
AcDbEntity
  8
0
100
AcDbLine
 62
7
  6
BYLAYER
 10
7.1737832269
 20
70.3644428467
 11
6.9738536016
 21
70.3591376681
  0
LINE
  5
291
100
AcDbEntity
  8
0
100
AcDbLine
 62
7
  6
BYLAYER
 10
53.527608221
 20
69.8705042477
 11
53.3276082213
 21
69.8705042477
  0
LINE
  5
292
100
AcDbEntity
  8
0
100
AcDbLine
 62
7
  6
BYLAYER
 10
49.0276082213
 20
69.8705042477
 11
48.8276082217
 21
69.8705042477
  0
LINE
  5
293
100
AcDbEntity
  8
0
100
AcDbLine
 62
7
  6
BYLAYER
 10
53.5276082217
 20
71.8705042477
 11
53.3276082213
 21
71.8705042477
  0
LINE
  5
294
100
AcDbEntity
  8
0
100
AcDbLine
 62
7
  6
BYLAYER
 10
49.0276082213
 20
71.8705042486
 11
48.827608221
 21
71.8705042485
  0
LINE
  5
295
100
AcDbEntity
  8
0
100
AcDbLine
 62
7
  6
BYLAYER
 10
38.29476554
 20
76.7222680862
 11
38.9776082626
 21
76.0394253637
  0
LINE
  5
296
100
AcDbEntity
  8
0
100
AcDbLine
 62
7
  6
BYLAYER
 10
38.4361868648
 20
76.8119256041
 11
39.1190295775
 21
76.1290828914
  0
LINE
  5
297
100
AcDbEntity
  8
0
100
AcDbLine
 62
7
  6
BYLAYER
 10
43.4840429208
 20
14.9199571199
 11
43.3830909364
 21
14.8198255691
  0
LWPOLYLINE
  5
298
100
AcDbEntity
  8
0
100
AcDbPolyline
 62
7
  6
BYLAYER
 90
3
 70
0
 10
36.3840437173
 20
75.8794213682
 10
36.3539828132
 20
75.8725761175
 10
36.3254593269
 20
75.870504241
  0
LINE
  5
299
100
AcDbEntity
  8
0
100
AcDbLine
 62
7
  6
BYLAYER
 10
6.9259498288
 20
72.1644271948
 11
6.9459427911
 21
72.1649577127
  0
LINE
  5
29A
100
AcDbEntity
  8
0
100
AcDbLine
 62
7
  6
BYLAYER
 10
56.9776082211
 20
72.8707431614
 11
55.1776884807
 21
72.8707431614
  0
LINE
  5
29B
100
AcDbEntity
  8
0
100
AcDbLine
 62
7
  6
BYLAYER
 10
34.1776884807
 20
76.5205042477
 11
33.7603236629
 21
76.4469115695
  0
LINE
  5
29C
100
AcDbEntity
  8
0
100
AcDbLine
 62
7
  6
BYLAYER
 10
36.3799073018
 20
75.8781795684
 11
36.3253409824
 21
75.8705025339
  0
LINE
  5
29D
100
AcDbEntity
  8
0
100
AcDbLine
 62
7
  6
BYLAYER
 10
55.1776884807
 20
75.6705042477
 11
42.5630896871
 21
75.6705042477
  0
LINE
  5
29E
100
AcDbEntity
  8
0
100
AcDbLine
 62
7
  6
BYLAYER
 10
38.7776884807
 20
75.6705042477
 11
12.3276981952
 21
75.6705042477
  0
LINE
  5
29F
100
AcDbEntity
  8
0
100
AcDbLine
 62
7
  6
BYLAYER
 10
38.7776884807
 20
75.7705042477
 11
33.5776884807
 21
75.7705042477
  0
LINE
  5
2A0
100
AcDbEntity
  8
0
100
AcDbLine
 62
7
  6
BYLAYER
 10
9.4658870466
 20
75.8013663205
 11
12.1929110179
 21
75.8013663205
  0
LINE
  5
2A1
100
AcDbEntity
  8
0
100
AcDbLine
 62
7
  6
BYLAYER
 10
9.6171322702
 20
75.8705042477
 11
54.9776884807
 21
75.8705042477
  0
LINE
  5
2A2
100
AcDbEntity
  8
0
100
AcDbLine
 62
7
  6
BYLAYER
 10
39.2604509746
 20
75.9222680451
 11
39.6947655088
 21
75.9222680451
  0
LINE
  5
2A3
100
AcDbEntity
  8
0
100
AcDbLine
 62
7
  6
BYLAYER
 10
39.6947655091
 20
75.9705042477
 11
39.2604510705
 21
75.9705042477
  0
LINE
  5
2A4
100
AcDbEntity
  8
0
100
AcDbLine
 62
7
  6
BYLAYER
 10
42.2447032885
 20
76.0187404387
 11
39.955286074
 21
76.0187404387
  0
LINE
  5
2A5
100
AcDbEntity
  8
0
100
AcDbLine
 62
7
  6
BYLAYER
 10
38.9999304015
 20
76.0187404387
 11
36.7105131536
 21
76.0187404387
  0
LINE
  5
2A6
100
AcDbEntity
  8
0
100
AcDbLine
 62
7
  6
BYLAYER
 10
39.6947654604
 20
76.0705042477
 11
39.2604510716
 21
76.0705042477
  0
LINE
  5
2A7
100
AcDbEntity
  8
0
100
AcDbLine
 62
7
  6
BYLAYER
 10
37.5339409184
 20
76.3205042477
 11
34.733719169
 21
76.3205042481
  0
LINE
  5
2A8
100
AcDbEntity
  8
0
100
AcDbLine
 62
7
  6
BYLAYER
 10
38.6776884807
 20
76.3484307942
 11
33.6776884807
 21
76.3484307942
  0
LINE
  5
2A9
100
AcDbEntity
  8
0
100
AcDbLine
 62
7
  6
BYLAYER
 10
38.5950532985
 20
76.4469115695
 11
33.7603236629
 21
76.4469115695
  0
LINE
  5
2AA
100
AcDbEntity
  8
0
100
AcDbLine
 62
7
  6
BYLAYER
 10
38.1776884807
 20
76.5205042477
 11
34.1776884807
 21
76.5205042477
  0
LINE
  5
2AB
100
AcDbEntity
  8
0
100
AcDbLine
 62
7
  6
BYLAYER
 10
42.0561936311
 20
76.7222680563
 11
40.6604509341
 21
76.7222680563
  0
LINE
  5
2AC
100
AcDbEntity
  8
0
100
AcDbLine
 62
7
  6
BYLAYER
 10
38.2947655084
 20
76.7222680563
 11
36.8990228114
 21
76.7222680563
  0
LINE
  5
2AD
100
AcDbEntity
  8
0
100
AcDbLine
 62
7
  6
BYLAYER
 10
42.0561936311
 20
76.8705042477
 11
40.6604509341
 21
76.8705042477
  0
LINE
  5
2AE
100
AcDbEntity
  8
0
100
AcDbLine
 62
7
  6
BYLAYER
 10
38.2947655085
 20
76.8705042477
 11
36.8990228109
 21
76.8705042477
  0
LINE
  5
2AF
100
AcDbEntity
  8
0
100
AcDbLine
 62
7
  6
BYLAYER
 10
42.6297520923
 20
75.8705042475
 11
42.5845304216
 21
75.8757537709
  0
LINE
  5
2B0
100
AcDbEntity
  8
0
100
AcDbLine
 62
7
  6
BYLAYER
 10
38.1776884807
 20
76.5205042477
 11
38.5950532985
 21
76.4469115695
  0
LINE
  5
2B1
100
AcDbEntity
  8
0
100
AcDbLine
 62
7
  6
BYLAYER
 10
39.2604510946
 20
76.0705042342
 11
39.1190294447
 21
76.1290830243
  0
LINE
  5
2B2
100
AcDbEntity
  8
0
100
AcDbLine
 62
7
  6
BYLAYER
 10
53.7724337075
 20
12.0340582751
 11
53.9330909363
 21
12.3751354527
  0
LINE
  5
2B3
100
AcDbEntity
  8
0
100
AcDbLine
 62
7
  6
BYLAYER
 10
54.0821389517
 20
16.0241576559
 11
54.7830909363
 21
16.729916198
  0
LWPOLYLINE
  5
2B4
100
AcDbEntity
  8
0
100
AcDbPolyline
 62
7
  6
BYLAYER
 90
3
 70
0
 10
42.6310735837
 20
75.8705042477
 10
42.5093416387
 20
75.9118448974
 10
42.4378884959
 20
76.0187402536
  0
LINE
  5
2B5
100
AcDbEntity
  8
0
100
AcDbLine
 62
7
  6
BYLAYER
 10
42.5845302545
 20
75.8757538102
 11
42.5411454858
 21
75.8915035983
  0
ARC
  5
2B6
100
AcDbEntity
  8
0
100
AcDbCircle
 62
7
  6
BYLAYER
 10
8.3013696604
 20
27.8705042477
 40
0.2
100
AcDbArc
 50
181.5199999141
 51
270.0
  0
ARC
  5
2B7
100
AcDbEntity
  8
0
100
AcDbCircle
 62
7
  6
BYLAYER
 10
9.617132271
 20
75.6705042477
 40
0.2
100
AcDbArc
 50
90.0000002276
 51
139.1326212353
  0
CIRCLE
  5
2B8
100
AcDbEntity
  8
0
100
AcDbCircle
 62
7
  6
BYLAYER
 10
51.1776082213
 20
41.8705042477
 40
2.3500000001
  0
CIRCLE
  5
2B9
100
AcDbEntity
  8
0
100
AcDbCircle
 62
7
  6
BYLAYER
 10
51.1776082213
 20
41.8705042477
 40
2.15
  0
ARC
  5
2BA
100
AcDbEntity
  8
0
100
AcDbCircle
 62
7
  6
BYLAYER
 10
42.3088121267
 20
22.4474643517
 40
0.4742788097
100
AcDbArc
 50
0.0
 51
90.0
  0
ARC
  5
2BB
100
AcDbEntity
  8
0
100
AcDbCircle
 62
7
  6
BYLAYER
 10
55.257369746
 20
22.4474643517
 40
0.4742788097
100
AcDbArc
 50
90.0
 51
180.0
  0
ARC
  5
2BC
100
AcDbEntity
  8
0
100
AcDbCircle
 62
7
  6
BYLAYER
 10
54.9776884807
 20
40.7533469602
 40
0.2
100
AcDbArc
 50
314.9999999919
 51
359.9999998165
  0
ARC
  5
2BD
100
AcDbEntity
  8
0
100
AcDbCircle
 62
7
  6
BYLAYER
 10
42.0948457682
 20
27.8705042477
 40
0.2
100
AcDbArc
 50
270.0
 51
314.9999998582
  0
ARC
  5
2BE
100
AcDbEntity
  8
0
100
AcDbCircle
 62
7
  6
BYLAYER
 10
43.9702775064
 20
12.1172087074
 40
0.1951322697
100
AcDbArc
 50
205.2217936783
 51
270.0
  0
ARC
  5
2BF
100
AcDbEntity
  8
0
100
AcDbCircle
 62
7
  6
BYLAYER
 10
53.5959043663
 20
12.1172087074
 40
0.1951322697
100
AcDbArc
 50
270.0
 51
334.7782063217
  0
ARC
  5
2C0
100
AcDbEntity
  8
0
100
AcDbCircle
 62
7
  6
BYLAYER
 10
43.5389398422
 20
14.2762560707
 40
0.1558489058
100
AcDbArc
 50
180.0
 51
270.0
  0
ARC
  5
2C1
100
AcDbEntity
  8
0
100
AcDbCircle
 62
7
  6
BYLAYER
 10
54.0272420305
 20
14.2762560707
 40
0.1558489058
100
AcDbArc
 50
270.0
 51
360.0
  0
ARC
  5
2C2
100
AcDbEntity
  8
0
100
AcDbCircle
 62
7
  6
BYLAYER
 10
36.3251883277
 20
76.0700106438
 40
0.1995207113
100
AcDbArc
 50
270.0795216989
 51
345.0
  0
ARC
  5
2C3
100
AcDbEntity
  8
0
100
AcDbCircle
 62
7
  6
BYLAYER
 10
33.4776884807
 20
75.7705042477
 40
0.1
100
AcDbArc
 50
0.0
 51
90.0
  0
ARC
  5
2C4
100
AcDbEntity
  8
0
100
AcDbCircle
 62
7
  6
BYLAYER
 10
36.8990228114
 20
76.6705042477
 40
0.2
100
AcDbArc
 50
90.0000001486
 51
165.0000000066
  0
ARC
  5
2C5
100
AcDbEntity
  8
0
100
AcDbCircle
 62
7
  6
BYLAYER
 10
33.7776884807
 20
76.3484307942
 40
0.1
100
AcDbArc
 50
100.0000000019
 51
180.0
  0
ARC
  5
2C6
100
AcDbEntity
  8
0
100
AcDbCircle
 62
7
  6
BYLAYER
 10
42.6310736187
 20
76.0705042477
 40
0.2
100
AcDbArc
 50
195.0
 51
270.0000002292
  0
ARC
  5
2C7
100
AcDbEntity
  8
0
100
AcDbCircle
 62
7
  6
BYLAYER
 10
38.8776884807
 20
75.7705042477
 40
0.1
100
AcDbArc
 50
90.0
 51
180.0
  0
ARC
  5
2C8
100
AcDbEntity
  8
0
100
AcDbCircle
 62
7
  6
BYLAYER
 10
39.2602809976
 20
76.3221230011
 40
0.3997779752
100
AcDbArc
 50
225.0025179123
 51
269.9961479711
  0
ARC
  5
2C9
100
AcDbEntity
  8
0
100
AcDbCircle
 62
7
  6
BYLAYER
 10
39.6949368219
 20
76.3221202466
 40
0.3997750232
100
AcDbArc
 50
270.025772536
 51
314.9975523306
  0
ARC
  5
2CA
100
AcDbEntity
  8
0
100
AcDbCircle
 62
7
  6
BYLAYER
 10
39.2604509337
 20
76.2705042477
 40
0.2
100
AcDbArc
 50
224.9999999939
 51
270.0
  0
ARC
  5
2CB
100
AcDbEntity
  8
0
100
AcDbCircle
 62
7
  6
BYLAYER
 10
39.6947655088
 20
76.2705042477
 40
0.2
100
AcDbArc
 50
269.9999997937
 51
315.0
  0
ARC
  5
2CC
100
AcDbEntity
  8
0
100
AcDbCircle
 62
7
  6
BYLAYER
 10
40.6604509337
 20
76.6705042477
 40
0.2
100
AcDbArc
 50
89.9999999434
 51
134.9999997569
  0
ARC
  5
2CD
100
AcDbEntity
  8
0
100
AcDbCircle
 62
7
  6
BYLAYER
 10
38.2947655088
 20
76.6705042477
 40
0.2
100
AcDbArc
 50
45.0000002548
 51
90.0
  0
ARC
  5
2CE
100
AcDbEntity
  8
0
100
AcDbCircle
 62
7
  6
BYLAYER
 10
42.0561936311
 20
76.6705042477
 40
0.2
100
AcDbArc
 50
15.0000001705
 51
90.0
  0
ARC
  5
2CF
100
AcDbEntity
  8
0
100
AcDbCircle
 62
7
  6
BYLAYER
 10
38.5776884807
 20
76.3484307942
 40
0.1
100
AcDbArc
 50
0.0
 51
79.9999999981
  0
ARC
  5
2D0
100
AcDbEntity
  8
0
100
AcDbCircle
 62
7
  6
BYLAYER
 10
51.1776082213
 20
71.8705042477
 40
2.3499999996
100
AcDbArc
 50
0.0
 51
179.999999994
  0
ARC
  5
2D1
100
AcDbEntity
  8
0
100
AcDbCircle
 62
7
  6
BYLAYER
 10
51.1776082213
 20
69.8705042477
 40
2.3499999996
100
AcDbArc
 50
180.000000006
 51
360.0
  0
ARC
  5
2D2
100
AcDbEntity
  8
0
100
AcDbCircle
 62
7
  6
BYLAYER
 10
51.1776082213
 20
69.8705042477
 40
2.15
100
AcDbArc
 50
180.0
 51
360.0
  0
ARC
  5
2D3
100
AcDbEntity
  8
0
100
AcDbCircle
 62
7
  6
BYLAYER
 10
51.1776082213
 20
71.8705042477
 40
2.15
100
AcDbArc
 50
0.0
 51
179.9999999768
  0
ARC
  5
2D4
100
AcDbEntity
  8
0
100
AcDbCircle
 62
7
  6
BYLAYER
 10
54.9776884807
 20
75.6705042477
 40
0.2
100
AcDbArc
 50
0.0000001253
 51
90.0
  0
SPLINE
  5
2D5
100
AcDbEntity
  8
0
100
AcDbSpline
 62
7
  6
BYLAYER
 70
0
 71
3
 72
15
 73
11
 74
0
 42
0.0000001
 43
0.0000001
 44
0.0000000001
 40
0.0
 40
0.0
 40
0.0
 40
0.0
 40
0.0842010214
 40
0.210234173
 40
0.3498648541
 40
0.4803614212
 40
0.6058002883
 40
0.7255066513
 40
0.8528488009
 40
1.0
 40
1.0
 40
1.0
 40
1.0
 10
36.3254652097
 20
75.8705042477
 30
0.0
 10
36.3333601016
 20
75.8705042477
 30
0.0
 10
36.3509911492
 20
75.8586524204
 30
0.0
 10
36.3784403151
 20
75.8422343197
 30
0.0
 10
36.4080384108
 20
75.8192031531
 30
0.0
 10
36.4345197354
 20
75.7930645848
 30
0.0
 10
36.4511399416
 20
75.7607149162
 30
0.0
 10
36.4483454828
 20
75.7234747653
 30
0.0
 10
36.4232875502
 20
75.6945886508
 30
0.0
 10
36.4036242233
 20
75.6781313446
 30
0.0
 10
36.3921267631
 20
75.6705042477
 30
0.0
  0
SPLINE
  5
2D6
100
AcDbEntity
  8
0
100
AcDbSpline
 62
7
  6
BYLAYER
 70
0
 71
3
 72
11
 73
7
 74
0
 42
0.0000001
 43
0.0000001
 44
0.0000000001
 40
0.0
 40
0.0
 40
0.0
 40
0.0
 40
0.2750177256
 40
0.5334182247
 40
0.779331321
 40
1.0
 40
1.0
 40
1.0
 40
1.0
 10
36.544944075
 20
75.7716007471
 30
0.0
 10
36.5538019551
 20
75.7838234925
 30
0.0
 10
36.5715227107
 20
75.8071864909
 30
0.0
 10
36.6014774325
 20
75.8379079568
 30
0.0
 10
36.6332204206
 20
75.862177921
 30
0.0
 10
36.6586815031
 20
75.870504247
 30
0.0
 10
36.6707933875
 20
75.870504247
 30
0.0
  0
SPLINE
  5
2D7
100
AcDbEntity
  8
0
100
AcDbSpline
 62
7
  6
BYLAYER
 70
0
 71
3
 72
10
 73
6
 74
0
 42
0.0000001
 43
0.0000001
 44
0.0000000001
 40
0.0
 40
0.0
 40
0.0
 40
0.0
 40
0.3336720012
 40
0.6652550962
 40
1.0
 40
1.0
 40
1.0
 40
1.0
 10
36.544944075
 20
75.7716007471
 30
0.0
 10
36.5327866943
 20
75.7548613429
 30
0.0
 10
36.5037431341
 20
75.7247426991
 30
0.0
 10
36.4504556613
 20
75.6920436189
 30
0.0
 10
36.4116441815
 20
75.677563773
 30
0.0
 10
36.3921267645
 20
75.6705042477
 30
0.0
  0
SPLINE
  5
2D8
100
AcDbEntity
  8
0
100
AcDbSpline
 62
7
  6
BYLAYER
 70
0
 71
3
 72
9
 73
5
 74
0
 42
0.0000001
 43
0.0000001
 44
0.0000000001
 40
0.0
 40
0.0
 40
0.0
 40
0.0
 40
0.2406402337
 40
1.0
 40
1.0
 40
1.0
 40
1.0
 10
36.5169977965
 20
76.015040483
 30
0.0
 10
36.5169660378
 20
76.0153377467
 30
0.0
 10
36.5168974357
 20
76.0165798157
 30
0.0
 10
36.5170838234
 20
76.0178292005
 30
0.0
 10
36.5173279877
 20
76.0187404337
 30
0.0
  0
SPLINE
  5
2D9
100
AcDbEntity
  8
0
100
AcDbSpline
 62
7
  6
BYLAYER
 70
0
 71
3
 72
43
 73
39
 74
0
 42
0.0000001
 43
0.0000001
 44
0.0000000001
 40
0.0
 40
0.0
 40
0.0
 40
0.0
 40
0.0045085775
 40
0.0222106816
 40
0.0398194563
 40
0.0573297927
 40
0.0663809419
 40
0.0759263295
 40
0.0844042625
 40
0.0920371955
 40
0.1013904408
 40
0.11196873
 40
0.1217621905
 40
0.1300572576
 40
0.1385095963
 40
0.1482077991
 40
0.1584325124
 40
0.1675076826
 40
0.1838150221
 40
0.20176741
 40
0.2218474022
 40
0.2406361845
 40
0.2762934581
 40
0.3113540908
 40
0.3458235802
 40
0.3797074024
 40
0.4423210407
 40
0.5028442429
 40
0.6174946416
 40
0.7147135328
 40
0.8030272292
 40
0.8732556261
 40
0.9044701453
 40
0.9326500362
 40
0.9525975698
 40
0.9707698896
 40
0.9873748692
 40
1.0
 40
1.0
 40
1.0
 40
1.0
 10
36.5449387694
 20
75.7715990655
 30
0.0
 10
36.544972946
 20
75.7719672121
 30
0.0
 10
36.5451387559
 20
75.7737810552
 30
0.0
 10
36.5454134295
 20
75.7770349872
 30
0.0
 10
36.5457301485
 20
75.7813551148
 30
0.0
 10
36.5459573343
 20
75.7849702798
 30
0.0
 10
36.5461165012
 20
75.7879269942
 30
0.0
 10
36.5462200893
 20
75.7901448508
 30
0.0
 10
36.5463144861
 20
75.7922466912
 30
0.0
 10
36.5464004281
 20
75.7943331446
 30
0.0
 10
36.5464721901
 20
75.796592478
 30
0.0
 10
36.5465375924
 20
75.7990292278
 30
0.0
 10
36.5465916594
 20
75.8013794508
 30
0.0
 10
36.5466347746
 20
75.8035555521
 30
0.0
 10
36.5466549887
 20
75.8057241756
 30
0.0
 10
36.5466696736
 20
75.8080510615
 30
0.0
 10
36.546678306
 20
75.8104290627
 30
0.0
 10
36.5466733681
 20
75.8133490867
 30
0.0
 10
36.5466236592
 20
75.8169025552
 30
0.0
 10
36.5465268228
 20
75.8213576661
 30
0.0
 10
36.5464092993
 20
75.8260159148
 30
0.0
 10
36.5461811867
 20
75.8321233596
 30
0.0
 10
36.545798534
 20
75.8394538432
 30
0.0
 10
36.5452156498
 20
75.8480604119
 30
0.0
 10
36.5445154599
 20
75.8565123118
 30
0.0
 10
36.5434821822
 20
75.8672028119
 30
0.0
 10
36.5420100311
 20
75.8799961963
 30
0.0
 10
36.5393828416
 20
75.8993193776
 30
0.0
 10
36.535801531
 20
75.9213720906
 30
0.0
 10
36.5312667261
 20
75.9455689387
 30
0.0
 10
36.5270591576
 20
75.966117092
 30
0.0
 10
36.5238001985
 20
75.9813332121
 30
0.0
 10
36.5215511643
 20
75.9917223569
 30
0.0
 10
36.5201759274
 20
75.9980819307
 30
0.0
 10
36.5190623166
 20
76.0034035427
 30
0.0
 10
36.518164154
 20
76.0078008688
 30
0.0
 10
36.517470849
 20
76.0116255592
 30
0.0
 10
36.5171033483
 20
76.0139959196
 30
0.0
 10
36.5169934415
 20
76.0150254035
 30
0.0
  0
SPLINE
  5
2DA
100
AcDbEntity
  8
0
100
AcDbSpline
 62
7
  6
BYLAYER
 70
0
 71
3
 72
11
 73
7
 74
0
 42
0.0000001
 43
0.0000001
 44
0.0000000001
 40
0.0
 40
0.0
 40
0.0
 40
0.0
 40
0.4138124916
 40
0.7263113437
 40
0.9149608461
 40
1.0
 40
1.0
 40
1.0
 40
1.0
 10
36.7105131538
 20
76.0187404386
 30
0.0
 10
36.6832795677
 20
76.0128577258
 30
0.0
 10
36.6352443902
 20
76.003386177
 30
0.0
 10
36.5732202835
 20
76.0008111306
 30
0.0
 10
36.5346462976
 20
75.996982215
 30
0.0
 10
36.5158460879
 20
76.0132099082
 30
0.0
 10
36.517327989
 20
76.0187404386
 30
0.0
  0
SPLINE
  5
2DB
100
AcDbEntity
  8
0
100
AcDbSpline
 62
7
  6
BYLAYER
 70
0
 71
3
 72
10
 73
6
 74
0
 42
0.0000001
 43
0.0000001
 44
0.0000000001
 40
0.0
 40
0.0
 40
0.0
 40
0.0
 40
0.3176134958
 40
0.6524992763
 40
1.0
 40
1.0
 40
1.0
 40
1.0
 10
39.2604510676
 20
75.9705044381
 30
0.0
 10
39.2323029324
 20
75.9705873634
 30
0.0
 10
39.174420282
 20
75.9748764767
 30
0.0
 10
39.0874384633
 20
75.9926976745
 30
0.0
 10
39.0293879467
 20
76.0097566951
 30
0.0
 10
38.9999304012
 20
76.0187404382
 30
0.0
  0
SPLINE
  5
2DC
100
AcDbEntity
  8
0
100
AcDbSpline
 62
7
  6
BYLAYER
 70
0
 71
3
 72
10
 73
6
 74
0
 42
0.0000001
 43
0.0000001
 44
0.0000000001
 40
0.0
 40
0.0
 40
0.0
 40
0.0
 40
0.4934517165
 40
0.8454148784
 40
1.0
 40
1.0
 40
1.0
 40
1.0
 10
40.6604509342
 20
76.7222680567
 30
0.0
 10
40.6398952851
 20
76.7414467384
 30
0.0
 10
40.601233746
 20
76.7741828036
 30
0.0
 10
40.5602414973
 20
76.8030349682
 30
0.0
 10
40.5252571612
 20
76.8181531875
 30
0.0
 10
40.5190295777
 20
76.8119256041
 30
0.0
  0
SPLINE
  5
2DD
100
AcDbEntity
  8
0
100
AcDbSpline
 62
7
  6
BYLAYER
 70
0
 71
3
 72
10
 73
6
 74
0
 42
0.0000001
 43
0.0000001
 44
0.0000000001
 40
0.0
 40
0.0
 40
0.0
 40
0.0
 40
0.3475801356
 40
0.6824737266
 40
1.0
 40
1.0
 40
1.0
 40
1.0
 10
39.9552860771
 20
76.0187404246
 30
0.0
 10
39.9258220524
 20
76.0097538728
 30
0.0
 10
39.8677635081
 20
75.9926945683
 30
0.0
 10
39.7807813742
 20
75.9748760739
 30
0.0
 10
39.7229058789
 20
75.9705863595
 30
0.0
 10
39.6947654904
 20
75.9705042891
 30
0.0
  0
SPLINE
  5
2DE
100
AcDbEntity
  8
0
100
AcDbSpline
 62
7
  6
BYLAYER
 70
0
 71
3
 72
11
 73
7
 74
0
 42
0.0000001
 43
0.0000001
 44
0.0000000001
 40
0.0
 40
0.0
 40
0.0
 40
0.0
 40
0.0930550275
 40
0.3002129915
 40
0.6113890465
 40
1.0
 40
1.0
 40
1.0
 40
1.0
 10
42.4378884535
 20
76.0187404387
 30
0.0
 10
42.4395060063
 20
76.0127036499
 30
0.0
 10
42.4166579556
 20
75.996631467
 30
0.0
 10
42.3781524249
 20
76.0006960506
 30
0.0
 10
42.31607489
 20
76.0038076811
 30
0.0
 10
42.2701408704
 20
76.0128983777
 30
0.0
 10
42.2447032883
 20
76.0187404386
 30
0.0
  0
SPLINE
  5
2DF
100
AcDbEntity
  8
0
100
AcDbSpline
 62
7
  6
BYLAYER
 70
0
 71
3
 72
9
 73
5
 74
0
 42
0.0000001
 43
0.0000001
 44
0.0000000001
 40
0.0
 40
0.0
 40
0.0
 40
0.0
 40
0.2624159957
 40
1.0
 40
1.0
 40
1.0
 40
1.0
 10
42.437888455
 20
76.0187404333
 30
0.0
 10
42.4379728147
 20
76.0184255986
 30
0.0
 10
42.4382480158
 20
76.0172145971
 30
0.0
 10
42.4383159675
 20
76.0159514121
 30
0.0
 10
42.4382186461
 20
76.0150404601
 30
0.0
  0
SPLINE
  5
2E0
100
AcDbEntity
  8
0
100
AcDbSpline
 62
7
  6
BYLAYER
 70
0
 71
3
 72
12
 73
8
 74
0
 42
0.0000001
 43
0.0000001
 44
0.0000000001
 40
0.0
 40
0.0
 40
0.0
 40
0.0
 40
0.3354721604
 40
0.5778731036
 40
0.7691981354
 40
0.9132935957
 40
1.0
 40
1.0
 40
1.0
 40
1.0
 10
42.4098742849
 20
75.7721282746
 30
0.0
 10
42.4089138931
 20
75.7995510369
 30
0.0
 10
42.4083406735
 20
75.8469590686
 30
0.0
 10
42.4165616785
 20
75.909470418
 30
0.0
 10
42.426461892
 20
75.9557231903
 30
0.0
 10
42.4323630453
 20
75.9896657215
 30
0.0
 10
42.4378645794
 20
76.0079572456
 30
0.0
 10
42.438218665
 20
76.0150404553
 30
0.0
  0
SPLINE
  5
2E1
100
AcDbEntity
  8
0
100
AcDbSpline
 62
7
  6
BYLAYER
 70
0
 71
3
 72
16
 73
12
 74
0
 42
0.0000001
 43
0.0000001
 44
0.0000000001
 40
0.0
 40
0.0
 40
0.0
 40
0.0
 40
0.1125420989
 40
0.2253019425
 40
0.3358930954
 40
0.4469139324
 40
0.5562099814
 40
0.6688554614
 40
0.7766573974
 40
0.8872807493
 40
1.0
 40
1.0
 40
1.0
 40
1.0
 10
42.5630896867
 20
75.6705042477
 30
0.0
 10
42.5565208665
 20
75.6728780162
 30
0.0
 10
42.543409367
 20
75.6777444496
 30
0.0
 10
42.5241123264
 20
75.6856288462
 30
0.0
 10
42.5051365238
 20
75.6940743801
 30
0.0
 10
42.4871533713
 20
75.7040056885
 30
0.0
 10
42.4693381847
 20
75.7145453023
 30
0.0
 10
42.4532628316
 20
75.7272542306
 30
0.0
 10
42.437284927
 20
75.7402009271
 30
0.0
 10
42.4230867527
 20
75.7551277022
 30
0.0
 10
42.4143835841
 20
75.7659364496
 30
0.0
 10
42.4102727392
 20
75.7715967353
 30
0.0
  0
SPLINE
  5
2E2
100
AcDbEntity
  8
0
100
AcDbSpline
 62
7
  6
BYLAYER
 70
0
 71
3
 72
17
 73
13
 74
0
 42
0.0000001
 43
0.0000001
 44
0.0000000001
 40
0.0
 40
0.0
 40
0.0
 40
0.0
 40
0.0681219874
 40
0.1709249195
 40
0.2832776129
 40
0.39516395
 40
0.5002311287
 40
0.5997589243
 40
0.6934735059
 40
0.7860604181
 40
0.8862274322
 40
1.0
 40
1.0
 40
1.0
 40
1.0
 10
42.6297512332
 20
75.8705042477
 30
0.0
 10
42.6233298903
 20
75.8705042477
 30
0.0
 10
42.6087660118
 20
75.8612388355
 30
0.0
 10
42.5861482868
 20
75.8482504234
 30
0.0
 10
42.5608019533
 20
75.8302945546
 30
0.0
 10
42.53695783
 20
75.8103175907
 30
0.0
 10
42.5178557135
 20
75.7872762335
 30
0.0
 10
42.5041152332
 20
75.7621164382
 30
0.0
 10
42.5038907737
 20
75.7336852049
 30
0.0
 10
42.5182532937
 20
75.7099098178
 30
0.0
 10
42.5383981665
 20
75.6891879763
 30
0.0
 10
42.5542947752
 20
75.6766413421
 30
0.0
 10
42.5630896871
 20
75.6705042477
 30
0.0
  0
LINE
  5
2E3
100
AcDbEntity
  8
0
100
AcDbLine
 62
7
  6
BYLAYER
 10
7.0356587606
 20
70.4986513027
 11
7.1737672121
 21
70.3644524401
  0
SPLINE
  5
2E4
100
AcDbEntity
  8
0
100
AcDbSpline
 62
7
  6
BYLAYER
 70
0
 71
3
 72
9
 73
5
 74
0
 42
0.0000001
 43
0.0000001
 44
0.0000000001
 40
0.0
 40
0.0
 40
0.0
 40
0.0
 40
0.4938255135
 40
1.0
 40
1.0
 40
1.0
 40
1.0
 10
6.9738508372
 20
70.3592431484
 30
0.0
 10
6.9731870475
 20
70.3848902769
 30
0.0
 10
6.9844312885
 20
70.4376392959
 30
0.0
 10
7.0165059909
 20
70.4807153475
 30
0.0
 10
7.036256405
 20
70.4980781886
 30
0.0
  0
LINE
  5
2E5
100
AcDbEntity
  8
0
100
AcDbLine
 62
7
  6
BYLAYER
 10
12.1937272815
 20
75.8005732033
 11
12.3276816738
 21
75.6705180934
  0
SPLINE
  5
2E6
100
AcDbEntity
  8
0
100
AcDbSpline
 62
7
  6
BYLAYER
 70
0
 71
3
 72
10
 73
6
 74
0
 42
0.0000001
 43
0.0000001
 44
0.0000000001
 40
0.0
 40
0.0
 40
0.0
 40
0.0
 40
0.3304112349
 40
0.6674300696
 40
1.0
 40
1.0
 40
1.0
 40
1.0
 10
12.3276981943
 20
75.8705042477
 30
0.0
 10
12.3104805892
 20
75.8705042476
 30
0.0
 10
12.2754463078
 20
75.8647102131
 30
0.0
 10
12.228653648
 20
75.8400330146
 30
0.0
 10
12.2034984057
 20
75.8150863556
 30
0.0
 10
12.1929110174
 20
75.8013663205
 30
0.0
  0
LINE
  5
2E7
100
AcDbEntity
  8
0
100
AcDbLine
 62
7
  6
BYLAYER
 10
12.1937275661
 20
75.8005729833
 11
12.3276816988
 21
75.6705181361
  0
SPLINE
  5
2E8
100
AcDbEntity
  8
0
100
AcDbSpline
 62
7
  6
BYLAYER
 70
0
 71
3
 72
10
 73
6
 74
0
 42
0.0000001
 43
0.0000001
 44
0.0000000001
 40
0.0
 40
0.0
 40
0.0
 40
0.0
 40
0.3346971471
 40
0.666279392
 40
1.0
 40
1.0
 40
1.0
 40
1.0
 10
36.3921267625
 20
75.6705042477
 30
0.0
 10
36.4116413142
 20
75.6775629611
 30
0.0
 10
36.4504499564
 20
75.6920415058
 30
0.0
 10
36.5037384793
 20
75.7247386489
 30
0.0
 10
36.5327849426
 20
75.7548589036
 30
0.0
 10
36.5449440753
 20
75.7716007482
 30
0.0
  0
SPLINE
  5
2E9
100
AcDbEntity
  8
0
100
AcDbSpline
 62
7
  6
BYLAYER
 70
0
 71
3
 72
9
 73
5
 74
0
 42
0.0000001
 43
0.0000001
 44
0.0000000001
 40
0.0
 40
0.0
 40
0.0
 40
0.0
 40
0.2624204539
 40
1.0
 40
1.0
 40
1.0
 40
1.0
 10
36.5173279883
 20
76.0187404362
 30
0.0
 10
36.5172436276
 20
76.0184255978
 30
0.0
 10
36.5169684273
 20
76.0172146026
 30
0.0
 10
36.5169004705
 20
76.0159514252
 30
0.0
 10
36.5169977853
 20
76.0150404827
 30
0.0
  0
SPLINE
  5
2EA
100
AcDbEntity
  8
0
100
AcDbSpline
 62
7
  6
BYLAYER
 70
0
 71
3
 72
11
 73
7
 74
0
 42
0.0000001
 43
0.0000001
 44
0.0000000001
 40
0.0
 40
0.0
 40
0.0
 40
0.0
 40
0.2206288762
 40
0.4665289025
 40
0.7249431335
 40
1.0
 40
1.0
 40
1.0
 40
1.0
 10
36.6707933864
 20
75.8705042477
 30
0.0
 10
36.6586836777
 20
75.8705042476
 30
0.0
 10
36.6332252555
 20
75.8621804294
 30
0.0
 10
36.6014828825
 20
75.8379128303
 30
0.0
 10
36.5715258537
 20
75.807190535
 30
0.0
 10
36.5538032147
 20
75.783825248
 30
0.0
 10
36.5449440753
 20
75.7716007482
 30
0.0
  0
SPLINE
  5
2EB
100
AcDbEntity
  8
0
100
AcDbSpline
 62
7
  6
BYLAYER
 70
0
 71
3
 72
11
 73
7
 74
0
 42
0.0000001
 43
0.0000001
 44
0.0000000001
 40
0.0
 40
0.0
 40
0.0
 40
0.0
 40
0.2743413265
 40
0.5331074643
 40
0.7794011693
 40
1.0
 40
1.0
 40
1.0
 40
1.0
 10
42.410273395
 20
75.7715896782
 30
0.0
 10
42.4014246154
 20
75.7837734005
 30
0.0
 10
42.3837322342
 20
75.8071364435
 30
0.0
 10
42.3537671638
 20
75.8378549812
 30
0.0
 10
42.3220088223
 20
75.86216541
 30
0.0
 10
42.2965312642
 20
75.8705042477
 30
0.0
 10
42.2844230564
 20
75.8705042477
 30
0.0
  0
SPLINE
  5
2EC
100
AcDbEntity
  8
0
100
AcDbSpline
 62
7
  6
BYLAYER
 70
0
 71
3
 72
9
 73
5
 74
0
 42
0.0000001
 43
0.0000001
 44
0.0000000001
 40
0.0
 40
0.0
 40
0.0
 40
0.0
 40
0.2406454647
 40
1.0
 40
1.0
 40
1.0
 40
1.0
 10
42.4382186315
 20
76.0150404651
 30
0.0
 10
42.4382503927
 20
76.0153377366
 30
0.0
 10
42.4383190016
 20
76.0165798114
 30
0.0
 10
42.4381326182
 20
76.0178292037
 30
0.0
 10
42.4378884545
 20
76.0187404352
 30
0.0
  0
SPLINE
  5
2ED
100
AcDbEntity
  8
0
100
AcDbSpline
 62
7
  6
BYLAYER
 70
0
 71
3
 72
11
 73
7
 74
0
 42
0.0000001
 43
0.0000001
 44
0.0000000001
 40
0.0
 40
0.0
 40
0.0
 40
0.0
 40
0.0922457729
 40
0.2959733622
 40
0.6094675612
 40
1.0
 40
1.0
 40
1.0
 40
1.0
 10
42.4378884512
 20
76.0187404476
 30
0.0
 10
42.4394940277
 20
76.0127483545
 30
0.0
 10
42.4176989083
 20
75.9962129167
 30
0.0
 10
42.3786076588
 20
76.0010063755
 30
0.0
 10
42.3167401409
 20
76.0040540971
 30
0.0
 10
42.2703350528
 20
76.0130166966
 30
0.0
 10
42.2447032881
 20
76.0187404387
 30
0.0
  0
SPLINE
  5
2EE
100
AcDbEntity
  8
0
100
AcDbSpline
 62
7
  6
BYLAYER
 70
0
 71
3
 72
10
 73
6
 74
0
 42
0.0000001
 43
0.0000001
 44
0.0000000001
 40
0.0
 40
0.0
 40
0.0
 40
0.0
 40
0.3226659895
 40
0.6578304067
 40
1.0
 40
1.0
 40
1.0
 40
1.0
 10
39.9552853515
 20
76.0187401121
 30
0.0
 10
39.927910653
 20
76.0104749593
 30
0.0
 10
39.8720123431
 20
75.9938380591
 30
0.0
 10
39.7851759229
 20
75.9754454317
 30
0.0
 10
39.7250891766
 20
75.9705020648
 30
0.0
 10
39.6947655086
 20
75.9705001874
 30
0.0
  0
SPLINE
  5
2EF
100
AcDbEntity
  8
0
100
AcDbSpline
 62
7
  6
BYLAYER
 70
0
 71
3
 72
17
 73
13
 74
0
 42
0.0000001
 43
0.0000001
 44
0.0000000001
 40
0.0
 40
0.0
 40
0.0
 40
0.0
 40
0.0192137683
 40
0.0419192326
 40
0.0702382725
 40
0.1051937977
 40
0.1962438945
 40
0.3148734053
 40
0.4587092785
 40
0.6239322512
 40
0.806103749
 40
1.0
 40
1.0
 40
1.0
 40
1.0
 10
39.8361868513
 20
76.1290828399
 30
0.0
 10
39.8369670597
 20
76.1298630482
 30
0.0
 10
39.8391241693
 20
76.1311298864
 30
0.0
 10
39.8431816935
 20
76.1316803832
 30
0.0
 10
39.8481203216
 20
76.1311630095
 30
0.0
 10
39.8567017049
 20
76.1288538253
 30
0.0
 10
39.8695457313
 20
76.1229932684
 30
0.0
 10
39.8870496574
 20
76.1126897777
 30
0.0
 10
39.9072716134
 20
76.098715396
 30
0.0
 10
39.9296269042
 20
76.0814966785
 30
0.0
 10
39.953433852
 20
76.0614972504
 30
0.0
 10
39.9694668497
 20
76.0470214602
 30
0.0
 10
39.9776083087
 20
76.0394253803
 30
0.0
  0
SPLINE
  5
2F0
100
AcDbEntity
  8
0
100
AcDbSpline
 62
7
  6
BYLAYER
 70
0
 71
3
 72
13
 73
9
 74
0
 42
0.0000001
 43
0.0000001
 44
0.0000000001
 40
0.0
 40
0.0
 40
0.0
 40
0.0
 40
0.0799891875
 40
0.2139097806
 40
0.3859836904
 40
0.572706075
 40
0.7757482053
 40
1.0
 40
1.0
 40
1.0
 40
1.0
 10
40.5190295781
 20
76.8119256045
 30
0.0
 10
40.5222669795
 20
76.8151630056
 30
0.0
 10
40.5369990894
 20
76.8136443398
 30
0.0
 10
40.555703888
 20
76.8040872974
 30
0.0
 10
40.5800813706
 20
76.7889824755
 30
0.0
 10
40.6057229969
 20
76.7697614585
 30
0.0
 10
40.6328841054
 20
76.7473799943
 30
0.0
 10
40.6510659147
 20
76.7310244007
 30
0.0
 10
40.6604509479
 20
76.7222680446
 30
0.0
  0
SPLINE
  5
2F1
100
AcDbEntity
  8
0
100
AcDbSpline
 62
7
  6
BYLAYER
 70
0
 71
3
 72
10
 73
6
 74
0
 42
0.0000001
 43
0.0000001
 44
0.0000000001
 40
0.0
 40
0.0
 40
0.0
 40
0.0
 40
0.1648406925
 40
0.5132228741
 40
1.0
 40
1.0
 40
1.0
 40
1.0
 10
40.5204476996
 20
76.81302121
 30
0.0
 10
40.5284683015
 20
76.8177646429
 30
0.0
 10
40.5602802969
 20
76.8020341457
 30
0.0
 10
40.6033358944
 20
76.7731151737
 30
0.0
 10
40.6403312656
 20
76.7410399637
 30
0.0
 10
40.6604509344
 20
76.7222680573
 30
0.0
  0
SPLINE
  5
2F2
100
AcDbEntity
  8
0
100
AcDbSpline
 62
7
  6
BYLAYER
 70
0
 71
3
 72
17
 73
13
 74
0
 42
0.0000001
 43
0.0000001
 44
0.0000000001
 40
0.0
 40
0.0
 40
0.0
 40
0.0
 40
0.0192137684
 40
0.0419192327
 40
0.0702382728
 40
0.1051937981
 40
0.1962438951
 40
0.3148734063
 40
0.4587092798
 40
0.623932253
 40
0.8061037499
 40
1.0
 40
1.0
 40
1.0
 40
1.0
 10
39.1190295912
 20
76.1290828399
 30
0.0
 10
39.1182493828
 20
76.1298630482
 30
0.0
 10
39.1160922732
 20
76.1311298864
 30
0.0
 10
39.112034749
 20
76.1316803832
 30
0.0
 10
39.1070961209
 20
76.1311630095
 30
0.0
 10
39.0985147376
 20
76.1288538253
 30
0.0
 10
39.0856707112
 20
76.1229932684
 30
0.0
 10
39.0681667851
 20
76.1126897777
 30
0.0
 10
39.0479448291
 20
76.098715396
 30
0.0
 10
39.0255895384
 20
76.0814966785
 30
0.0
 10
39.0017825907
 20
76.0614972506
 30
0.0
 10
38.9857495931
 20
76.0470214604
 30
0.0
 10
38.9776081342
 20
76.0394253806
 30
0.0
  0
SPLINE
  5
2F3
100
AcDbEntity
  8
0
100
AcDbSpline
 62
7
  6
BYLAYER
 70
0
 71
3
 72
10
 73
6
 74
0
 42
0.0000001
 43
0.0000001
 44
0.0000000001
 40
0.0
 40
0.0
 40
0.0
 40
0.0
 40
0.4934517153
 40
0.8454148734
 40
1.0
 40
1.0
 40
1.0
 40
1.0
 10
38.2947655081
 20
76.7222680573
 30
0.0
 10
38.3153211573
 20
76.741446739
 30
0.0
 10
38.3539826973
 20
76.7741828043
 30
0.0
 10
38.3949749434
 20
76.8030349687
 30
0.0
 10
38.4299592835
 20
76.8181531885
 30
0.0
 10
38.4361868656
 20
76.8119256032
 30
0.0
  0
SPLINE
  5
2F4
100
AcDbEntity
  8
0
100
AcDbSpline
 62
7
  6
BYLAYER
 70
0
 71
3
 72
11
 73
7
 74
0
 42
0.0000001
 43
0.0000001
 44
0.0000000001
 40
0.0
 40
0.0
 40
0.0
 40
0.0
 40
0.4144703058
 40
0.7281665516
 40
0.9159917907
 40
1.0
 40
1.0
 40
1.0
 40
1.0
 10
36.7105131543
 20
76.0187404387
 30
0.0
 10
36.6832357716
 20
76.0128340996
 30
0.0
 10
36.6350418333
 20
76.0033744712
 30
0.0
 10
36.5730114805
 20
76.0008010747
 30
0.0
 10
36.534339663
 20
75.9970446416
 30
0.0
 10
36.5158638691
 20
76.0132762684
 30
0.0
 10
36.5173279891
 20
76.0187404386
 30
0.0
  0
SPLINE
  5
2F5
100
AcDbEntity
  8
0
100
AcDbSpline
 62
7
  6
BYLAYER
 70
0
 71
3
 72
10
 73
6
 74
0
 42
0.0000001
 43
0.0000001
 44
0.0000000001
 40
0.0
 40
0.0
 40
0.0
 40
0.0
 40
0.3421466012
 40
0.6773080439
 40
1.0
 40
1.0
 40
1.0
 40
1.0
 10
39.260451045
 20
75.970500307
 30
0.0
 10
39.2301293159
 20
75.970501729
 30
0.0
 10
39.1700446839
 20
75.9754454374
 30
0.0
 10
39.0832078835
 20
75.9938372003
 30
0.0
 10
39.0273071001
 20
76.0104737467
 30
0.0
 10
38.9999303659
 20
76.0187404406
 30
0.0
  0
SPLINE
  5
2F6
100
AcDbEntity
  8
0
100
AcDbSpline
 62
7
  6
BYLAYER
 70
0
 71
3
 72
10
 73
6
 74
0
 42
0.0000001
 43
0.0000001
 44
0.0000000001
 40
0.0
 40
0.0
 40
0.0
 40
0.0
 40
0.3849829017
 40
0.7100899053
 40
1.0
 40
1.0
 40
1.0
 40
1.0
 10
36.7172339895
 20
76.7337688151
 30
0.0
 10
36.7153071311
 20
76.7328453713
 30
0.0
 10
36.7118675887
 20
76.730859312
 30
0.0
 10
36.7078145489
 20
76.726961535
 30
0.0
 10
36.7062540971
 20
76.7238222728
 30
0.0
 10
36.7058376463
 20
76.722268057
 30
0.0
  0
SPLINE
  5
2F7
100
AcDbEntity
  8
0
100
AcDbSpline
 62
7
  6
BYLAYER
 70
0
 71
3
 72
17
 73
13
 74
0
 42
0.0000001
 43
0.0000001
 44
0.0000000001
 40
0.0
 40
0.0
 40
0.0
 40
0.0
 40
0.123411239
 40
0.2337305294
 40
0.3328665735
 40
0.4298315424
 40
0.5251528614
 40
0.6264615909
 40
0.7337500983
 40
0.8397197394
 40
0.9362479021
 40
1.0
 40
1.0
 40
1.0
 40
1.0
 10
42.5630896861
 20
75.6705042477
 30
0.0
 10
42.5535079266
 20
75.6770973272
 30
0.0
 10
42.5362839429
 20
75.6909987549
 30
0.0
 10
42.5147176847
 20
75.7138327205
 30
0.0
 10
42.5017770352
 20
75.7411638525
 30
0.0
 10
42.5073515594
 20
75.7695410995
 30
0.0
 10
42.5221218972
 20
75.7931243491
 30
0.0
 10
42.5414576298
 20
75.8144690507
 30
0.0
 10
42.5645806184
 20
75.8330385622
 30
0.0
 10
42.5887106731
 20
75.8498591569
 30
0.0
 10
42.6100155322
 20
75.862015133
 30
0.0
 10
42.6237428896
 20
75.8705042476
 30
0.0
 10
42.6297512319
 20
75.8705042477
 30
0.0
  0
SPLINE
  5
2F8
100
AcDbEntity
  8
0
100
AcDbSpline
 62
7
  6
BYLAYER
 70
0
 71
3
 72
12
 73
8
 74
0
 42
0.0000001
 43
0.0000001
 44
0.0000000001
 40
0.0
 40
0.0
 40
0.0
 40
0.0
 40
0.0868189541
 40
0.2387863323
 40
0.440628634
 40
0.6883965033
 40
1.0
 40
1.0
 40
1.0
 40
1.0
 10
42.438218664
 20
76.0150404719
 30
0.0
 10
42.4377903257
 20
76.0079355814
 30
0.0
 10
42.4323760961
 20
75.9889298017
 30
0.0
 10
42.425888917
 20
75.9534686891
 30
0.0
 10
42.4159861081
 20
75.9051244354
 30
0.0
 10
42.4077641344
 20
75.8431245082
 30
0.0
 10
42.4087398088
 20
75.7970934715
 30
0.0
 10
42.4102734075
 20
75.7715929526
 30
0.0
  0
SPLINE
  5
2F9
100
AcDbEntity
  8
0
100
AcDbSpline
 62
7
  6
BYLAYER
 70
0
 71
3
 72
15
 73
11
 74
0
 42
0.0000001
 43
0.0000001
 44
0.0000000001
 40
0.0
 40
0.0
 40
0.0
 40
0.0
 40
0.1248441116
 40
0.2497028794
 40
0.3746026595
 40
0.4995609487
 40
0.6245818149
 40
0.7496629328
 40
0.8748032101
 40
1.0
 40
1.0
 40
1.0
 40
1.0
 10
42.6297512414
 20
75.8705042477
 30
0.0
 10
42.6190494378
 20
75.8705042475
 30
0.0
 10
42.5976041223
 20
75.8722415125
 30
0.0
 10
42.5663052174
 20
75.8799964586
 30
0.0
 10
42.5366461502
 20
75.8926942562
 30
0.0
 10
42.5094036148
 20
75.9099996436
 30
0.0
 10
42.4852783673
 20
75.9314611094
 30
0.0
 10
42.4648964934
 20
75.9565278187
 30
0.0
 10
42.4487935508
 20
75.984544054
 30
0.0
 10
42.4411859499
 20
76.0047268123
 30
0.0
 10
42.4382186654
 20
76.0150404834
 30
0.0
  0
SPLINE
  5
2FA
100
AcDbEntity
  8
0
100
AcDbSpline
 62
7
  6
BYLAYER
 70
0
 71
3
 72
9
 73
5
 74
0
 42
0.0000001
 43
0.0000001
 44
0.0000000001
 40
0.0
 40
0.0
 40
0.0
 40
0.0
 40
0.5061744279
 40
1.0
 40
1.0
 40
1.0
 40
1.0
 10
7.0362562248
 20
70.4980809271
 30
0.0
 10
7.0165058336
 20
70.480718078
 30
0.0
 10
6.9844311765
 20
70.4376420163
 30
0.0
 10
6.9731869683
 20
70.3848930124
 30
0.0
 10
6.9738507645
 20
70.3592458896
 30
0.0
  0
LINE
  5
2FB
100
AcDbEntity
  8
0
100
AcDbLine
 62
7
  6
BYLAYER
 10
7.0356617525
 20
70.4986516396
 11
7.1737694521
 21
70.364453638
  0
SPLINE
  5
2FC
100
AcDbEntity
  8
0
100
AcDbSpline
 62
7
  6
BYLAYER
 70
0
 71
3
 72
13
 73
9
 74
0
 42
0.0000001
 43
0.0000001
 44
0.0000000001
 40
0.0
 40
0.0
 40
0.0
 40
0.0
 40
0.2882763625
 40
0.4622824081
 40
0.4999997192
 40
0.539620963
 40
0.7102282255
 40
1.0
 40
1.0
 40
1.0
 40
1.0
 10
7.0364069769
 20
70.4982133103
 30
0.0
 10
7.0217777846
 20
70.967249848
 30
0.0
 10
6.9950672003
 20
71.816217393
 30
0.0
 10
6.9766166304
 20
72.398579126
 30
0.0
 10
6.9561730743
 20
73.0381333213
 30
0.0
 10
6.9767444999
 20
72.3945662626
 30
0.0
 10
6.9949588075
 20
71.8195900945
 30
0.0
 10
7.0217019377
 20
70.9696801969
 30
0.0
 10
7.0364071574
 20
70.4982105717
 30
0.0
  0
SPLINE
  5
2FD
100
AcDbEntity
  8
0
100
AcDbSpline
 62
7
  6
BYLAYER
 70
0
 71
3
 72
21
 73
17
 74
0
 42
0.0000001
 43
0.0000001
 44
0.0000000001
 40
0.0
 40
0.0
 40
0.0
 40
0.0
 40
0.0887015531
 40
0.1778477461
 40
0.2696807957
 40
0.3158869912
 40
0.36135636
 40
0.4022233426
 40
0.4425149562
 40
0.523567335
 40
0.6055659498
 40
0.6863993797
 40
0.7668705195
 40
0.8462851132
 40
0.9244233642
 40
1.0
 40
1.0
 40
1.0
 40
1.0
 10
51.6554093689
 20
36.8654046702
 30
0.0
 10
51.6584513241
 20
36.5404416594
 30
0.0
 10
51.6613965672
 20
35.8888509927
 30
0.0
 10
51.6548765086
 20
34.9008176445
 30
0.0
 10
51.6386659721
 20
34.0686020736
 30
0.0
 10
51.6180502832
 20
33.3965893684
 30
0.0
 10
51.5995115188
 20
32.9113402189
 30
0.0
 10
51.5782114238
 20
32.4478958248
 30
0.0
 10
51.5462436043
 20
31.8544565383
 30
0.0
 10
51.497459533
 20
31.1110314633
 30
0.0
 10
51.4240304558
 20
30.220485679
 30
0.0
 10
51.3348469076
 20
29.333514424
 30
0.0
 10
51.2303074474
 20
28.4577535747
 30
0.0
 10
51.1111691543
 20
27.5938345678
 30
0.0
 10
50.9808908362
 20
26.7496745999
 30
0.0
 10
50.8866216612
 20
26.1944318865
 30
0.0
 10
50.8385711597
 20
25.9217417076
 30
0.0
  0
LINE
  5
2FE
100
AcDbEntity
  8
0
100
AcDbLine
 62
7
  6
BYLAYER
 10
48.2661145281
 20
33.476143904
 11
48.7830908793
 21
25.9217439944
  0
LINE
  5
2FF
100
AcDbEntity
  8
0
100
AcDbLine
 62
7
  6
BYLAYER
 10
42.7325690018
 20
27.9425420565
 11
42.2830909363
 21
25.9217431614
  0
LINE
  5
300
100
AcDbEntity
  8
0
100
AcDbLine
 62
7
  6
BYLAYER
 10
48.2661181355
 20
33.4760911905
 11
48.7830909363
 21
25.9217431614
  0
LINE
  5
301
100
AcDbEntity
  8
0
100
AcDbLine
 62
7
  6
BYLAYER
 10
54.0462775007
 20
39.2562505556
 11
55.2830906441
 21
25.9217463126
  0
SPLINE
  5
302
100
AcDbEntity
  8
0
100
AcDbSpline
 62
7
  6
BYLAYER
 70
0
 71
3
 72
11
 73
7
 74
0
 42
0.0000001
 43
0.0000001
 44
0.0000000001
 40
0.0
 40
0.0
 40
0.0
 40
0.0
 40
0.1260219179
 40
0.3421972568
 40
0.6453673496
 40
1.0
 40
1.0
 40
1.0
 40
1.0
 10
42.2493787967
 20
76.7222680559
 30
0.0
 10
42.2472064928
 20
76.7303752043
 30
0.0
 10
42.2218029469
 20
76.7414112235
 30
0.0
 10
42.180879138
 20
76.7420662639
 30
0.0
 10
42.1218234749
 20
76.7369892406
 30
0.0
 10
42.0791071881
 20
76.7279964451
 30
0.0
 10
42.0561936312
 20
76.7222680559
 30
0.0
  0
SPLINE
  5
303
100
AcDbEntity
  8
0
100
AcDbSpline
 62
7
  6
BYLAYER
 70
0
 71
3
 72
10
 73
6
 74
0
 42
0.0000001
 43
0.0000001
 44
0.0000000001
 40
0.0
 40
0.0
 40
0.0
 40
0.0
 40
0.3849828987
 40
0.7100899028
 40
1.0
 40
1.0
 40
1.0
 40
1.0
 10
42.2379824532
 20
76.7337688152
 30
0.0
 10
42.2399093115
 20
76.7328453714
 30
0.0
 10
42.2433488538
 20
76.730859312
 30
0.0
 10
42.2474018937
 20
76.726961535
 30
0.0
 10
42.2489623455
 20
76.7238222729
 30
0.0
 10
42.2493787964
 20
76.722268057
 30
0.0
  0
SPLINE
  5
304
100
AcDbEntity
  8
0
100
AcDbSpline
 62
7
  6
BYLAYER
 70
0
 71
3
 72
10
 73
6
 74
0
 42
0.0000001
 43
0.0000001
 44
0.0000000001
 40
0.0
 40
0.0
 40
0.0
 40
0.0
 40
0.4237394453
 40
0.7728076083
 40
1.0
 40
1.0
 40
1.0
 40
1.0
 10
42.0561936311
 20
76.722268057
 30
0.0
 10
42.0814111793
 20
76.7285724441
 30
0.0
 10
42.1281693045
 20
76.7380109581
 30
0.0
 10
42.1888757116
 20
76.7427520904
 30
0.0
 10
42.2254144485
 20
76.7397920114
 30
0.0
 10
42.2379824532
 20
76.7337688152
 30
0.0
  0
SPLINE
  5
305
100
AcDbEntity
  8
0
100
AcDbSpline
 62
7
  6
BYLAYER
 70
0
 71
3
 72
15
 73
11
 74
0
 42
0.0000001
 43
0.0000001
 44
0.0000000001
 40
0.0
 40
0.0
 40
0.0
 40
0.0
 40
0.0698535704
 40
0.166019249
 40
0.2854014517
 40
0.4271339849
 40
0.5615656594
 40
0.7004831522
 40
0.8334989542
 40
1.0
 40
1.0
 40
1.0
 40
1.0
 10
36.7058376462
 20
76.7222680568
 30
0.0
 10
36.7070465864
 20
76.7267798831
 30
0.0
 10
36.7164267044
 20
76.7350028866
 30
0.0
 10
36.7349224163
 20
76.7395157236
 30
0.0
 10
36.7588236672
 20
76.7417823999
 30
0.0
 10
36.7852906436
 20
76.7411350471
 30
0.0
 10
36.8129478076
 20
76.7386299695
 30
0.0
 10
36.8398560209
 20
76.7347736931
 30
0.0
 10
36.8686867068
 20
76.7294210862
 30
0.0
 10
36.8882215997
 20
76.7249683597
 30
0.0
 10
36.8990228114
 20
76.7222680568
 30
0.0
  0
SPLINE
  5
306
100
AcDbEntity
  8
0
100
AcDbSpline
 62
7
  6
BYLAYER
 70
0
 71
3
 72
11
 73
7
 74
0
 42
0.0000001
 43
0.0000001
 44
0.0000000001
 40
0.0
 40
0.0
 40
0.0
 40
0.0
 40
0.1260219191
 40
0.3421972587
 40
0.6453673519
 40
1.0
 40
1.0
 40
1.0
 40
1.0
 10
36.7058376462
 20
76.7222680568
 30
0.0
 10
36.7080099501
 20
76.7303752053
 30
0.0
 10
36.7334134961
 20
76.7414112244
 30
0.0
 10
36.774337305
 20
76.7420662647
 30
0.0
 10
36.8333929678
 20
76.7369892415
 30
0.0
 10
36.8761092543
 20
76.7279964461
 30
0.0
 10
36.8990228109
 20
76.7222680569
 30
0.0
  0
SPLINE
  5
307
100
AcDbEntity
  8
0
100
AcDbSpline
 62
7
  6
BYLAYER
 70
0
 71
3
 72
10
 73
6
 74
0
 42
0.0000001
 43
0.0000001
 44
0.0000000001
 40
0.0
 40
0.0
 40
0.0
 40
0.0
 40
0.3265844608
 40
0.6608495684
 40
1.0
 40
1.0
 40
1.0
 40
1.0
 10
36.8447050546
 20
76.7337688151
 30
0.0
 10
36.8506631462
 20
76.7327448508
 30
0.0
 10
36.8626919762
 20
76.7305098249
 30
0.0
 10
36.8808023625
 20
76.7266709303
 30
0.0
 10
36.8929322066
 20
76.7237907082
 30
0.0
 10
36.899022811
 20
76.7222680571
 30
0.0
  0
ENDSEC
  0
SECTION
  2
OBJECTS
  0
DICTIONARY
  5
C
100
AcDbDictionary
280
0
281
1
  3
ACAD_GROUP
350
D
  3
ACAD_MLINESTYLE
350
17
  3
ACAD_LAYOUT
350
1A
  3
ACAD_PLOTSETTINGS
350
19
  3
ACAD_PLOTSTYLENAME
350
E
  0
DICTIONARY
  5
D
102
{ACAD_REACTORS
330
C
102
}
100
AcDbDictionary
280
0
281
1
  0
ACDBDICTIONARYWDFLT
  5
E
102
{ACAD_REACTORS
330
C
102
}
100
AcDbDictionary
281
1
  3
Normal
350
F
100
AcDbDictionaryWithDefault
340
F
  0
DICTIONARY
  5
17
102
{ACAD_REACTORS
330
C
102
}
100
AcDbDictionary
280
0
281
1
  3
Standard
350
18
  0
DICTIONARY
  5
19
102
{ACAD_REACTORS
330
C
102
}
100
AcDbDictionary
281
1
  0
DICTIONARY
  5
1A
102
{ACAD_REACTORS
330
C
102
}
100
AcDbDictionary
281
1
  3
Model
350
308
  3
Layout1
350
309
  0
ACDBPLACEHOLDER
  5
F
102
{ACAD_REACTORS
330
E
102
}
  0
MLINESTYLE
  5
18
102
{ACAD_REACTORS
330
17
102
}
100
AcDbMlineStyle
  2
STANDARD
 70
0
  3

 62
256
 51
90.0
 52
90.0
 71
2
 49
0.5
 62
256
  6
BYLAYER
 49
-0.5
 62
256
  6
BYLAYER
  0
LAYOUT
  5
308
102
{ACAD_REACTORS
330
1A
102
}
100
AcDbPlotSettings
  1

  2
none_device
  4

  6

 40
0.0
 41
0.0
 42
0.0
 43
0.0
 44
210.0
 45
297.0
 46
0.0
 47
0.0
 48
0.0
 49
0.0
140
0.0
141
0.0
142
1.0
143
1.0
 70
1024
 72
1
 73
0
 74
0
  7

 75
0
147
1.0
148
0.0
149
0.0
100
AcDbLayout
  1
Model
 70
0
 71
0
 10
0.0
 20
0.0
 11
210.0
 21
297.0
 12
0.0
 22
0.0
 32
0.0
 14
0.0
 24
0.0
 34
0.0
 15
0.0
 25
0.0
 35
0.0
146
0.0
 13
0.0
 23
0.0
 33
0.0
 16
1.0
 26
0.0
 36
0.0
 17
0.0
 27
1.0
 37
0.0
 76
0
330
210
345
0
346
0
  0
LAYOUT
  5
309
102
{ACAD_REACTORS
330
1A
102
}
100
AcDbPlotSettings
  1

  2
none_device
  4

  6

 40
0.0
 41
0.0
 42
0.0
 43
0.0
 44
210.0
 45
297.0
 46
0.0
 47
0.0
 48
0.0
 49
0.0
140
0.0
141
0.0
142
1.0
143
1.0
 70
0
 72
1
 73
0
 74
0
  7

 75
0
147
1.0
148
0.0
149
0.0
100
AcDbLayout
  1
Layout1
 70
0
 71
1
 10
0.0
 20
0.0
 11
210.0
 21
297.0
 12
0.0
 22
0.0
 32
0.0
 14
0.0
 24
0.0
 34
0.0
 15
0.0
 25
0.0
 35
0.0
146
0.0
 13
0.0
 23
0.0
 33
0.0
 16
1.0
 26
0.0
 36
0.0
 17
0.0
 27
1.0
 37
0.0
 76
0
330
211
345
0
346
0
  0
ENDSEC
  0
EOF
