999
DXF file: C:\Users\sesa63760\Dev\_Creo\CAD\MCADID0002626_3D-CAD\drw0001_1.dxf
999
Pro/ENGINEER 2019471 by Parametric Technology Corporation
  0
SECTION
  2
HEADER
  9
$ACADVER
  1
AC1024
  9
$DWGCODEPAGE
  3
ANSI_1252
  9
$EXTMAX
 10
140.7446112908
 20
199.0530931112
 30
0.0
  9
$EXTMIN
 10
0.0
 20
0.0
 30
0.0
  9
$LIMMIN
 10
0.0
 20
0.0
  9
$LIMMAX
 10
140.7446112908
 20
199.0530931112
  9
$VIEWCTR
 10
70.3723056454
 20
99.5265465556
  9
$VIEWSIZE
 40
199.0530931112
  9
$CLAYER
  8
0
  9
$LTSCALE
 40
12.9753127361
  9
$CELTYPE
  6
BYLAYER
  9
$DIMSCALE
 40
1.0
  9
$DIMASZ
 40
1.6755310868
  9
$DIMEXO
 40
1.0
  9
$DIMDLI
 40
8.9647615268
  9
$DIMEXE
 40
1.0
  9
$DIMCEN
 40
2.1232329932
  9
$DIMLFAC
 40
1.0
  9
$DIMBLK
  1
_FILLED
  9
$DIMALT
 70
0
  9
$DIMALTF
 40
0.0393700787
  9
$DIMTXT
 40
2.3457435215
  9
$DIMTOL
 70
1
  9
$DIMLIM
 70
0
  9
$DIMTFAC
 40
1.0
  9
$DIMTP
 40
0.01
  9
$DIMTM
 40
0.01
  9
$DIMGAP
 40
0.625
  9
$DIMDSEP
 70
46
  9
$AUNITS
 70
0
  9
$PDMODE
 70
3
  9
$PDSIZE
 40
0.3125
  9
$HANDSEED
  5
2FA
  9
$TILEMODE
 70
1
  9
$MEASUREMENT
 70
1
  9
$INSUNITS
 70
4
  0
ENDSEC
  0
SECTION
  2
CLASSES
  0
CLASS
  1
ACDBDICTIONARYWDFLT
  2
AcDbDictionaryWithDefault
  3
AutoCAD 2000
 90
0
 91
1
280
0
281
0
  0
CLASS
  1
ACDBPLACEHOLDER
  2
AcDbPlaceHolder
  3
AutoCAD 2000
 90
0
 91
1
280
0
281
0
  0
CLASS
  1
LAYOUT
  2
AcDbLayout
  3
AutoCAD 2000
 90
0
 91
0
280
0
281
0
  0
ENDSEC
  0
SECTION
  2
TABLES
  0
TABLE
  2
VPORT
  5
8
100
AcDbSymbolTable
 70
2
  0
VPORT
  5
1F4
100
AcDbSymbolTableRecord
100
AcDbViewportTableRecord
  2
*ACTIVE
 70
0
 10
0.0
 20
0.0
 11
1.0
 21
1.0
 12
70.3723056454
 22
99.5265465556
 13
0.0
 23
0.0
 14
1.0
 24
1.0
 15
0.0
 25
0.0
 16
0.0
 26
0.0
 36
1.0
 17
0.0
 27
0.0
 37
0.0
 40
199.0530931112
 41
0.7070707071
 42
50.0
 43
0.0
 44
0.0
 50
0.0
 51
0.0
 71
0
 72
100
 73
1
 74
1
 75
0
 76
0
 77
0
 78
0
  0
ENDTAB
  0
TABLE
  2
LTYPE
  5
5
100
AcDbSymbolTable
 70
6
  0
LTYPE
  5
14
100
AcDbSymbolTableRecord
100
AcDbLinetypeTableRecord
  2
BYBLOCK
 70
0
  3

 72
65
 73
0
 40
0.0
  0
LTYPE
  5
15
100
AcDbSymbolTableRecord
100
AcDbLinetypeTableRecord
  2
BYLAYER
 70
0
  3

 72
65
 73
0
 40
0.0
  0
LTYPE
  5
16
100
AcDbSymbolTableRecord
100
AcDbLinetypeTableRecord
  2
CONTINUOUS
 70
64
  3
Solid line
 72
65
 73
0
 40
0.0
  0
LTYPE
  5
1F5
100
AcDbSymbolTableRecord
100
AcDbLinetypeTableRecord
  2
CENTER
 70
64
  3
____ _ ____ _ ____ _ ____ _ ____ _ ____ _ ____
 72
65
 73
4
 40
0.6
 49
0.375
 74
0
 49
-0.075
 74
0
 49
0.075
 74
0
 49
-0.075
 74
0
  0
LTYPE
  5
1F6
100
AcDbSymbolTableRecord
100
AcDbLinetypeTableRecord
  2
HIDDEN
 70
64
  3
- - - - - - - - - - - - - - - - - - - -
 72
65
 73
2
 40
0.2
 49
0.1
 74
0
 49
-0.1
 74
0
  0
LTYPE
  5
1F7
100
AcDbSymbolTableRecord
100
AcDbLinetypeTableRecord
  2
PHANTOM
 70
64
  3
_____ _ _ _____ _ _ _____ _ _ _____
 72
65
 73
6
 40
0.8
 49
0.45
 74
0
 49
-0.05
 74
0
 49
0.1
 74
0
 49
-0.05
 74
0
 49
0.1
 74
0
 49
-0.05
 74
0
  0
LTYPE
  5
1F8
100
AcDbSymbolTableRecord
100
AcDbLinetypeTableRecord
  2
DOT
 70
64
  3
. . . . . . . . . . . . . . . . . . . .
 72
65
 73
2
 40
0.2
 49
0.1
 74
0
 49
-0.1
 74
0
  0
LTYPE
  5
1F9
100
AcDbSymbolTableRecord
100
AcDbLinetypeTableRecord
  2
DASHED
 70
64
  3
- - - - - - - - - - - - - - - - - - - -
 72
65
 73
2
 40
0.2
 49
0.1
 74
0
 49
-0.1
 74
0
  0
ENDTAB
  0
TABLE
  2
LAYER
  5
2
100
AcDbSymbolTable
 70
36
  0
LAYER
  5
10
100
AcDbSymbolTableRecord
100
AcDbLayerTableRecord
  2
0
 70
0
 62
7
  6
CONTINUOUS
370
-3
390
F
  0
LAYER
  5
1FA
100
AcDbSymbolTableRecord
100
AcDbLayerTableRecord
  2
DEFAULT_1
 70
0
 62
7
  6
CENTER
370
-3
390
F
  0
LAYER
  5
1FB
100
AcDbSymbolTableRecord
100
AcDbLayerTableRecord
  2
DEFAULT_2
 70
0
 62
7
  6
HIDDEN
370
-3
390
F
  0
LAYER
  5
1FC
100
AcDbSymbolTableRecord
100
AcDbLayerTableRecord
  2
DEFAULT_3
 70
0
 62
7
  6
PHANTOM
370
-3
390
F
  0
LAYER
  5
1FD
100
AcDbSymbolTableRecord
100
AcDbLayerTableRecord
  2
00_COMPONENTS
 70
0
 62
7
  6
CONTINUOUS
370
-3
390
F
  0
LAYER
  5
1FE
100
AcDbSymbolTableRecord
100
AcDbLayerTableRecord
  2
01_1_DEFAULT_DATUMS
 70
0
 62
7
  6
CONTINUOUS
370
-3
390
F
  0
LAYER
  5
1FF
100
AcDbSymbolTableRecord
100
AcDbLayerTableRecord
  2
01_PLANES
 70
0
 62
7
  6
CONTINUOUS
370
-3
390
F
  0
LAYER
  5
200
100
AcDbSymbolTableRecord
100
AcDbLayerTableRecord
  2
02_COORD_SYS
 70
0
 62
7
  6
CONTINUOUS
370
-3
390
F
  0
LAYER
  5
201
100
AcDbSymbolTableRecord
100
AcDbLayerTableRecord
  2
03_AXES
 70
0
 62
7
  6
CONTINUOUS
370
-3
390
F
  0
LAYER
  5
202
100
AcDbSymbolTableRecord
100
AcDbLayerTableRecord
  2
04_POINTS
 70
0
 62
7
  6
CONTINUOUS
370
-3
390
F
  0
LAYER
  5
203
100
AcDbSymbolTableRecord
100
AcDbLayerTableRecord
  2
05_CURVES
 70
0
 62
7
  6
CONTINUOUS
370
-3
390
F
  0
LAYER
  5
204
100
AcDbSymbolTableRecord
100
AcDbLayerTableRecord
  2
06_SURFS
 70
0
 62
7
  6
CONTINUOUS
370
-3
390
F
  0
LAYER
  5
205
100
AcDbSymbolTableRecord
100
AcDbLayerTableRecord
  2
07_COSMETICS
 70
0
 62
7
  6
CONTINUOUS
370
-3
390
F
  0
LAYER
  5
206
100
AcDbSymbolTableRecord
100
AcDbLayerTableRecord
  2
10_NOTES
 70
0
 62
7
  6
CONTINUOUS
370
-3
390
F
  0
LAYER
  5
207
100
AcDbSymbolTableRecord
100
AcDbLayerTableRecord
  2
11_NOTES_PUB
 70
0
 62
7
  6
CONTINUOUS
370
-3
390
F
  0
LAYER
  5
208
100
AcDbSymbolTableRecord
100
AcDbLayerTableRecord
  2
13_REF_GTOL
 70
0
 62
7
  6
CONTINUOUS
370
-3
390
F
  0
LAYER
  5
209
100
AcDbSymbolTableRecord
100
AcDbLayerTableRecord
  2
16_MISC
 70
0
 62
7
  6
CONTINUOUS
370
-3
390
F
  0
LAYER
  5
20A
100
AcDbSymbolTableRecord
100
AcDbLayerTableRecord
  2
17_NO_PRINT
 70
0
 62
7
  6
CONTINUOUS
370
-3
390
F
  0
LAYER
  5
20B
100
AcDbSymbolTableRecord
100
AcDbLayerTableRecord
  2
18_DATUM_CAMS_JOINTS
 70
0
 62
7
  6
CONTINUOUS
370
-3
390
F
  0
LAYER
  5
20C
100
AcDbSymbolTableRecord
100
AcDbLayerTableRecord
  2
19_DATUM_FUNCTIONAL
 70
0
 62
7
  6
CONTINUOUS
370
-3
390
F
  0
LAYER
  5
20D
100
AcDbSymbolTableRecord
100
AcDbLayerTableRecord
  2
20_DATUM_KINEMATIC_SCHEME
 70
0
 62
7
  6
CONTINUOUS
370
-3
390
F
  0
ENDTAB
  0
TABLE
  2
STYLE
  5
3
100
AcDbSymbolTable
 70
1
  0
STYLE
  5
11
100
AcDbSymbolTableRecord
100
AcDbTextStyleTableRecord
  2
STANDARD
 70
0
 40
0.0
 41
1.0
 50
0.0
 71
0
 42
0.2
  3
ARIAL.TTF
  4

  0
STYLE
  5
20E
100
AcDbSymbolTableRecord
100
AcDbTextStyleTableRecord
  2
TEXTSTYLE_1
 70
0
 40
0.0
 41
0.8
 50
0.0
 71
0
 42
0.2
  3
gdt
  4

  0
ENDTAB
  0
TABLE
  2
VIEW
  5
6
100
AcDbSymbolTable
 70
0
  0
ENDTAB
  0
TABLE
  2
UCS
  5
7
100
AcDbSymbolTable
 70
0
  0
ENDTAB
  0
TABLE
  2
APPID
  5
9
100
AcDbSymbolTable
 70
1
  0
APPID
  5
20F
100
AcDbSymbolTableRecord
100
AcDbRegAppTableRecord
  2
ACAD
 70
0
  0
ENDTAB
  0
TABLE
  2
BLOCK_RECORD
  5
1
100
AcDbSymbolTable
 70
0
  0
BLOCK_RECORD
  5
210
100
AcDbSymbolTableRecord
100
AcDbBlockTableRecord
  2
*Model_Space
  0
BLOCK_RECORD
  5
211
100
AcDbSymbolTableRecord
100
AcDbBlockTableRecord
  2
*Paper_Space
  0
BLOCK_RECORD
  5
212
100
AcDbSymbolTableRecord
100
AcDbBlockTableRecord
  2
_FILLED
  0
ENDTAB
  0
TABLE
  2
DIMSTYLE
  5
A
100
AcDbSymbolTable
 70
1
100
AcDbDimStyleTable
 71
0
  0
DIMSTYLE
105
213
100
AcDbSymbolTableRecord
100
AcDbDimStyleTableRecord
  2
STANDARD
 70
0
  3

  4

 40
1.0
 41
1.6755310868
 42
1.0
 43
0.38
 44
1.0
 45
0.0
 46
0.0
 47
0.01
 48
0.01
140
2.3457435215
141
0.09
142
0.0
143
25.4
144
1.0
145
0.0
146
1.0
147
0.625
 71
1
 72
0
 73
0
 74
0
 75
0
 76
0
 77
1
 78
8
 79
2
170
0
171
1
172
0
173
0
174
0
175
0
176
0
177
0
178
0
270
2
179
2
271
2
272
2
273
2
274
2
275
0
280
0
281
0
282
0
283
1
284
8
285
0
286
0
287
3
288
0
340
11
278
46
341
212
342
212
343
212
344
212
  0
ENDTAB
  0
ENDSEC
  0
SECTION
  2
BLOCKS
  0
BLOCK
  5
20
100
AcDbEntity
  8
0
100
AcDbBlockBegin
  2
*Model_Space
 70
0
 10
0.0
 20
0.0
 30
0.0
  3
*Model_Space
  1

  0
ENDBLK
  5
21
100
AcDbEntity
  8
0
100
AcDbBlockEnd
  0
BLOCK
  5
1C
100
AcDbEntity
  8
0
100
AcDbBlockBegin
  2
*Paper_Space
 70
0
 10
0.0
 20
0.0
 30
0.0
  3
*Paper_Space
  1

  0
ENDBLK
  5
1D
100
AcDbEntity
  8
0
100
AcDbBlockEnd
  0
BLOCK
  5
214
100
AcDbEntity
  8
0
100
AcDbBlockBegin
  2
_FILLED
 70
64
 10
0.0
 20
0.0
  3
_FILLED
  1

  0
SOLID
  5
215
100
AcDbEntity
  8
0
  6
BYBLOCK
 62
0
100
AcDbTrace
 10
0.0
 20
0.0
 11
-1.0
 21
0.25
 12
-1.0
 22
-0.25
 13
-1.0
 23
-0.25
  0
ENDBLK
  5
216
100
AcDbEntity
  8
0
  6
BYBLOCK
 62
0
100
AcDbBlockEnd
  0
ENDSEC
  0
SECTION
  2
ENTITIES
  0
LINE
  5
217
100
AcDbEntity
  8
0
100
AcDbLine
 62
7
  6
BYLAYER
 10
28.9971521298
 20
102.3907086328
 11
28.9971521298
 21
99.4963541644
  0
LINE
  5
218
100
AcDbEntity
  8
0
100
AcDbLine
 62
7
  6
BYLAYER
 10
28.9971521298
 20
95.5839801054
 11
28.9971521298
 21
75.6185744898
  0
LINE
  5
219
100
AcDbEntity
  8
0
100
AcDbLine
 62
7
  6
BYLAYER
 10
28.9971521298
 20
71.7853035949
 11
28.9971521298
 21
71.2819665401
  0
LINE
  5
21A
100
AcDbEntity
  8
0
100
AcDbLine
 62
7
  6
BYLAYER
 10
29.0160319553
 20
102.3420491628
 11
29.0160319553
 21
99.511584387
  0
LINE
  5
21B
100
AcDbEntity
  8
0
100
AcDbLine
 62
7
  6
BYLAYER
 10
29.0160319553
 20
71.7498105707
 11
29.0160319553
 21
71.292867262
  0
LINE
  5
21C
100
AcDbEntity
  8
0
100
AcDbLine
 62
7
  6
BYLAYER
 10
28.9971521298
 20
71.2819665401
 11
29.3835594958
 21
71.0588791903
  0
LINE
  5
21D
100
AcDbEntity
  8
0
100
AcDbLine
 62
7
  6
BYLAYER
 10
32.7753078852
 20
69.1006966447
 11
50.0886657843
 21
59.1050509328
  0
LINE
  5
21E
100
AcDbEntity
  8
0
100
AcDbLine
 62
7
  6
BYLAYER
 10
53.407177501
 20
57.1891506433
 11
55.9380326579
 21
55.7279937929
  0
LINE
  5
21F
100
AcDbEntity
  8
0
100
AcDbLine
 62
7
  6
BYLAYER
 10
29.0160319553
 20
71.292867262
 11
29.3668232564
 21
71.0903423916
  0
LINE
  5
220
100
AcDbEntity
  8
0
100
AcDbLine
 62
7
  6
BYLAYER
 10
53.4327885519
 20
57.1961651782
 11
55.9053319982
 21
55.7686738481
  0
LINE
  5
221
100
AcDbEntity
  8
0
100
AcDbLine
 62
7
  6
BYLAYER
 10
49.1061111379
 20
64.2269949328
 11
32.9415828211
 21
73.5593785812
  0
LINE
  5
222
100
AcDbEntity
  8
0
100
AcDbLine
 62
7
  6
BYLAYER
 10
32.9415828211
 20
73.5593785812
 11
32.9415828211
 21
92.2246238367
  0
LINE
  5
223
100
AcDbEntity
  8
0
100
AcDbLine
 62
7
  6
BYLAYER
 10
55.9380326579
 20
55.7279937929
 11
55.9053319982
 21
55.7686738481
  0
LINE
  5
224
100
AcDbEntity
  8
0
100
AcDbLine
 62
7
  6
BYLAYER
 10
49.1347212507
 20
64.1914035725
 11
49.1061111379
 21
64.2269949328
  0
LINE
  5
225
100
AcDbEntity
  8
0
100
AcDbLine
 62
7
  6
BYLAYER
 10
32.9415828211
 20
92.2246238367
 11
32.9250646854
 21
92.2671964616
  0
LINE
  5
226
100
AcDbEntity
  8
0
100
AcDbLine
 62
7
  6
BYLAYER
 10
29.0160319553
 20
102.3420491628
 11
28.9971521298
 21
102.3907086328
  0
LINE
  5
227
100
AcDbEntity
  8
0
100
AcDbLine
 62
7
  6
BYLAYER
 10
28.9971521298
 20
82.8662748585
 11
24.8500130666
 21
85.2605725468
  0
LINE
  5
228
100
AcDbEntity
  8
0
100
AcDbLine
 62
7
  6
BYLAYER
 10
57.8974931811
 20
66.1810326435
 11
64.0040927674
 21
62.6554654875
  0
LINE
  5
229
100
AcDbEntity
  8
0
100
AcDbLine
 62
7
  6
BYLAYER
 10
42.9095770094
 20
110.3815249713
 11
42.9095770094
 21
111.563647853
  0
LINE
  5
22A
100
AcDbEntity
  8
0
100
AcDbLine
 62
7
  6
BYLAYER
 10
70.7484868866
 20
63.5529008002
 11
70.2253026745
 21
63.8549545125
  0
LINE
  5
22B
100
AcDbEntity
  8
0
100
AcDbLine
 62
7
  6
BYLAYER
 10
23.1010312155
 20
93.3093395177
 11
17.30121501
 21
96.6577892131
  0
LINE
  5
22C
100
AcDbEntity
  8
0
100
AcDbLine
 62
7
  6
BYLAYER
 10
69.027705624
 20
66.7941615385
 11
73.3382465085
 21
64.3055258989
  0
LINE
  5
22D
100
AcDbEntity
  8
0
100
AcDbLine
 62
7
  6
BYLAYER
 10
45.8012074413
 20
113.2123827792
 11
45.8012074413
 21
113.2331214959
  0
LINE
  5
22E
100
AcDbEntity
  8
0
100
AcDbLine
 62
7
  6
BYLAYER
 10
98.4073287657
 20
143.6050985073
 11
45.8012074413
 21
113.2331214959
  0
LINE
  5
22F
100
AcDbEntity
  8
0
100
AcDbLine
 62
7
  6
BYLAYER
 10
45.7832470038
 20
113.2227520944
 11
42.9095770094
 21
111.563647853
  0
LINE
  5
230
100
AcDbEntity
  8
0
100
AcDbLine
 62
7
  6
BYLAYER
 10
45.8191680283
 20
113.2227521807
 11
45.8012075909
 21
113.2123827792
  0
LINE
  5
231
100
AcDbEntity
  8
0
100
AcDbLine
 62
7
  6
BYLAYER
 10
39.7665041918
 20
108.6083598304
 11
28.9971521298
 21
102.3907086328
  0
LINE
  5
232
100
AcDbEntity
  8
0
100
AcDbLine
 62
7
  6
BYLAYER
 10
43.3765522719
 20
110.6511316555
 11
39.8024256762
 21
108.5876210209
  0
LINE
  5
233
100
AcDbEntity
  8
0
100
AcDbLine
 62
7
  6
BYLAYER
 10
32.9415828211
 20
92.2246238367
 11
49.1061111379
 21
82.8922401884
  0
LINE
  5
234
100
AcDbEntity
  8
0
100
AcDbLine
 62
7
  6
BYLAYER
 10
78.0912671607
 20
67.2788371009
 11
82.1368724187
 21
64.9431586562
  0
LINE
  5
235
100
AcDbEntity
  8
0
100
AcDbLine
 62
7
  6
BYLAYER
 10
49.1061111379
 20
82.8922401884
 11
49.1061111379
 21
64.2269949328
  0
LINE
  5
236
100
AcDbEntity
  8
0
100
AcDbLine
 62
7
  6
BYLAYER
 10
29.1507267215
 20
99.6201331492
 11
30.2283529694
 21
100.2422972397
  0
LINE
  5
237
100
AcDbEntity
  8
0
100
AcDbLine
 62
7
  6
BYLAYER
 10
78.9388498577
 20
69.9194667361
 11
80.3573209305
 21
69.1005306071
  0
LINE
  5
238
100
AcDbEntity
  8
0
100
AcDbLine
 62
7
  6
BYLAYER
 10
27.7999295755
 20
101.4483049435
 11
22.000135282
 21
104.7967419884
  0
LINE
  5
239
100
AcDbEntity
  8
0
100
AcDbLine
 62
7
  6
BYLAYER
 10
73.7266258959
 20
74.9331143137
 11
78.0371667804
 21
72.4444786742
  0
LINE
  5
23A
100
AcDbEntity
  8
0
100
AcDbLine
 62
7
  6
BYLAYER
 10
55.9053319982
 20
86.8178557489
 11
52.3862016095
 21
88.8495806624
  0
LINE
  5
23B
100
AcDbEntity
  8
0
100
AcDbLine
 62
7
  6
BYLAYER
 10
32.535162344
 20
100.3103242494
 11
29.0160319553
 21
102.3420491628
  0
LINE
  5
23C
100
AcDbEntity
  8
0
100
AcDbLine
 62
7
  6
BYLAYER
 10
55.9380326579
 20
86.8367358855
 11
28.9971521298
 21
102.3907086328
  0
LINE
  5
23D
100
AcDbEntity
  8
0
100
AcDbLine
 62
7
  6
BYLAYER
 10
55.9053319982
 20
55.7686738481
 11
55.9053319982
 21
59.83222773
  0
LINE
  5
23E
100
AcDbEntity
  8
0
100
AcDbLine
 62
7
  6
BYLAYER
 10
55.9053319982
 20
82.754301867
 11
55.9053319982
 21
86.8178557489
  0
LINE
  5
23F
100
AcDbEntity
  8
0
100
AcDbLine
 62
7
  6
BYLAYER
 10
55.9380326579
 20
55.7279937929
 11
55.9380326579
 21
66.0927920347
  0
LINE
  5
240
100
AcDbEntity
  8
0
100
AcDbLine
 62
7
  6
BYLAYER
 10
55.9380326579
 20
76.4719376437
 11
55.9380326579
 21
86.8367358855
  0
LINE
  5
241
100
AcDbEntity
  8
0
100
AcDbLine
 62
7
  6
BYLAYER
 10
50.5428264924
 20
106.5345140661
 11
46.9507389993
 21
104.4606337645
  0
LINE
  5
242
100
AcDbEntity
  8
0
100
AcDbLine
 62
7
  6
BYLAYER
 10
67.6250062623
 20
85.2885084072
 11
68.6923058186
 21
84.8786195761
  0
LINE
  5
243
100
AcDbEntity
  8
0
100
AcDbLine
 62
7
  6
BYLAYER
 10
68.692310022
 20
84.878626857
 11
74.7989096084
 21
81.3530597009
  0
LINE
  5
244
100
AcDbEntity
  8
0
100
AcDbLine
 62
7
  6
BYLAYER
 10
80.3573209305
 20
78.4331532349
 11
80.3393603435
 21
78.4435225501
  0
LINE
  5
245
100
AcDbEntity
  8
0
100
AcDbLine
 62
7
  6
BYLAYER
 10
32.9607096646
 20
93.0210097246
 11
34.0383359125
 21
93.6431738151
  0
LINE
  5
246
100
AcDbEntity
  8
0
100
AcDbLine
 62
7
  6
BYLAYER
 10
70.299472213
 20
86.8326028268
 11
70.281511626
 21
86.842972142
  0
LINE
  5
247
100
AcDbEntity
  8
0
100
AcDbLine
 62
7
  6
BYLAYER
 10
63.1152374055
 20
99.2552542894
 11
63.1152374055
 21
99.2759934508
  0
LINE
  5
248
100
AcDbEntity
  8
0
100
AcDbLine
 62
7
  6
BYLAYER
 10
66.7073847199
 20
61.9456449905
 11
66.7073847199
 21
62.2534824508
  0
LINE
  5
249
100
AcDbEntity
  8
0
100
AcDbLine
 62
7
  6
BYLAYER
 10
66.7073847199
 20
85.3843076754
 11
66.7073847199
 21
93.0543870832
  0
LINE
  5
24A
100
AcDbEntity
  8
0
100
AcDbLine
 62
7
  6
BYLAYER
 10
66.7073847199
 20
93.0543870832
 11
59.5231499124
 21
97.2021131491
  0
LINE
  5
24B
100
AcDbEntity
  8
0
100
AcDbLine
 62
7
  6
BYLAYER
 10
46.9507389993
 20
104.4606337645
 11
39.7665041918
 21
108.6083598304
  0
LINE
  5
24C
100
AcDbEntity
  8
0
100
AcDbLine
 62
7
  6
BYLAYER
 10
70.281511626
 20
95.1178975386
 11
63.1152374055
 21
99.2552542894
  0
LINE
  5
24D
100
AcDbEntity
  8
0
100
AcDbLine
 62
7
  6
BYLAYER
 10
50.524865595
 20
106.5241443991
 11
43.3765522719
 21
110.6511316555
  0
LINE
  5
24E
100
AcDbEntity
  8
0
100
AcDbLine
 62
7
  6
BYLAYER
 10
63.1152374055
 20
99.2759934508
 11
50.5428264924
 21
106.5345140661
  0
LINE
  5
24F
100
AcDbEntity
  8
0
100
AcDbLine
 62
7
  6
BYLAYER
 10
70.281511626
 20
86.842972142
 11
70.281511626
 21
95.1178975386
  0
LINE
  5
250
100
AcDbEntity
  8
0
100
AcDbLine
 62
7
  6
BYLAYER
 10
70.299472213
 20
83.9507523247
 11
70.299472213
 21
86.8326028268
  0
LINE
  5
251
100
AcDbEntity
  8
0
100
AcDbLine
 62
7
  6
BYLAYER
 10
70.7484868866
 20
95.4912093486
 11
70.7484868866
 21
83.6915194466
  0
LINE
  5
252
100
AcDbEntity
  8
0
100
AcDbLine
 62
7
  6
BYLAYER
 10
70.7484868866
 20
64.2771817709
 11
70.7484868866
 21
63.5529008002
  0
LINE
  5
253
100
AcDbEntity
  8
0
100
AcDbLine
 62
7
  6
BYLAYER
 10
63.1152374055
 20
99.2759934508
 11
59.5231499124
 21
97.2021131491
  0
LINE
  5
254
100
AcDbEntity
  8
0
100
AcDbLine
 62
7
  6
BYLAYER
 10
63.1152374055
 20
99.2552542894
 11
59.5411108098
 21
97.1917436547
  0
LINE
  5
255
100
AcDbEntity
  8
0
100
AcDbLine
 62
7
  6
BYLAYER
 10
49.8054017931
 20
87.6954207097
 11
50.883028041
 21
88.3175848002
  0
LINE
  5
256
100
AcDbEntity
  8
0
100
AcDbLine
 62
7
  6
BYLAYER
 10
29.1507267215
 20
75.7700975449
 11
30.2283529694
 21
76.3922616354
  0
LINE
  5
257
100
AcDbEntity
  8
0
100
AcDbLine
 62
7
  6
BYLAYER
 10
42.9095770094
 20
111.563647853
 11
70.7484868884
 21
95.4912093476
  0
LINE
  5
258
100
AcDbEntity
  8
0
100
AcDbLine
 62
7
  6
BYLAYER
 10
73.6221568829
 20
97.1503135889
 11
73.6041962959
 21
97.1606829041
  0
LINE
  5
259
100
AcDbEntity
  8
0
100
AcDbLine
 62
7
  6
BYLAYER
 10
45.8012075909
 20
113.2123827792
 11
45.7832470038
 21
113.2227520944
  0
LINE
  5
25A
100
AcDbEntity
  8
0
100
AcDbLine
 62
7
  6
BYLAYER
 10
45.8012074413
 20
113.2331214959
 11
45.8191680283
 21
113.2227521807
  0
LINE
  5
25B
100
AcDbEntity
  8
0
100
AcDbLine
 62
7
  6
BYLAYER
 10
73.6221567333
 20
97.1710523056
 11
73.6401173203
 21
97.1606829904
  0
LINE
  5
25C
100
AcDbEntity
  8
0
100
AcDbLine
 62
7
  6
BYLAYER
 10
73.6221568811
 20
82.0324428351
 11
73.6221567315
 21
97.1710523066
  0
LINE
  5
25D
100
AcDbEntity
  8
0
100
AcDbLine
 62
7
  6
BYLAYER
 10
73.6401173203
 20
82.0220736053
 11
73.6401173203
 21
97.1606829904
  0
LINE
  5
25E
100
AcDbEntity
  8
0
100
AcDbLine
 62
7
  6
BYLAYER
 10
73.6221567315
 20
97.1710523066
 11
73.6041962941
 21
97.1606829051
  0
LINE
  5
25F
100
AcDbEntity
  8
0
100
AcDbLine
 62
7
  6
BYLAYER
 10
73.6221568811
 20
97.1503135899
 11
70.7484868866
 21
95.4912093486
  0
LINE
  5
260
100
AcDbEntity
  8
0
100
AcDbLine
 62
7
  6
BYLAYER
 10
73.6401173203
 20
97.1606829904
 11
126.2462386447
 21
127.5326600018
  0
LINE
  5
261
100
AcDbEntity
  8
0
100
AcDbLine
 62
7
  6
BYLAYER
 10
32.9415828211
 20
73.5593785812
 11
32.9250646854
 21
73.5498414378
  0
LINE
  5
262
100
AcDbEntity
  8
0
100
AcDbLine
 62
7
  6
BYLAYER
 10
29.0160319553
 20
71.292867262
 11
28.9971521298
 21
71.2819665401
  0
LINE
  5
263
100
AcDbEntity
  8
0
100
AcDbLine
 62
7
  6
BYLAYER
 10
49.1061111379
 20
82.8922401884
 11
49.1347212507
 21
82.9087585963
  0
LINE
  5
264
100
AcDbEntity
  8
0
100
AcDbLine
 62
7
  6
BYLAYER
 10
70.281511626
 20
95.1178975386
 11
55.9053319982
 21
86.8178557489
  0
LINE
  5
265
100
AcDbEntity
  8
0
100
AcDbLine
 62
7
  6
BYLAYER
 10
81.3451449911
 20
69.6708476901
 11
82.1368724187
 21
64.9431586562
  0
LINE
  5
266
100
AcDbEntity
  8
0
100
AcDbLine
 62
7
  6
BYLAYER
 10
76.9448093988
 20
73.0751372351
 11
76.9448093988
 21
75.8376151681
  0
LINE
  5
267
100
AcDbEntity
  8
0
100
AcDbLine
 62
7
  6
BYLAYER
 10
80.3573209305
 20
69.1005306071
 11
80.3573209305
 21
78.4331532349
  0
LINE
  5
268
100
AcDbEntity
  8
0
100
AcDbLine
 62
7
  6
BYLAYER
 10
53.6153847361
 20
81.0962972851
 11
54.6930109841
 21
81.7184613756
  0
LINE
  5
269
100
AcDbEntity
  8
0
100
AcDbLine
 62
7
  6
BYLAYER
 10
32.9607096646
 20
69.1709741202
 11
34.0383359125
 21
69.7931382107
  0
LINE
  5
26A
100
AcDbEntity
  8
0
100
AcDbLine
 62
7
  6
BYLAYER
 10
67.597587604
 20
85.293417135
 11
70.281511626
 21
86.842972142
  0
LINE
  5
26B
100
AcDbEntity
  8
0
100
AcDbLine
 62
7
  6
BYLAYER
 10
70.299472213
 20
86.8326028268
 11
67.6250062623
 21
85.2885084072
  0
LINE
  5
26C
100
AcDbEntity
  8
0
100
AcDbLine
 62
7
  6
BYLAYER
 10
49.8054017931
 20
63.8453851053
 11
50.883028041
 21
64.4675491958
  0
LINE
  5
26D
100
AcDbEntity
  8
0
100
AcDbLine
 62
7
  6
BYLAYER
 10
126.2462386447
 20
104.9477132425
 11
77.0132712382
 21
76.5232159288
  0
LINE
  5
26E
100
AcDbEntity
  8
0
100
AcDbLine
 62
7
  6
BYLAYER
 10
80.3573209323
 20
78.4331532339
 11
126.2462386447
 21
104.9269740811
  0
LINE
  5
26F
100
AcDbEntity
  8
0
100
AcDbLine
 62
7
  6
BYLAYER
 10
49.1347456103
 20
64.1914176154
 11
49.1347212507
 21
64.1914035725
  0
LINE
  5
270
100
AcDbEntity
  8
0
100
AcDbLine
 62
7
  6
BYLAYER
 10
53.6153847361
 20
57.2462616807
 11
54.6930109841
 21
57.8684257712
  0
LINE
  5
271
100
AcDbEntity
  8
0
100
AcDbLine
 62
7
  6
BYLAYER
 10
67.8670485647
 20
62.6566511913
 11
66.7073847199
 21
61.9871229549
  0
LINE
  5
272
100
AcDbEntity
  8
0
100
AcDbLine
 62
7
  6
BYLAYER
 10
66.7073847199
 20
61.9456449905
 11
55.9380326579
 21
55.7279937929
  0
LINE
  5
273
100
AcDbEntity
  8
0
100
AcDbLine
 62
7
  6
BYLAYER
 10
126.2462386524
 20
95.5943514599
 11
115.8291849244
 21
89.5800985861
  0
LINE
  5
274
100
AcDbEntity
  8
0
100
AcDbLine
 62
7
  6
BYLAYER
 10
81.3451449911
 20
69.6708476901
 11
80.3573209305
 21
69.1005306071
  0
LINE
  5
275
100
AcDbEntity
  8
0
100
AcDbLine
 62
7
  6
BYLAYER
 10
72.6951576885
 20
64.6768050028
 11
70.7484868866
 21
63.5529008002
  0
LINE
  5
276
100
AcDbEntity
  8
0
100
AcDbLine
 62
7
  6
BYLAYER
 10
82.1368724187
 20
64.9431586562
 11
115.8291849244
 21
84.3953082373
  0
LINE
  5
277
100
AcDbEntity
  8
0
100
AcDbLine
 62
7
  6
BYLAYER
 10
115.8291849244
 20
89.5800985861
 11
115.8291849244
 21
84.3953082373
  0
LINE
  5
278
100
AcDbEntity
  8
0
100
AcDbLine
 62
7
  6
BYLAYER
 10
126.246231167
 20
128.5695958485
 11
100.2033800125
 21
143.6051028244
  0
LINE
  5
279
100
AcDbEntity
  8
0
100
AcDbLine
 62
7
  6
BYLAYER
 10
126.246238656
 20
127.5326600083
 11
126.246238656
 21
104.9477132491
  0
LINE
  5
27A
100
AcDbEntity
  8
0
100
AcDbLine
 62
7
  6
BYLAYER
 10
126.2462386542
 20
104.9269740887
 11
126.2462386542
 21
95.5943514609
  0
LINE
  5
27B
100
AcDbEntity
  8
0
100
AcDbLine
 62
7
  6
BYLAYER
 10
126.6182093015
 20
105.4454398459
 11
126.6182093015
 21
96.1128172181
  0
LINE
  5
27C
100
AcDbEntity
  8
0
100
AcDbLine
 62
7
  6
BYLAYER
 10
126.6182093015
 20
105.4661790073
 11
126.6182093015
 21
128.0511257666
  0
ARC
  5
27D
100
AcDbEntity
  8
0
100
AcDbCircle
 62
7
  6
BYLAYER
 10
31.6523786112
 20
75.1013076329
 40
2.6448191037
100
AcDbArc
 50
163.2949219142
 51
164.1753240658
  0
ARC
  5
27E
100
AcDbEntity
  8
0
100
AcDbCircle
 62
7
  6
BYLAYER
 10
33.6307903065
 20
71.6656642153
 40
2.638417244
100
AcDbArc
 50
255.8547730881
 51
256.8931554618
  0
ARC
  5
27F
100
AcDbEntity
  8
0
100
AcDbCircle
 62
7
  6
BYLAYER
 10
33.6255865327
 20
95.4958247414
 40
2.6179511173
100
AcDbArc
 50
256.0525212133
 51
256.8577757221
  0
ARC
  5
280
100
AcDbEntity
  8
0
100
AcDbCircle
 62
7
  6
BYLAYER
 10
54.2777024351
 20
83.5602943086
 40
2.6068167833
100
AcDbArc
 50
256.02259536
 51
257.00975682
  0
ARC
  5
281
100
AcDbEntity
  8
0
100
AcDbCircle
 62
7
  6
BYLAYER
 10
52.2685681433
 20
87.0375161269
 40
2.6048878498
100
AcDbArc
 50
162.8743926374
 51
163.8630653148
  0
ARC
  5
282
100
AcDbEntity
  8
0
100
AcDbCircle
 62
7
  6
BYLAYER
 10
30.6766146153
 20
75.6249464475
 40
1.5238621643
100
AcDbArc
 50
127.71768316
 51
130.4141118279
  0
ARC
  5
283
100
AcDbEntity
  8
0
100
AcDbCircle
 62
7
  6
BYLAYER
 10
33.598145859
 20
70.5641613644
 40
1.5230029273
100
AcDbArc
 50
289.5666856681
 51
292.3997919352
  0
ARC
  5
284
100
AcDbEntity
  8
0
100
AcDbCircle
 62
7
  6
BYLAYER
 10
32.284533191
 20
70.3988888107
 40
1.4048572948
100
AcDbArc
 50
279.2778073448
 51
283.8686391887
  0
ARC
  5
285
100
AcDbEntity
  8
0
100
AcDbCircle
 62
7
  6
BYLAYER
 10
33.4013755377
 20
94.7458699671
 40
1.2734208138
100
AcDbArc
 50
300.0124091368
 51
303.8716640772
  0
ARC
  5
286
100
AcDbEntity
  8
0
100
AcDbCircle
 62
7
  6
BYLAYER
 10
51.5179249301
 20
63.3683094172
 40
1.2693957525
100
AcDbArc
 50
118.9731257538
 51
120.0097924709
  0
ARC
  5
287
100
AcDbEntity
  8
0
100
AcDbCircle
 62
7
  6
BYLAYER
 10
125.6638300111
 20
105.9358040772
 40
1.164876722
100
AcDbArc
 50
299.9983116403
 51
300.8652776807
  0
ARC
  5
288
100
AcDbEntity
  8
0
100
AcDbCircle
 62
7
  6
BYLAYER
 10
116.8604417135
 20
125.3082613436
 40
1.0512251509
100
AcDbArc
 50
316.5730741879
 51
318.3358774983
  0
ARC
  5
289
100
AcDbEntity
  8
0
100
AcDbCircle
 62
7
  6
BYLAYER
 10
53.6395268585
 20
113.0722665417
 40
1.0512251507
100
AcDbArc
 50
316.5730741878
 51
318.3358774985
  0
ARC
  5
28A
100
AcDbEntity
  8
0
100
AcDbCircle
 62
7
  6
BYLAYER
 10
126.1921549991
 20
105.4661797122
 40
0.4259832422
100
AcDbArc
 50
358.6034091728
 51
359.9999052487
  0
SPLINE
  5
28B
100
AcDbEntity
  8
0
100
AcDbSpline
 62
7
  6
BYLAYER
 70
0
 71
3
 72
9
 73
5
 74
0
 42
0.0000001
 43
0.0000001
 44
0.0000000001
 40
0.0
 40
0.0
 40
0.0
 40
0.0
 40
0.476306865
 40
1.0
 40
1.0
 40
1.0
 40
1.0
 10
117.8489650322
 20
125.0947892306
 30
0.0
 10
117.8489291785
 20
125.0098158837
 30
0.0
 10
117.8099168169
 20
124.8300227582
 30
0.0
 10
117.7078636915
 20
124.6792478312
 30
0.0
 10
117.6457642878
 20
124.6094460802
 30
0.0
  0
SPLINE
  5
28C
100
AcDbEntity
  8
0
100
AcDbSpline
 62
7
  6
BYLAYER
 70
0
 71
3
 72
9
 73
5
 74
0
 42
0.0000001
 43
0.0000001
 44
0.0000000001
 40
0.0
 40
0.0
 40
0.0
 40
0.0
 40
0.2432260175
 40
1.0
 40
1.0
 40
1.0
 40
1.0
 10
117.6238957644
 20
124.5856188108
 30
0.0
 10
117.6144407989
 20
124.5756277766
 30
0.0
 10
117.5747792157
 20
124.5352998618
 30
0.0
 10
117.5321432187
 20
124.4979313726
 30
0.0
 10
117.4986639437
 20
124.4712683653
 30
0.0
  0
SPLINE
  5
28D
100
AcDbEntity
  8
0
100
AcDbSpline
 62
7
  6
BYLAYER
 70
0
 71
3
 72
9
 73
5
 74
0
 42
0.0000001
 43
0.0000001
 44
0.0000000001
 40
0.0
 40
0.0
 40
0.0
 40
0.0
 40
0.2605686625
 40
1.0
 40
1.0
 40
1.0
 40
1.0
 10
114.5355854693
 20
124.4580878652
 30
0.0
 10
114.5182159203
 20
124.4714839788
 30
0.0
 10
114.4528085024
 20
124.5244747136
 30
0.0
 10
114.3925700293
 20
124.5840306012
 30
0.0
 10
114.3525569183
 20
124.631713431
 30
0.0
  0
SPLINE
  5
28E
100
AcDbEntity
  8
0
100
AcDbSpline
 62
7
  6
BYLAYER
 70
0
 71
3
 72
9
 73
5
 74
0
 42
0.0000001
 43
0.0000001
 44
0.0000000001
 40
0.0
 40
0.0
 40
0.0
 40
0.0
 40
0.5217327724
 40
1.0
 40
1.0
 40
1.0
 40
1.0
 10
114.3525569183
 20
124.631713431
 30
0.0
 10
114.2959717761
 20
124.6991448213
 30
0.0
 10
114.2035378202
 20
124.8441331656
 30
0.0
 10
114.1685226911
 20
125.0140951435
 30
0.0
 10
114.1685567392
 20
125.0947892234
 30
0.0
  0
SPLINE
  5
28F
100
AcDbEntity
  8
0
100
AcDbSpline
 62
7
  6
BYLAYER
 70
0
 71
3
 72
9
 73
5
 74
0
 42
0.0000001
 43
0.0000001
 44
0.0000000001
 40
0.0
 40
0.0
 40
0.0
 40
0.0
 40
0.476306865
 40
1.0
 40
1.0
 40
1.0
 40
1.0
 10
54.6280501769
 20
112.8587944289
 30
0.0
 10
54.6280143232
 20
112.773821082
 30
0.0
 10
54.5890019616
 20
112.5940279565
 30
0.0
 10
54.4869488362
 20
112.4432530295
 30
0.0
 10
54.4248494326
 20
112.3734512784
 30
0.0
  0
SPLINE
  5
290
100
AcDbEntity
  8
0
100
AcDbSpline
 62
7
  6
BYLAYER
 70
0
 71
3
 72
9
 73
5
 74
0
 42
0.0000001
 43
0.0000001
 44
0.0000000001
 40
0.0
 40
0.0
 40
0.0
 40
0.0
 40
0.2432260175
 40
1.0
 40
1.0
 40
1.0
 40
1.0
 10
54.4029809092
 20
112.3496240091
 30
0.0
 10
54.3935259437
 20
112.3396329749
 30
0.0
 10
54.3538643605
 20
112.29930506
 30
0.0
 10
54.3112283635
 20
112.2619365709
 30
0.0
 10
54.2777490884
 20
112.2352735636
 30
0.0
  0
SPLINE
  5
291
100
AcDbEntity
  8
0
100
AcDbSpline
 62
7
  6
BYLAYER
 70
0
 71
3
 72
9
 73
5
 74
0
 42
0.0000001
 43
0.0000001
 44
0.0000000001
 40
0.0
 40
0.0
 40
0.0
 40
0.0
 40
0.2605686625
 40
1.0
 40
1.0
 40
1.0
 40
1.0
 10
51.3146706141
 20
112.2220930634
 30
0.0
 10
51.2973010651
 20
112.235489177
 30
0.0
 10
51.2318936472
 20
112.2884799118
 30
0.0
 10
51.1716551741
 20
112.3480357995
 30
0.0
 10
51.1316420631
 20
112.3957186292
 30
0.0
  0
SPLINE
  5
292
100
AcDbEntity
  8
0
100
AcDbSpline
 62
7
  6
BYLAYER
 70
0
 71
3
 72
9
 73
5
 74
0
 42
0.0000001
 43
0.0000001
 44
0.0000000001
 40
0.0
 40
0.0
 40
0.0
 40
0.0
 40
0.5217327724
 40
1.0
 40
1.0
 40
1.0
 40
1.0
 10
51.1316420631
 20
112.3957186292
 30
0.0
 10
51.0750569209
 20
112.4631500195
 30
0.0
 10
50.982622965
 20
112.6081383639
 30
0.0
 10
50.9476078359
 20
112.7781003418
 30
0.0
 10
50.947641884
 20
112.8587944216
 30
0.0
  0
SPLINE
  5
293
100
AcDbEntity
  8
0
100
AcDbSpline
 62
7
  6
BYLAYER
 70
0
 71
3
 72
11
 73
7
 74
0
 42
0.0000001
 43
0.0000001
 44
0.0000000001
 40
0.0
 40
0.0
 40
0.0
 40
0.0
 40
0.217765166
 40
0.4514635617
 40
0.7110336347
 40
1.0
 40
1.0
 40
1.0
 40
1.0
 10
119.1830390288
 20
91.5117717968
 30
0.0
 10
119.1787138181
 20
91.3936920812
 30
0.0
 10
119.127350353
 20
91.1489568807
 30
0.0
 10
118.9342337047
 20
90.8093585828
 30
0.0
 10
118.636585973
 20
90.5018710093
 30
0.0
 10
118.389620771
 20
90.3324641419
 30
0.0
 10
118.253834263
 20
90.2540682329
 30
0.0
  0
SPLINE
  5
294
100
AcDbEntity
  8
0
100
AcDbSpline
 62
7
  6
BYLAYER
 70
0
 71
3
 72
11
 73
7
 74
0
 42
0.0000001
 43
0.0000001
 44
0.0000000001
 40
0.0
 40
0.0
 40
0.0
 40
0.0
 40
0.2372531815
 40
0.5000006935
 40
0.7627478297
 40
1.0
 40
1.0
 40
1.0
 40
1.0
 10
100.2033800125
 20
143.6051028244
 30
0.0
 10
100.0758785889
 20
143.67871414
 30
0.0
 10
99.7793946564
 20
143.7861473797
 30
0.0
 10
99.305352717
 20
143.8375094077
 30
0.0
 10
98.8313116564
 20
143.7861451147
 30
0.0
 10
98.5348291149
 20
143.6787104285
 30
0.0
 10
98.4073287657
 20
143.6050985073
 30
0.0
  0
SPLINE
  5
295
100
AcDbEntity
  8
0
100
AcDbSpline
 62
7
  6
BYLAYER
 70
0
 71
3
 72
12
 73
8
 74
0
 42
0.0000001
 43
0.0000001
 44
0.0000000001
 40
0.0
 40
0.0
 40
0.0
 40
0.0
 40
0.114277669
 40
0.2377172535
 40
0.5003115338
 40
0.7629273431
 40
1.0
 40
1.0
 40
1.0
 40
1.0
 10
54.4941017972
 20
112.3413775741
 30
0.0
 10
54.3773449142
 20
112.2739683586
 30
0.0
 10
54.1218327766
 20
112.1550674375
 30
0.0
 10
53.5558293954
 20
111.9829865421
 30
0.0
 10
52.7872240523
 20
111.8996428983
 30
0.0
 10
51.8872585095
 20
111.9974515738
 30
0.0
 10
51.32381809
 20
112.2015752604
 30
0.0
 10
51.0816028487
 20
112.3414189014
 30
0.0
  0
SPLINE
  5
296
100
AcDbEntity
  8
0
100
AcDbSpline
 62
7
  6
BYLAYER
 70
0
 71
3
 72
12
 73
8
 74
0
 42
0.0000001
 43
0.0000001
 44
0.0000000001
 40
0.0
 40
0.0
 40
0.0
 40
0.0
 40
0.114277669
 40
0.2377172535
 40
0.5003115338
 40
0.7629273431
 40
1.0
 40
1.0
 40
1.0
 40
1.0
 10
117.7150166524
 20
124.5773723758
 30
0.0
 10
117.5982597694
 20
124.5099631603
 30
0.0
 10
117.3427476318
 20
124.3910622393
 30
0.0
 10
116.7767442506
 20
124.2189813438
 30
0.0
 10
116.0081389075
 20
124.1356377
 30
0.0
 10
115.1081733647
 20
124.2334463756
 30
0.0
 10
114.5447329452
 20
124.4375700622
 30
0.0
 10
114.3025177039
 20
124.5774137032
 30
0.0
  0
SPLINE
  5
297
100
AcDbEntity
  8
0
100
AcDbSpline
 62
7
  6
BYLAYER
 70
0
 71
3
 72
17
 73
13
 74
0
 42
0.0000001
 43
0.0000001
 44
0.0000000001
 40
0.0
 40
0.0
 40
0.0
 40
0.0
 40
0.128688448
 40
0.2702796817
 40
0.4174325464
 40
0.5617749928
 40
0.6954478191
 40
0.8127119577
 40
0.8646769781
 40
0.912510124
 40
0.9571398159
 40
1.0
 40
1.0
 40
1.0
 40
1.0
 10
75.5977915442
 20
100.1574322554
 30
0.0
 10
75.4097723905
 20
100.0488799943
 30
0.0
 10
74.9840629084
 20
99.873233678
 30
0.0
 10
74.2902496486
 20
99.7344177385
 30
0.0
 10
73.5564137315
 20
99.7141033808
 30
0.0
 10
72.8424499825
 20
99.8144274353
 30
0.0
 10
72.206232732
 20
100.0269311753
 30
0.0
 10
71.7637430991
 20
100.2962799704
 30
0.0
 10
71.5040691552
 20
100.5568970044
 30
0.0
 10
71.3661139556
 20
100.7598000124
 30
0.0
 10
71.281105625
 20
100.973822011
 30
0.0
 10
71.2617573635
 20
101.1220557837
 30
0.0
 10
71.2617860854
 20
101.1943636005
 30
0.0
  0
SPLINE
  5
298
100
AcDbEntity
  8
0
100
AcDbSpline
 62
7
  6
BYLAYER
 70
0
 71
3
 72
17
 73
13
 74
0
 42
0.0000001
 43
0.0000001
 44
0.0000000001
 40
0.0
 40
0.0
 40
0.0
 40
0.0
 40
0.128688448
 40
0.2702796817
 40
0.4174325464
 40
0.5617749928
 40
0.6954478191
 40
0.8127119577
 40
0.8646769781
 40
0.912510124
 40
0.9571398159
 40
1.0
 40
1.0
 40
1.0
 40
1.0
 10
96.7909327756
 20
136.6576245428
 30
0.0
 10
96.6029136219
 20
136.5490722818
 30
0.0
 10
96.1772041398
 20
136.3734259654
 30
0.0
 10
95.48339088
 20
136.234610026
 30
0.0
 10
94.7495549629
 20
136.2142956682
 30
0.0
 10
94.0355912139
 20
136.3146197227
 30
0.0
 10
93.3993739634
 20
136.5271234628
 30
0.0
 10
92.9568843304
 20
136.7964722578
 30
0.0
 10
92.6972103866
 20
137.0570892918
 30
0.0
 10
92.559255187
 20
137.2599922998
 30
0.0
 10
92.4742468563
 20
137.4740142984
 30
0.0
 10
92.4548985949
 20
137.6222480712
 30
0.0
 10
92.4549273168
 20
137.6945558879
 30
0.0
  0
SPLINE
  5
299
100
AcDbEntity
  8
0
100
AcDbSpline
 62
7
  6
BYLAYER
 70
0
 71
3
 72
9
 73
5
 74
0
 42
0.0000001
 43
0.0000001
 44
0.0000000001
 40
0.0
 40
0.0
 40
0.0
 40
0.0
 40
0.2480464645
 40
1.0
 40
1.0
 40
1.0
 40
1.0
 10
29.1507381552
 20
75.7700777035
 30
0.0
 10
29.123311258
 20
75.7542493089
 30
0.0
 10
29.0151344848
 20
75.6863411753
 30
0.0
 10
28.9174508166
 20
75.6019788839
 30
0.0
 10
28.8517510713
 20
75.531985784
 30
0.0
  0
SPLINE
  5
29A
100
AcDbEntity
  8
0
100
AcDbSpline
 62
7
  6
BYLAYER
 70
0
 71
3
 72
11
 73
7
 74
0
 42
0.0000001
 43
0.0000001
 44
0.0000000001
 40
0.0
 40
0.0
 40
0.0
 40
0.0
 40
0.2202060677
 40
0.4578878052
 40
0.7175078943
 40
1.0
 40
1.0
 40
1.0
 40
1.0
 10
28.8517510713
 20
75.531985784
 30
0.0
 10
28.7704285957
 20
75.4453490379
 30
0.0
 10
28.6243239512
 20
75.2426787414
 30
0.0
 10
28.4715331083
 20
74.8842215281
 30
0.0
 10
28.3802319154
 20
74.4714379884
 30
0.0
 10
28.3616301402
 20
74.1783675715
 30
0.0
 10
28.3616301402
 20
74.0259331073
 30
0.0
  0
SPLINE
  5
29B
100
AcDbEntity
  8
0
100
AcDbSpline
 62
7
  6
BYLAYER
 70
0
 71
3
 72
17
 73
13
 74
0
 42
0.0000001
 43
0.0000001
 44
0.0000000001
 40
0.0
 40
0.0
 40
0.0
 40
0.0
 40
0.0428577153
 40
0.0874860392
 40
0.1353173407
 40
0.1872825844
 40
0.3045436677
 40
0.4382112185
 40
0.5825538419
 40
0.7297141485
 40
0.8713039961
 40
1.0
 40
1.0
 40
1.0
 40
1.0
 10
49.805412561
 20
63.8453664546
 30
0.0
 10
49.7114951232
 20
63.7911226979
 30
0.0
 10
49.533411255
 20
63.6548819876
 30
0.0
 10
49.319207946
 20
63.3838926143
 30
0.0
 10
49.1589862735
 20
63.0525695899
 30
0.0
 10
49.0152669064
 20
62.5197545438
 30
0.0
 10
48.9971431114
 20
61.7429653674
 30
0.0
 10
49.1982522702
 20
60.75711148
 30
0.0
 10
49.6033922649
 20
59.7543821592
 30
0.0
 10
50.1801822598
 20
58.8163187321
 30
0.0
 10
50.88086036
 20
58.0190705621
 30
0.0
 10
51.4283434702
 20
57.5977870246
 30
0.0
 10
51.7103932646
 20
57.4349491837
 30
0.0
  0
SPLINE
  5
29C
100
AcDbEntity
  8
0
100
AcDbSpline
 62
7
  6
BYLAYER
 70
0
 71
3
 72
11
 73
7
 74
0
 42
0.0000001
 43
0.0000001
 44
0.0000000001
 40
0.0
 40
0.0
 40
0.0
 40
0.0
 40
0.2177648073
 40
0.4508950352
 40
0.7103684932
 40
1.0
 40
1.0
 40
1.0
 40
1.0
 10
76.3416795993
 20
101.1943639433
 30
0.0
 10
76.3416411743
 20
101.0976284532
 30
0.0
 10
76.3060442598
 20
100.8959758704
 30
0.0
 10
76.1530922606
 20
100.6149968049
 30
0.0
 10
75.9113945486
 20
100.3610721831
 30
0.0
 10
75.7092146498
 20
100.2217620314
 30
0.0
 10
75.5977915442
 20
100.1574322554
 30
0.0
  0
SPLINE
  5
29D
100
AcDbEntity
  8
0
100
AcDbSpline
 62
7
  6
BYLAYER
 70
0
 71
3
 72
11
 73
7
 74
0
 42
0.0000001
 43
0.0000001
 44
0.0000000001
 40
0.0
 40
0.0
 40
0.0
 40
0.0
 40
0.2177793583
 40
0.450922273
 40
0.7102594722
 40
1.0
 40
1.0
 40
1.0
 40
1.0
 10
49.8054129451
 20
87.6954014097
 30
0.0
 10
49.6797233834
 20
87.62286393
 30
0.0
 10
49.4445948492
 20
87.4251440947
 30
0.0
 10
49.1942638312
 20
87.0158731984
 30
0.0
 10
49.0455333092
 20
86.5114574418
 30
0.0
 10
49.0163052118
 20
86.1443272943
 30
0.0
 10
49.0163052118
 20
85.9512562721
 30
0.0
  0
SPLINE
  5
29E
100
AcDbEntity
  8
0
100
AcDbSpline
 62
7
  6
BYLAYER
 70
0
 71
3
 72
17
 73
13
 74
0
 42
0.0000001
 43
0.0000001
 44
0.0000000001
 40
0.0
 40
0.0
 40
0.0
 40
0.0
 40
0.0428577153
 40
0.0874860392
 40
0.1353173407
 40
0.1872825844
 40
0.3045436677
 40
0.4382112185
 40
0.5825538419
 40
0.7297141485
 40
0.8713039961
 40
1.0
 40
1.0
 40
1.0
 40
1.0
 10
29.1507374895
 20
99.6201144985
 30
0.0
 10
29.0568200516
 20
99.5658707418
 30
0.0
 10
28.8787361834
 20
99.4296300315
 30
0.0
 10
28.6645328744
 20
99.1586406582
 30
0.0
 10
28.5043112019
 20
98.8273176338
 30
0.0
 10
28.3605918349
 20
98.2945025877
 30
0.0
 10
28.3424680398
 20
97.5177134113
 30
0.0
 10
28.5435771987
 20
96.5318595239
 30
0.0
 10
28.9487171933
 20
95.5291302031
 30
0.0
 10
29.5255071883
 20
94.591066776
 30
0.0
 10
30.2261852884
 20
93.793818606
 30
0.0
 10
30.7736683987
 20
93.3725350685
 30
0.0
 10
31.0557181931
 20
93.2096972276
 30
0.0
  0
SPLINE
  5
29F
100
AcDbEntity
  8
0
100
AcDbSpline
 62
7
  6
BYLAYER
 70
0
 71
3
 72
15
 73
11
 74
0
 42
0.0000001
 43
0.0000001
 44
0.0000000001
 40
0.0
 40
0.0
 40
0.0
 40
0.0
 40
0.112376972
 40
0.2329348687
 40
0.3597343731
 40
0.4904449591
 40
0.622451324
 40
0.7530699432
 40
0.8796996031
 40
1.0
 40
1.0
 40
1.0
 40
1.0
 10
22.6142355643
 20
90.2023740125
 30
0.0
 10
22.6142355643
 20
90.738324607
 30
0.0
 10
22.7013655265
 20
91.8501579319
 30
0.0
 10
23.0533540368
 20
93.5331578824
 30
0.0
 10
23.6212048981
 20
95.2483323099
 30
0.0
 10
24.3876653506
 20
96.9440705105
 30
0.0
 10
25.3299276376
 20
98.5697863005
 30
0.0
 10
26.4197400325
 20
100.076780314
 30
0.0
 10
27.6242221469
 20
101.4196464665
 30
0.0
 10
28.5077149018
 20
102.2035766704
 30
0.0
 10
28.9612803932
 20
102.554938259
 30
0.0
  0
SPLINE
  5
2A0
100
AcDbEntity
  8
0
100
AcDbSpline
 62
7
  6
BYLAYER
 70
0
 71
3
 72
9
 73
5
 74
0
 42
0.0000001
 43
0.0000001
 44
0.0000000001
 40
0.0
 40
0.0
 40
0.0
 40
0.0
 40
0.5220095963
 40
1.0
 40
1.0
 40
1.0
 40
1.0
 10
28.9612803932
 20
102.554938259
 30
0.0
 10
29.3847235885
 20
102.8829651406
 30
0.0
 10
30.2360496641
 20
103.4619862446
 30
0.0
 10
31.1669395753
 20
103.90688846
 30
0.0
 10
31.6276615949
 20
104.075095775
 30
0.0
  0
SPLINE
  5
2A1
100
AcDbEntity
  8
0
100
AcDbSpline
 62
7
  6
BYLAYER
 70
0
 71
3
 72
17
 73
13
 74
0
 42
0.0000001
 43
0.0000001
 44
0.0000000001
 40
0.0
 40
0.0
 40
0.0
 40
0.0
 40
0.0428582881
 40
0.0874873048
 40
0.1353190908
 40
0.1872844811
 40
0.3045449408
 40
0.4382122887
 40
0.5825562205
 40
0.7297166651
 40
0.8713058633
 40
1.0
 40
1.0
 40
1.0
 40
1.0
 10
73.3382602033
 20
64.3055496204
 30
0.0
 10
73.4541150756
 20
64.2386887079
 30
0.0
 10
73.7094536606
 20
64.1324939455
 30
0.0
 10
74.1309917681
 20
64.0708244165
 30
0.0
 10
74.5836792411
 20
64.1040152932
 30
0.0
 10
75.2413939609
 20
64.2790919536
 30
0.0
 10
76.0822387223
 20
64.7387602856
 30
0.0
 10
77.0111909573
 20
65.5615120096
 30
0.0
 10
77.8323489821
 20
66.6125924249
 30
0.0
 10
78.478590986
 20
67.8071273248
 30
0.0
 10
78.8980296986
 20
69.0471391297
 30
0.0
 10
79.0103875755
 20
69.8916781454
 30
0.0
 10
79.0103875755
 20
70.2933415656
 30
0.0
  0
SPLINE
  5
2A2
100
AcDbEntity
  8
0
100
AcDbSpline
 62
7
  6
BYLAYER
 70
0
 71
3
 72
17
 73
13
 74
0
 42
0.0000001
 43
0.0000001
 44
0.0000000001
 40
0.0
 40
0.0
 40
0.0
 40
0.0
 40
0.1286928115
 40
0.2702773548
 40
0.4174337914
 40
0.5617787692
 40
0.6954492473
 40
0.8127115079
 40
0.8646774835
 40
0.9125099387
 40
0.9571398506
 40
1.0
 40
1.0
 40
1.0
 40
1.0
 10
16.3279942149
 20
98.8089263217
 30
0.0
 10
16.3279942149
 20
99.2105855658
 30
0.0
 10
16.4403480377
 20
100.0551058417
 30
0.0
 10
16.8597691612
 20
101.2950899358
 30
0.0
 10
17.5059870299
 20
102.4896101859
 30
0.0
 10
18.3271326465
 20
103.5407009639
 30
0.0
 10
19.2560933578
 20
104.3634723343
 30
0.0
 10
20.0969490047
 20
104.8231544627
 30
0.0
 10
20.7546687288
 20
104.998248181
 30
0.0
 10
21.2073634865
 20
105.0314448801
 30
0.0
 10
21.6289108895
 20
104.9697703367
 30
0.0
 10
21.8842609121
 20
104.8635807271
 30
0.0
 10
22.0001212162
 20
104.7967176317
 30
0.0
  0
SPLINE
  5
2A3
100
AcDbEntity
  8
0
100
AcDbSpline
 62
7
  6
BYLAYER
 70
0
 71
3
 72
14
 73
10
 74
0
 42
0.0000001
 43
0.0000001
 44
0.0000000001
 40
0.0
 40
0.0
 40
0.0
 40
0.0
 40
0.0991868716
 40
0.2020619717
 40
0.3116800474
 40
0.4301145054
 40
0.5584065291
 40
0.6966963315
 40
1.0
 40
1.0
 40
1.0
 40
1.0
 10
64.0040927678
 20
62.6554654882
 30
0.0
 10
64.2559435062
 20
62.5100660957
 30
0.0
 10
64.8076322959
 20
62.2761835611
 30
0.0
 10
65.7161980174
 20
62.1247588713
 30
0.0
 10
66.6917500798
 20
62.1690025715
 30
0.0
 10
67.7144690582
 20
62.4048324057
 30
0.0
 10
68.7662323265
 20
62.8254102469
 30
0.0
 10
70.2260168256
 20
63.6453964488
 30
0.0
 10
71.2372595982
 20
64.4734494261
 30
0.0
 10
71.8746898937
 20
65.0935093988
 30
0.0
  0
SPLINE
  5
2A4
100
AcDbEntity
  8
0
100
AcDbSpline
 62
7
  6
BYLAYER
 70
0
 71
3
 72
9
 73
5
 74
0
 42
0.0000001
 43
0.0000001
 44
0.0000000001
 40
0.0
 40
0.0
 40
0.0
 40
0.0
 40
0.5168197893
 40
1.0
 40
1.0
 40
1.0
 40
1.0
 10
76.6229826755
 20
73.3179540175
 30
0.0
 10
76.7551893725
 20
73.8400892627
 30
0.0
 10
76.9578394672
 20
74.8648451353
 30
0.0
 10
77.0346871106
 20
75.9077034452
 30
0.0
 10
77.0346871106
 20
76.4112582353
 30
0.0
  0
SPLINE
  5
2A5
100
AcDbEntity
  8
0
100
AcDbSpline
 62
7
  6
BYLAYER
 70
0
 71
3
 72
12
 73
8
 74
0
 42
0.0000001
 43
0.0000001
 44
0.0000000001
 40
0.0
 40
0.0
 40
0.0
 40
0.0
 40
0.2895806583
 40
0.5486342668
 40
0.7816368593
 40
0.8918381618
 40
1.0
 40
1.0
 40
1.0
 40
1.0
 10
77.0346871106
 20
76.4112582353
 30
0.0
 10
77.0346871106
 20
76.9584135954
 30
0.0
 10
76.9517892489
 20
77.9987608664
 30
0.0
 10
76.5311294233
 20
79.4272964214
 30
0.0
 10
75.9266758146
 20
80.4129869818
 30
0.0
 10
75.3161459515
 20
81.0133226198
 30
0.0
 10
74.975900452
 20
81.2508786966
 30
0.0
 10
74.798909608
 20
81.3530597002
 30
0.0
  0
SPLINE
  5
2A6
100
AcDbEntity
  8
0
100
AcDbSpline
 62
7
  6
BYLAYER
 70
0
 71
3
 72
11
 73
7
 74
0
 42
0.0000001
 43
0.0000001
 44
0.0000000001
 40
0.0
 40
0.0
 40
0.0
 40
0.0
 40
0.2177799688
 40
0.4509245082
 40
0.710259858
 40
1.0
 40
1.0
 40
1.0
 40
1.0
 10
17.3012290759
 20
96.6578135698
 30
0.0
 10
17.1462102656
 20
96.7472750776
 30
0.0
 10
16.856213252
 20
96.9911284862
 30
0.0
 10
16.5474765471
 20
97.4959004816
 30
0.0
 10
16.3640375941
 20
98.1180119299
 30
0.0
 10
16.3279942149
 20
98.5708053585
 30
0.0
 10
16.3279942149
 20
98.8089263217
 30
0.0
  0
SPLINE
  5
2A7
100
AcDbEntity
  8
0
100
AcDbSpline
 62
7
  6
BYLAYER
 70
0
 71
3
 72
11
 73
7
 74
0
 42
0.0000001
 43
0.0000001
 44
0.0000000001
 40
0.0
 40
0.0
 40
0.0
 40
0.0
 40
0.2897465575
 40
0.5490789565
 40
0.7822219379
 40
1.0
 40
1.0
 40
1.0
 40
1.0
 10
79.0103875755
 20
70.2933415656
 30
0.0
 10
79.0103875755
 20
70.5314679734
 30
0.0
 10
78.9743446776
 20
70.9842650058
 30
0.0
 10
78.7909018049
 20
71.6063768917
 30
0.0
 10
78.4821685563
 20
72.1111461577
 30
0.0
 10
78.1921700993
 20
72.354993208
 30
0.0
 10
78.0371530856
 20
72.4444549526
 30
0.0
  0
SPLINE
  5
2A8
100
AcDbEntity
  8
0
100
AcDbSpline
 62
7
  6
BYLAYER
 70
0
 71
3
 72
9
 73
5
 74
0
 42
0.0000001
 43
0.0000001
 44
0.0000000001
 40
0.0
 40
0.0
 40
0.0
 40
0.0
 40
0.2559958571
 40
1.0
 40
1.0
 40
1.0
 40
1.0
 10
66.7073847199
 20
85.3843076754
 30
0.0
 10
66.7861969201
 20
85.3843265711
 30
0.0
 10
67.093988275
 20
85.3767359612
 30
0.0
 10
67.4012121121
 20
85.3373083068
 30
0.0
 10
67.6250062623
 20
85.2885084072
 30
0.0
  0
SPLINE
  5
2A9
100
AcDbEntity
  8
0
100
AcDbSpline
 62
7
  6
BYLAYER
 70
0
 71
3
 72
12
 73
8
 74
0
 42
0.0000001
 43
0.0000001
 44
0.0000000001
 40
0.0
 40
0.0
 40
0.0
 40
0.0
 40
0.1081618382
 40
0.2183631407
 40
0.4513657332
 40
0.7104193417
 40
1.0
 40
1.0
 40
1.0
 40
1.0
 10
24.850013067
 20
85.2605725475
 30
0.0
 10
24.673022223
 20
85.3627535511
 30
0.0
 10
24.3327767235
 20
85.6003096279
 30
0.0
 10
23.7222468604
 20
86.2006452659
 30
0.0
 10
23.1177932517
 20
87.1863358263
 30
0.0
 10
22.6971334261
 20
88.6148713814
 30
0.0
 10
22.6142355643
 20
89.6552186524
 30
0.0
 10
22.6142355643
 20
90.2023740125
 30
0.0
  0
SPLINE
  5
2AA
100
AcDbEntity
  8
0
100
AcDbSpline
 62
7
  6
BYLAYER
 70
0
 71
3
 72
9
 73
5
 74
0
 42
0.0000001
 43
0.0000001
 44
0.0000000001
 40
0.0
 40
0.0
 40
0.0
 40
0.0
 40
0.2558663375
 40
1.0
 40
1.0
 40
1.0
 40
1.0
 10
31.0557181931
 20
93.2096972276
 30
0.0
 10
31.0832486338
 20
93.1938028798
 30
0.0
 10
31.1916706979
 20
93.1331306359
 30
0.0
 10
31.3034245581
 20
93.0783550643
 30
0.0
 10
31.3882440894
 20
93.0415708147
 30
0.0
  0
SPLINE
  5
2AB
100
AcDbEntity
  8
0
100
AcDbSpline
 62
7
  6
BYLAYER
 70
0
 71
3
 72
9
 73
5
 74
0
 42
0.0000001
 43
0.0000001
 44
0.0000000001
 40
0.0
 40
0.0
 40
0.0
 40
0.0
 40
0.2640504815
 40
1.0
 40
1.0
 40
1.0
 40
1.0
 10
31.3882440894
 20
93.0415708147
 30
0.0
 10
31.443180082
 20
93.0177463579
 30
0.0
 10
31.6538059766
 20
92.9338308237
 30
0.0
 10
31.8759062862
 20
92.8767224696
 30
0.0
 10
32.0415456884
 20
92.8562992319
 30
0.0
  0
SPLINE
  5
2AC
100
AcDbEntity
  8
0
100
AcDbSpline
 62
7
  6
BYLAYER
 70
0
 71
3
 72
9
 73
5
 74
0
 42
0.0000001
 43
0.0000001
 44
0.0000000001
 40
0.0
 40
0.0
 40
0.0
 40
0.0
 40
0.5184464558
 40
1.0
 40
1.0
 40
1.0
 40
1.0
 10
32.0415456884
 20
92.8562992319
 30
0.0
 10
32.2038683245
 20
92.8362849494
 30
0.0
 10
32.5246402377
 20
92.8374318868
 30
0.0
 10
32.8291504471
 20
92.9450501304
 30
0.0
 10
32.9606988966
 20
93.0210283753
 30
0.0
  0
SPLINE
  5
2AD
100
AcDbEntity
  8
0
100
AcDbSpline
 62
7
  6
BYLAYER
 70
0
 71
3
 72
17
 73
13
 74
0
 42
0.0000001
 43
0.0000001
 44
0.0000000001
 40
0.0
 40
0.0
 40
0.0
 40
0.0
 40
0.1286958631
 40
0.2702808858
 40
0.4174358551
 40
0.561778136
 40
0.6954484112
 40
0.8127115101
 40
0.8646776714
 40
0.9125101075
 40
0.9571398584
 40
1.0
 40
1.0
 40
1.0
 40
1.0
 10
49.0163052118
 20
85.9512562721
 30
0.0
 10
49.0163052118
 20
85.6255777568
 30
0.0
 10
49.1074067923
 20
84.9408200285
 30
0.0
 10
49.4474911753
 20
83.9354224971
 30
0.0
 10
49.9714563067
 20
82.9669014929
 30
0.0
 10
50.6372534029
 20
82.1146775785
 30
0.0
 10
51.3904700133
 20
81.4475741388
 30
0.0
 10
52.0722534382
 20
81.074864007
 30
0.0
 10
52.6055457729
 20
80.9329018562
 30
0.0
 10
52.9725974221
 20
80.9059899949
 30
0.0
 10
53.3143920493
 20
80.9560027167
 30
0.0
 10
53.5214331044
 20
81.0421020142
 30
0.0
 10
53.6153735841
 20
81.096316585
 30
0.0
  0
SPLINE
  5
2AE
100
AcDbEntity
  8
0
100
AcDbSpline
 62
7
  6
BYLAYER
 70
0
 71
3
 72
11
 73
7
 74
0
 42
0.0000001
 43
0.0000001
 44
0.0000000001
 40
0.0
 40
0.0
 40
0.0
 40
0.0
 40
0.2177648073
 40
0.4508950352
 40
0.7103684932
 40
1.0
 40
1.0
 40
1.0
 40
1.0
 10
97.5348208307
 20
137.6945562307
 30
0.0
 10
97.5347824057
 20
137.5978207406
 30
0.0
 10
97.4991854912
 20
137.3961681579
 30
0.0
 10
97.346233492
 20
137.1151890923
 30
0.0
 10
97.10453578
 20
136.8612644706
 30
0.0
 10
96.9023558812
 20
136.7219543188
 30
0.0
 10
96.7909327756
 20
136.6576245428
 30
0.0
  0
SPLINE
  5
2AF
100
AcDbEntity
  8
0
100
AcDbSpline
 62
7
  6
BYLAYER
 70
0
 71
3
 72
11
 73
7
 74
0
 42
0.0000001
 43
0.0000001
 44
0.0000000001
 40
0.0
 40
0.0
 40
0.0
 40
0.0
 40
0.2177438688
 40
0.4508811915
 40
0.7104582955
 40
1.0
 40
1.0
 40
1.0
 40
1.0
 10
126.6181382412
 20
96.1128172186
 30
0.0
 10
126.6181382305
 20
96.064454904
 30
0.0
 10
126.6003787049
 20
95.9636240779
 30
0.0
 10
126.5238907888
 20
95.8231119981
 30
0.0
 10
126.402997098
 20
95.6961935821
 30
0.0
 10
126.3019320289
 20
95.626505854
 30
0.0
 10
126.2462386524
 20
95.5943514599
 30
0.0
  0
SPLINE
  5
2B0
100
AcDbEntity
  8
0
100
AcDbSpline
 62
7
  6
BYLAYER
 70
0
 71
3
 72
11
 73
7
 74
0
 42
0.0000001
 43
0.0000001
 44
0.0000000001
 40
0.0
 40
0.0
 40
0.0
 40
0.0
 40
0.2177434117
 40
0.4508805376
 40
0.7104578122
 40
1.0
 40
1.0
 40
1.0
 40
1.0
 10
126.6181382413
 20
128.051125766
 30
0.0
 10
126.6181382263
 20
128.0994886028
 30
0.0
 10
126.6003782951
 20
128.2003205933
 30
0.0
 10
126.5238887218
 20
128.3408340343
 30
0.0
 10
126.4029925775
 20
128.4677533927
 30
0.0
 10
126.3019255867
 20
128.5374413876
 30
0.0
 10
126.246231167
 20
128.5695958485
 30
0.0
  0
SPLINE
  5
2B1
100
AcDbEntity
  8
0
100
AcDbSpline
 62
7
  6
BYLAYER
 70
0
 71
3
 72
8
 73
4
 74
0
 42
0.0000001
 43
0.0000001
 44
0.0000000001
 40
0.0
 40
0.0
 40
0.0
 40
0.0
 40
1.0
 40
1.0
 40
1.0
 40
1.0
 10
126.6180116994
 20
105.4557973528
 30
0.0
 10
126.6171578353
 20
105.4207733664
 30
0.0
 10
126.6118847794
 20
105.385619016
 30
0.0
 10
126.6026562585
 20
105.3518219287
 30
0.0
  0
SPLINE
  5
2B2
100
AcDbEntity
  8
0
100
AcDbSpline
 62
7
  6
BYLAYER
 70
0
 71
3
 72
9
 73
5
 74
0
 42
0.0000001
 43
0.0000001
 44
0.0000000001
 40
0.0
 40
0.0
 40
0.0
 40
0.0
 40
0.4562589849
 40
1.0
 40
1.0
 40
1.0
 40
1.0
 10
126.6026562585
 20
105.3518219287
 30
0.0
 10
126.5806623524
 20
105.2712748972
 30
0.0
 10
126.481784698
 20
105.1084037208
 30
0.0
 10
126.3324127552
 20
104.9974655916
 30
0.0
 10
126.2462386447
 20
104.9477132425
 30
0.0
  0
SPLINE
  5
2B3
100
AcDbEntity
  8
0
100
AcDbSpline
 62
7
  6
BYLAYER
 70
0
 71
3
 72
10
 73
6
 74
0
 42
0.0000001
 43
0.0000001
 44
0.0000000001
 40
0.0
 40
0.0
 40
0.0
 40
0.0
 40
0.2288944409
 40
0.4751849449
 40
1.0
 40
1.0
 40
1.0
 40
1.0
 10
118.253834263
 20
90.2540682329
 30
0.0
 10
118.1111106591
 20
90.1716672136
 30
0.0
 10
117.8004551891
 20
90.0247772804
 30
0.0
 10
117.1134106477
 20
89.8052270038
 30
0.0
 10
116.5569651055
 20
89.7316075538
 30
0.0
 10
116.1792844096
 20
89.7198379023
 30
0.0
  0
SPLINE
  5
2B4
100
AcDbEntity
  8
0
100
AcDbSpline
 62
7
  6
BYLAYER
 70
0
 71
3
 72
10
 73
6
 74
0
 42
0.0000001
 43
0.0000001
 44
0.0000000001
 40
0.0
 40
0.0
 40
0.0
 40
0.0
 40
0.228464666
 40
0.4751112203
 40
1.0
 40
1.0
 40
1.0
 40
1.0
 10
28.3616301402
 20
74.0259331073
 30
0.0
 10
28.3616301402
 20
73.8123736947
 30
0.0
 10
28.4009186181
 20
73.3677536795
 30
0.0
 10
28.6136589615
 20
72.4556496016
 30
0.0
 10
28.9090679156
 20
71.7879055693
 30
0.0
 10
29.1549595934
 20
71.363324198
 30
0.0
  0
SPLINE
  5
2B5
100
AcDbEntity
  8
0
100
AcDbSpline
 62
7
  6
BYLAYER
 70
0
 71
3
 72
16
 73
12
 74
0
 42
0.0000001
 43
0.0000001
 44
0.0000000001
 40
0.0
 40
0.0
 40
0.0
 40
0.0
 40
0.1489222268
 40
0.2949948018
 40
0.4355701914
 40
0.5030897512
 40
0.5684113123
 40
0.6916284739
 40
0.8043178387
 40
0.9066015303
 40
1.0
 40
1.0
 40
1.0
 40
1.0
 10
29.1549595934
 20
71.363324198
 30
0.0
 10
29.2622665457
 20
71.1780371911
 30
0.0
 10
29.4927428862
 20
70.8210228661
 30
0.0
 10
29.8833440622
 20
70.3302557136
 30
0.0
 10
30.2410754833
 20
69.9662627177
 30
0.0
 10
30.5402935473
 20
69.7109546758
 30
0.0
 10
30.8346872111
 20
69.4895893469
 30
0.0
 10
31.2056653161
 20
69.2631510188
 30
0.0
 10
31.6569371115
 20
69.0758768831
 30
0.0
 10
32.0937148872
 20
68.9842189823
 30
0.0
 10
32.3785042568
 20
68.990715505
 30
0.0
 10
32.5110264831
 20
69.0124095257
 30
0.0
  0
SPLINE
  5
2B6
100
AcDbEntity
  8
0
100
AcDbSpline
 62
7
  6
BYLAYER
 70
0
 71
3
 72
9
 73
5
 74
0
 42
0.0000001
 43
0.0000001
 44
0.0000000001
 40
0.0
 40
0.0
 40
0.0
 40
0.0
 40
0.2532096969
 40
1.0
 40
1.0
 40
1.0
 40
1.0
 10
32.621272828
 20
69.0349861618
 30
0.0
 10
32.65128882
 20
69.042408582
 30
0.0
 10
32.7688070201
 20
69.0756964856
 30
0.0
 10
32.8817154871
 20
69.1254110383
 30
0.0
 10
32.9606985125
 20
69.1709934202
 30
0.0
  0
SPLINE
  5
2B7
100
AcDbEntity
  8
0
100
AcDbSpline
 62
7
  6
BYLAYER
 70
0
 71
3
 72
11
 73
7
 74
0
 42
0.0000001
 43
0.0000001
 44
0.0000000001
 40
0.0
 40
0.0
 40
0.0
 40
0.0
 40
0.2897475214
 40
0.5490818091
 40
0.782222901
 40
1.0
 40
1.0
 40
1.0
 40
1.0
 10
51.7103932646
 20
57.4349491837
 30
0.0
 10
51.8775983162
 20
57.3384154861
 30
0.0
 10
52.2101519384
 20
57.1801685301
 30
0.0
 10
52.7213435656
 20
57.0567754021
 30
0.0
 10
53.20093135
 20
57.0689347488
 30
0.0
 10
53.4897135885
 20
57.1737028504
 30
0.0
 10
53.6153739682
 20
57.2462803314
 30
0.0
  0
SPLINE
  5
2B8
100
AcDbEntity
  8
0
100
AcDbSpline
 62
7
  6
BYLAYER
 70
0
 71
3
 72
9
 73
5
 74
0
 42
0.0000001
 43
0.0000001
 44
0.0000000001
 40
0.0
 40
0.0
 40
0.0
 40
0.0
 40
0.5231798418
 40
1.0
 40
1.0
 40
1.0
 40
1.0
 10
33.0324826106
 20
69.0959806833
 30
0.0
 10
33.2171711175
 20
69.0529870938
 30
0.0
 10
33.5813358514
 20
69.0087379281
 30
0.0
 10
33.9453650706
 20
69.0712197699
 30
0.0
 10
34.1082052639
 20
69.1291082922
 30
0.0
  0
SPLINE
  5
2B9
100
AcDbEntity
  8
0
100
AcDbSpline
 62
7
  6
BYLAYER
 70
0
 71
3
 72
13
 73
9
 74
0
 42
0.0000001
 43
0.0000001
 44
0.0000000001
 40
0.0
 40
0.0
 40
0.0
 40
0.0
 40
0.1080943862
 40
0.2182276367
 40
0.332256806
 40
0.4517052419
 40
0.7105906194
 40
1.0
 40
1.0
 40
1.0
 40
1.0
 10
57.8975100176
 20
66.1810618816
 30
0.0
 10
57.7205124747
 20
66.2832275311
 30
0.0
 10
57.3802426572
 20
66.5206988655
 30
0.0
 10
56.9305845745
 20
66.9631661946
 30
0.0
 10
56.5439176862
 20
67.4884150075
 30
0.0
 10
56.1054275273
 20
68.3127610593
 30
0.0
 10
55.744098258
 20
69.5359200162
 30
0.0
 10
55.6617156788
 20
70.5756661642
 30
0.0
 10
55.6617156788
 20
71.1228341092
 30
0.0
  0
SPLINE
  5
2BA
100
AcDbEntity
  8
0
100
AcDbSpline
 62
7
  6
BYLAYER
 70
0
 71
3
 72
9
 73
5
 74
0
 42
0.0000001
 43
0.0000001
 44
0.0000000001
 40
0.0
 40
0.0
 40
0.0
 40
0.0
 40
0.5080960503
 40
1.0
 40
1.0
 40
1.0
 40
1.0
 10
34.4662442687
 20
70.1899374447
 30
0.0
 10
34.4090253014
 20
70.1086231803
 30
0.0
 10
34.2803601957
 20
69.9590471153
 30
0.0
 10
34.1216967516
 20
69.841272721
 30
0.0
 10
34.0383251414
 20
69.7931568669
 30
0.0
  0
SPLINE
  5
2BB
100
AcDbEntity
  8
0
100
AcDbSpline
 62
7
  6
BYLAYER
 70
0
 71
3
 72
9
 73
5
 74
0
 42
0.0000001
 43
0.0000001
 44
0.0000000001
 40
0.0
 40
0.0
 40
0.0
 40
0.0
 40
0.2384194233
 40
1.0
 40
1.0
 40
1.0
 40
1.0
 10
50.0510576364
 20
64.5324900351
 30
0.0
 10
50.0193647933
 20
64.4859745659
 30
0.0
 10
49.8954880716
 20
64.2847198832
 30
0.0
 10
49.8083766957
 20
64.0619880814
 30
0.0
 10
49.7599184172
 20
63.8888473665
 30
0.0
  0
SPLINE
  5
2BC
100
AcDbEntity
  8
0
100
AcDbSpline
 62
7
  6
BYLAYER
 70
0
 71
3
 72
9
 73
5
 74
0
 42
0.0000001
 43
0.0000001
 44
0.0000000001
 40
0.0
 40
0.0
 40
0.0
 40
0.0
 40
0.2451242351
 40
1.0
 40
1.0
 40
1.0
 40
1.0
 10
49.7599184172
 20
63.8888473665
 30
0.0
 10
49.753450936
 20
63.8657391516
 30
0.0
 10
49.7283319672
 20
63.7711162885
 30
0.0
 10
49.7081972419
 20
63.6751849517
 30
0.0
 10
49.695590611
 20
63.6023703556
 30
0.0
  0
SPLINE
  5
2BD
100
AcDbEntity
  8
0
100
AcDbSpline
 62
7
  6
BYLAYER
 70
0
 71
3
 72
15
 73
11
 74
0
 42
0.0000001
 43
0.0000001
 44
0.0000000001
 40
0.0
 40
0.0
 40
0.0
 40
0.0
 40
0.153390546
 40
0.3045023751
 40
0.449109364
 40
0.5835933362
 40
0.7054421657
 40
0.8138532418
 40
0.9104784962
 40
1.0
 40
1.0
 40
1.0
 40
1.0
 10
54.4895784484
 20
62.5974546276
 30
0.0
 10
54.635398286
 20
62.3761406826
 30
0.0
 10
54.8984853889
 20
61.9187766645
 30
0.0
 10
55.2027258346
 20
61.2028977125
 30
0.0
 10
55.4049120436
 20
60.4852713554
 30
0.0
 10
55.4963639862
 20
59.7958122107
 30
0.0
 10
55.472779805
 20
59.1623762032
 30
0.0
 10
55.3327301685
 20
58.6096697693
 30
0.0
 10
55.0768466716
 20
58.1609628806
 30
0.0
 10
54.8269425601
 20
57.9458073699
 30
0.0
 10
54.6929998492
 20
57.8684450735
 30
0.0
  0
SPLINE
  5
2BE
100
AcDbEntity
  8
0
100
AcDbSpline
 62
7
  6
BYLAYER
 70
0
 71
3
 72
9
 73
5
 74
0
 42
0.0000001
 43
0.0000001
 44
0.0000000001
 40
0.0
 40
0.0
 40
0.0
 40
0.0
 40
0.2665466526
 40
1.0
 40
1.0
 40
1.0
 40
1.0
 10
51.0816028487
 20
112.3414189014
 30
0.0
 10
51.0386952446
 20
112.3661917256
 30
0.0
 10
50.8808679056
 20
112.4642539957
 30
0.0
 10
50.7358920539
 20
112.5846590671
 30
0.0
 10
50.6448804065
 20
112.6861665552
 30
0.0
  0
SPLINE
  5
2BF
100
AcDbEntity
  8
0
100
AcDbSpline
 62
7
  6
BYLAYER
 70
0
 71
3
 72
15
 73
11
 74
0
 42
0.0000001
 43
0.0000001
 44
0.0000000001
 40
0.0
 40
0.0
 40
0.0
 40
0.0
 40
0.1268042497
 40
0.2441068077
 40
0.3560215111
 40
0.4678030496
 40
0.5846989129
 40
0.7109640387
 40
0.8492533921
 40
1.0
 40
1.0
 40
1.0
 40
1.0
 10
50.6448804065
 20
112.6861665552
 30
0.0
 10
50.5891100781
 20
112.7483685491
 30
0.0
 10
50.492264927
 20
112.8784771955
 30
0.0
 10
50.3977644586
 20
113.0957017589
 30
0.0
 10
50.3645270462
 20
113.3207673704
 30
0.0
 10
50.394588762
 20
113.5460051123
 30
0.0
 10
50.4861263438
 20
113.7638182249
 30
0.0
 10
50.6350522786
 20
113.9685907372
 30
0.0
 10
50.8366029621
 20
114.1556366309
 30
0.0
 10
50.9955791421
 20
114.2618892076
 30
0.0
 10
51.0815902637
 20
114.3115474554
 30
0.0
  0
SPLINE
  5
2C0
100
AcDbEntity
  8
0
100
AcDbSpline
 62
7
  6
BYLAYER
 70
0
 71
3
 72
11
 73
7
 74
0
 42
0.0000001
 43
0.0000001
 44
0.0000000001
 40
0.0
 40
0.0
 40
0.0
 40
0.0
 40
0.2177648073
 40
0.4508950352
 40
0.7103684932
 40
1.0
 40
1.0
 40
1.0
 40
1.0
 10
71.2617860854
 20
101.1943636005
 30
0.0
 10
71.2618245104
 20
101.2910990906
 30
0.0
 10
71.2974214249
 20
101.4927516733
 30
0.0
 10
71.4503734241
 20
101.7737307388
 30
0.0
 10
71.6920711362
 20
102.0276553606
 30
0.0
 10
71.8942510349
 20
102.1669655124
 30
0.0
 10
72.0056741405
 20
102.2312952884
 30
0.0
  0
SPLINE
  5
2C1
100
AcDbEntity
  8
0
100
AcDbSpline
 62
7
  6
BYLAYER
 70
0
 71
3
 72
14
 73
10
 74
0
 42
0.0000001
 43
0.0000001
 44
0.0000000001
 40
0.0
 40
0.0
 40
0.0
 40
0.0
 40
0.2946458737
 40
0.4330031255
 40
0.5635732244
 40
0.6855038528
 40
0.7984871584
 40
0.9029430208
 40
1.0
 40
1.0
 40
1.0
 40
1.0
 10
55.9380326579
 20
76.4719376437
 30
0.0
 10
55.5398027283
 20
75.4892828103
 30
0.0
 10
55.0660345225
 20
73.9937359364
 30
0.0
 10
54.7329949495
 20
71.9906599832
 30
0.0
 10
54.6471134575
 20
70.5837965207
 30
0.0
 10
54.7220903841
 20
69.2673102974
 30
0.0
 10
54.9573599069
 20
68.0643553181
 30
0.0
 10
55.3503003627
 20
66.9974701941
 30
0.0
 10
55.7264035641
 20
66.3706320014
 30
0.0
 10
55.9380326579
 20
66.0927920347
 30
0.0
  0
SPLINE
  5
2C2
100
AcDbEntity
  8
0
100
AcDbSpline
 62
7
  6
BYLAYER
 70
0
 71
3
 72
17
 73
13
 74
0
 42
0.0000001
 43
0.0000001
 44
0.0000000001
 40
0.0
 40
0.0
 40
0.0
 40
0.0
 40
0.1219322011
 40
0.2552197476
 40
0.3949110099
 40
0.5351362186
 40
0.6699626331
 40
0.7337386577
 40
0.7943355622
 40
0.8513737782
 40
0.9046483529
 40
1.0
 40
1.0
 40
1.0
 40
1.0
 10
55.6617156788
 20
71.1228341092
 30
0.0
 10
55.6617156788
 20
71.9134310099
 30
0.0
 10
55.851560081
 20
73.5701172067
 30
0.0
 10
56.5797316107
 20
76.0351351951
 30
0.0
 10
57.7216216295
 20
78.4698848357
 30
0.0
 10
59.2067524825
 20
80.7224797285
 30
0.0
 10
60.6819974868
 20
82.3643724462
 30
0.0
 10
61.9587512876
 20
83.460416232
 30
0.0
 10
62.9204090589
 20
84.1408336821
 30
0.0
 10
63.8895911677
 20
84.6841053762
 30
0.0
 10
65.1224998014
 20
85.1943705826
 30
0.0
 10
66.0891336441
 20
85.3841594461
 30
0.0
 10
66.7073847199
 20
85.3843076754
 30
0.0
  0
SPLINE
  5
2C3
100
AcDbEntity
  8
0
100
AcDbSpline
 62
7
  6
BYLAYER
 70
0
 71
3
 72
9
 73
5
 74
0
 42
0.0000001
 43
0.0000001
 44
0.0000000001
 40
0.0
 40
0.0
 40
0.0
 40
0.0
 40
0.4766089837
 40
1.0
 40
1.0
 40
1.0
 40
1.0
 10
29.6886834265
 20
76.7851825709
 30
0.0
 10
29.5560503707
 20
76.6722589665
 30
0.0
 10
29.3181571021
 20
76.3855601314
 30
0.0
 10
29.1741700066
 20
76.0447653441
 30
0.0
 10
29.1191787485
 20
75.8615487442
 30
0.0
  0
SPLINE
  5
2C4
100
AcDbEntity
  8
0
100
AcDbSpline
 62
7
  6
BYLAYER
 70
0
 71
3
 72
12
 73
8
 74
0
 42
0.0000001
 43
0.0000001
 44
0.0000000001
 40
0.0
 40
0.0
 40
0.0
 40
0.0
 40
0.2895806583
 40
0.5486342668
 40
0.7816368593
 40
0.8918381618
 40
1.0
 40
1.0
 40
1.0
 40
1.0
 10
61.7683152652
 20
67.5972669532
 30
0.0
 10
61.7683152652
 20
67.0501115931
 30
0.0
 10
61.8512131269
 20
66.0097643221
 30
0.0
 10
62.2718729525
 20
64.581228767
 30
0.0
 10
62.8763265612
 20
63.5955382066
 30
0.0
 10
63.4868564243
 20
62.9952025686
 30
0.0
 10
63.8271019238
 20
62.7576464918
 30
0.0
 10
64.0040927678
 20
62.6554654882
 30
0.0
  0
SPLINE
  5
2C5
100
AcDbEntity
  8
0
100
AcDbSpline
 62
7
  6
BYLAYER
 70
0
 71
3
 72
15
 73
11
 74
0
 42
0.0000001
 43
0.0000001
 44
0.0000000001
 40
0.0
 40
0.0
 40
0.0
 40
0.0
 40
0.1481704432
 40
0.2822095611
 40
0.4035283351
 40
0.5160946
 40
0.625897279
 40
0.7397436064
 40
0.8633052434
 40
1.0
 40
1.0
 40
1.0
 40
1.0
 10
67.165902761
 20
68.4322786133
 30
0.0
 10
67.165902761
 20
68.156690566
 30
0.0
 10
67.2042889661
 20
67.6303569333
 30
0.0
 10
67.3967470751
 20
66.8996403461
 30
0.0
 10
67.7200202749
 20
66.2881965914
 30
0.0
 10
68.1689905543
 20
65.8198453693
 30
0.0
 10
68.729180921
 20
65.5191069345
 30
0.0
 10
69.3732218994
 20
65.3997595335
 30
0.0
 10
70.0731283527
 20
65.4597351969
 30
0.0
 10
70.5383391562
 20
65.6061151877
 30
0.0
 10
70.7735637459
 20
65.7026003493
 30
0.0
  0
SPLINE
  5
2C6
100
AcDbEntity
  8
0
100
AcDbSpline
 62
7
  6
BYLAYER
 70
0
 71
3
 72
24
 73
20
 74
0
 42
0.0000001
 43
0.0000001
 44
0.0000000001
 40
0.0
 40
0.0
 40
0.0
 40
0.0
 40
0.0554493388
 40
0.1053556217
 40
0.1514293422
 40
0.1963359741
 40
0.2431145372
 40
0.2942375519
 40
0.3219473619
 40
0.3511775565
 40
0.4141369264
 40
0.482714882
 40
0.5558536282
 40
0.63210125
 40
0.7097660281
 40
0.7870633124
 40
0.8622176181
 40
0.9336479104
 40
1.0
 40
1.0
 40
1.0
 40
1.0
 10
75.5384161714
 20
74.0129255148
 30
0.0
 10
75.5003319732
 20
74.2741423414
 30
0.0
 10
75.383178254
 20
74.766230636
 30
0.0
 10
75.0538377166
 20
75.4164800667
 30
0.0
 10
74.5852505254
 20
75.9116552978
 30
0.0
 10
73.9938853618
 20
76.2221438721
 30
0.0
 10
73.312586182
 20
76.3324208037
 30
0.0
 10
72.7121965839
 20
76.2624403166
 30
0.0
 10
72.2169759514
 20
76.120829443
 30
0.0
 10
71.6858863476
 20
75.9091842476
 30
0.0
 10
71.0172832748
 20
75.5288911125
 30
0.0
 10
70.2483820746
 20
74.9257204952
 30
0.0
 10
69.5182134011
 20
74.1848305979
 30
0.0
 10
68.8514090399
 20
73.3312826871
 30
0.0
 10
68.270362305
 20
72.3939259388
 30
0.0
 10
67.7949190296
 20
71.4046091726
 30
0.0
 10
67.4409588913
 20
70.3967361391
 30
0.0
 10
67.2208412025
 20
69.4046801751
 30
0.0
 10
67.165902761
 20
68.7481619758
 30
0.0
 10
67.165902761
 20
68.4322786133
 30
0.0
  0
SPLINE
  5
2C7
100
AcDbEntity
  8
0
100
AcDbSpline
 62
7
  6
BYLAYER
 70
0
 71
3
 72
17
 73
13
 74
0
 42
0.0000001
 43
0.0000001
 44
0.0000000001
 40
0.0
 40
0.0
 40
0.0
 40
0.0
 40
0.1286928115
 40
0.2702773548
 40
0.4174337914
 40
0.5617787692
 40
0.6954492473
 40
0.8127115079
 40
0.8646774835
 40
0.9125099387
 40
0.9571398506
 40
1.0
 40
1.0
 40
1.0
 40
1.0
 10
68.0544848289
 20
68.945298647
 30
0.0
 10
68.0544848289
 20
69.3469578912
 30
0.0
 10
68.1668386516
 20
70.191478167
 30
0.0
 10
68.5862597751
 20
71.4314622611
 30
0.0
 10
69.2324776439
 20
72.6259825112
 30
0.0
 10
70.0536232604
 20
73.6770732892
 30
0.0
 10
70.9825839717
 20
74.4998446596
 30
0.0
 10
71.8234396187
 20
74.959526788
 30
0.0
 10
72.4811593427
 20
75.1346205064
 30
0.0
 10
72.9338541005
 20
75.1678172055
 30
0.0
 10
73.3554015034
 20
75.106142662
 30
0.0
 10
73.610751526
 20
74.9999530525
 30
0.0
 10
73.7266118301
 20
74.9330899571
 30
0.0
  0
SPLINE
  5
2C8
100
AcDbEntity
  8
0
100
AcDbSpline
 62
7
  6
BYLAYER
 70
0
 71
3
 72
11
 73
7
 74
0
 42
0.0000001
 43
0.0000001
 44
0.0000000001
 40
0.0
 40
0.0
 40
0.0
 40
0.0
 40
0.2897465575
 40
0.5490789565
 40
0.7822219379
 40
1.0
 40
1.0
 40
1.0
 40
1.0
 10
72.3650257134
 20
66.4566630075
 30
0.0
 10
72.3650257134
 20
66.2185365996
 30
0.0
 10
72.4010686113
 20
65.7657395673
 30
0.0
 10
72.584511484
 20
65.1436276813
 30
0.0
 10
72.8932447326
 20
64.6388584154
 30
0.0
 10
73.1832431896
 20
64.3950113651
 30
0.0
 10
73.3382602033
 20
64.3055496204
 30
0.0
  0
SPLINE
  5
2C9
100
AcDbEntity
  8
0
100
AcDbSpline
 62
7
  6
BYLAYER
 70
0
 71
3
 72
19
 73
15
 74
0
 42
0.0000001
 43
0.0000001
 44
0.0000000001
 40
0.0
 40
0.0
 40
0.0
 40
0.0
 40
0.1370677493
 40
0.2887689006
 40
0.4426400567
 40
0.5855545668
 40
0.6497572138
 40
0.708077228
 40
0.7606328944
 40
0.8084489233
 40
0.8535925758
 40
0.8988526683
 40
0.9469759289
 40
1.0
 40
1.0
 40
1.0
 40
1.0
 10
51.0815902637
 20
114.3115474554
 30
0.0
 10
51.3048220624
 20
114.4404296251
 30
0.0
 10
51.820272909
 20
114.634699985
 30
0.0
 10
52.6506205708
 20
114.746498768
 30
0.0
 10
53.4976667031
 20
114.6885175654
 30
0.0
 10
54.1569459857
 20
114.4970733277
 30
0.0
 10
54.5978595637
 20
114.2592320347
 30
0.0
 10
54.8591496501
 20
114.0558732506
 30
0.0
 10
55.0543502272
 20
113.8267679656
 30
0.0
 10
55.1753722441
 20
113.5773571227
 30
0.0
 10
55.2146512376
 20
113.3159792295
 30
0.0
 10
55.1686635164
 20
113.0551191278
 30
0.0
 10
55.0414566669
 20
112.8071259537
 30
0.0
 10
54.9143201069
 20
112.6631678745
 30
0.0
 10
54.8414850745
 20
112.5950632919
 30
0.0
  0
SPLINE
  5
2CA
100
AcDbEntity
  8
0
100
AcDbSpline
 62
7
  6
BYLAYER
 70
0
 71
3
 72
9
 73
5
 74
0
 42
0.0000001
 43
0.0000001
 44
0.0000000001
 40
0.0
 40
0.0
 40
0.0
 40
0.0
 40
0.2386288742
 40
1.0
 40
1.0
 40
1.0
 40
1.0
 10
54.8414850745
 20
112.5950632919
 30
0.0
 10
54.8164617955
 20
112.5716652111
 30
0.0
 10
54.7083697198
 20
112.4770812097
 30
0.0
 10
54.588762812
 20
112.3960298102
 30
0.0
 10
54.4941017972
 20
112.3413775741
 30
0.0
  0
SPLINE
  5
2CB
100
AcDbEntity
  8
0
100
AcDbSpline
 62
7
  6
BYLAYER
 70
0
 71
3
 72
9
 73
5
 74
0
 42
0.0000001
 43
0.0000001
 44
0.0000000001
 40
0.0
 40
0.0
 40
0.0
 40
0.0
 40
0.2665466526
 40
1.0
 40
1.0
 40
1.0
 40
1.0
 10
114.3025177039
 20
124.5774137032
 30
0.0
 10
114.2596100998
 20
124.6021865273
 30
0.0
 10
114.1017827608
 20
124.7002487974
 30
0.0
 10
113.9568069092
 20
124.8206538688
 30
0.0
 10
113.8657952617
 20
124.9221613569
 30
0.0
  0
SPLINE
  5
2CC
100
AcDbEntity
  8
0
100
AcDbSpline
 62
7
  6
BYLAYER
 70
0
 71
3
 72
15
 73
11
 74
0
 42
0.0000001
 43
0.0000001
 44
0.0000000001
 40
0.0
 40
0.0
 40
0.0
 40
0.0
 40
0.1268042497
 40
0.2441068077
 40
0.3560215111
 40
0.4678030496
 40
0.5846989129
 40
0.7109640387
 40
0.8492533921
 40
1.0
 40
1.0
 40
1.0
 40
1.0
 10
113.8657952617
 20
124.9221613569
 30
0.0
 10
113.8100249333
 20
124.9843633509
 30
0.0
 10
113.7131797822
 20
125.1144719972
 30
0.0
 10
113.6186793138
 20
125.3316965606
 30
0.0
 10
113.5854419014
 20
125.5567621722
 30
0.0
 10
113.6155036172
 20
125.781999914
 30
0.0
 10
113.707041199
 20
125.9998130267
 30
0.0
 10
113.8559671338
 20
126.2045855389
 30
0.0
 10
114.0575178174
 20
126.3916314327
 30
0.0
 10
114.2164939973
 20
126.4978840094
 30
0.0
 10
114.3025051189
 20
126.5475422571
 30
0.0
  0
SPLINE
  5
2CD
100
AcDbEntity
  8
0
100
AcDbSpline
 62
7
  6
BYLAYER
 70
0
 71
3
 72
19
 73
15
 74
0
 42
0.0000001
 43
0.0000001
 44
0.0000000001
 40
0.0
 40
0.0
 40
0.0
 40
0.0
 40
0.1370677493
 40
0.2887689006
 40
0.4426400567
 40
0.5855545668
 40
0.6497572138
 40
0.708077228
 40
0.7606328944
 40
0.8084489233
 40
0.8535925758
 40
0.8988526683
 40
0.9469759289
 40
1.0
 40
1.0
 40
1.0
 40
1.0
 10
114.3025051189
 20
126.5475422571
 30
0.0
 10
114.5257369176
 20
126.6764244269
 30
0.0
 10
115.0411877642
 20
126.8706947868
 30
0.0
 10
115.8715354261
 20
126.9824935698
 30
0.0
 10
116.7185815583
 20
126.9245123671
 30
0.0
 10
117.3778608409
 20
126.7330681295
 30
0.0
 10
117.8187744189
 20
126.4952268365
 30
0.0
 10
118.0800645053
 20
126.2918680523
 30
0.0
 10
118.2752650824
 20
126.0627627673
 30
0.0
 10
118.3962870994
 20
125.8133519245
 30
0.0
 10
118.4355660928
 20
125.5519740312
 30
0.0
 10
118.3895783716
 20
125.2911139296
 30
0.0
 10
118.2623715221
 20
125.0431207555
 30
0.0
 10
118.1352349621
 20
124.8991626762
 30
0.0
 10
118.0623999297
 20
124.8310580936
 30
0.0
  0
SPLINE
  5
2CE
100
AcDbEntity
  8
0
100
AcDbSpline
 62
7
  6
BYLAYER
 70
0
 71
3
 72
9
 73
5
 74
0
 42
0.0000001
 43
0.0000001
 44
0.0000000001
 40
0.0
 40
0.0
 40
0.0
 40
0.0
 40
0.2386288742
 40
1.0
 40
1.0
 40
1.0
 40
1.0
 10
118.0623999297
 20
124.8310580936
 30
0.0
 10
118.0373766507
 20
124.8076600129
 30
0.0
 10
117.929284575
 20
124.7130760114
 30
0.0
 10
117.8096776673
 20
124.632024612
 30
0.0
 10
117.7150166524
 20
124.5773723758
 30
0.0
  0
SPLINE
  5
2CF
100
AcDbEntity
  8
0
100
AcDbSpline
 62
7
  6
BYLAYER
 70
0
 71
3
 72
17
 73
13
 74
0
 42
0.0000001
 43
0.0000001
 44
0.0000000001
 40
0.0
 40
0.0
 40
0.0
 40
0.0
 40
0.0428576997
 40
0.0874859834
 40
0.1353172026
 40
0.187282318
 40
0.3045430419
 40
0.4382102002
 40
0.5825525592
 40
0.7297128878
 40
0.8713031562
 40
1.0
 40
1.0
 40
1.0
 40
1.0
 10
50.883038812
 20
88.317566144
 30
0.0
 10
50.9769735865
 20
88.371778266
 30
0.0
 10
51.1840021631
 20
88.4578815373
 30
0.0
 10
51.5257848357
 20
88.507891091
 30
0.0
 10
51.8928265466
 20
88.4809853617
 30
0.0
 10
52.4261123346
 20
88.3390434899
 30
0.0
 10
53.1078865159
 20
87.966348172
 30
0.0
 10
53.8610992432
 20
87.2992620675
 30
0.0
 10
54.5269130754
 20
86.4470435558
 30
0.0
 10
55.0509027758
 20
85.4785043385
 30
0.0
 10
55.3910027415
 20
84.4730804058
 30
0.0
 10
55.4821075653
 20
83.7883068532
 30
0.0
 10
55.4821075653
 20
83.4626258131
 30
0.0
  0
SPLINE
  5
2D0
100
AcDbEntity
  8
0
100
AcDbSpline
 62
7
  6
BYLAYER
 70
0
 71
3
 72
17
 73
13
 74
0
 42
0.0000001
 43
0.0000001
 44
0.0000000001
 40
0.0
 40
0.0
 40
0.0
 40
0.0
 40
0.128688448
 40
0.2702796817
 40
0.4174325464
 40
0.5617749928
 40
0.6954478191
 40
0.8127119577
 40
0.8646769781
 40
0.912510124
 40
0.9571398159
 40
1.0
 40
1.0
 40
1.0
 40
1.0
 10
72.0056741405
 20
102.2312952884
 30
0.0
 10
72.1936932942
 20
102.3398475494
 30
0.0
 10
72.6194027763
 20
102.5154938658
 30
0.0
 10
73.3132160361
 20
102.6543098052
 30
0.0
 10
74.0470519532
 20
102.674624163
 30
0.0
 10
74.7610157022
 20
102.5743001084
 30
0.0
 10
75.3972329527
 20
102.3617963684
 30
0.0
 10
75.8397225857
 20
102.0924475734
 30
0.0
 10
76.0993965295
 20
101.8318305394
 30
0.0
 10
76.2373517291
 20
101.6289275314
 30
0.0
 10
76.3223600598
 20
101.4149055328
 30
0.0
 10
76.3417083212
 20
101.26667176
 30
0.0
 10
76.3416795993
 20
101.1943639433
 30
0.0
  0
SPLINE
  5
2D1
100
AcDbEntity
  8
0
100
AcDbSpline
 62
7
  6
BYLAYER
 70
0
 71
3
 72
17
 73
13
 74
0
 42
0.0000001
 43
0.0000001
 44
0.0000000001
 40
0.0
 40
0.0
 40
0.0
 40
0.0
 40
0.128688448
 40
0.2702796817
 40
0.4174325464
 40
0.5617749928
 40
0.6954478191
 40
0.8127119577
 40
0.8646769781
 40
0.912510124
 40
0.9571398159
 40
1.0
 40
1.0
 40
1.0
 40
1.0
 10
93.1988153719
 20
138.7314875758
 30
0.0
 10
93.3868345256
 20
138.8400398368
 30
0.0
 10
93.8125440077
 20
139.0156861532
 30
0.0
 10
94.5063572675
 20
139.1545020926
 30
0.0
 10
95.2401931846
 20
139.1748164504
 30
0.0
 10
95.9541569336
 20
139.0744923959
 30
0.0
 10
96.5903741841
 20
138.8619886558
 30
0.0
 10
97.0328638171
 20
138.5926398608
 30
0.0
 10
97.2925377609
 20
138.3320228268
 30
0.0
 10
97.4304929605
 20
138.1291198188
 30
0.0
 10
97.5155012911
 20
137.9150978202
 30
0.0
 10
97.5348495526
 20
137.7668640474
 30
0.0
 10
97.5348208307
 20
137.6945562307
 30
0.0
  0
SPLINE
  5
2D2
100
AcDbEntity
  8
0
100
AcDbSpline
 62
7
  6
BYLAYER
 70
0
 71
3
 72
9
 73
5
 74
0
 42
0.0000001
 43
0.0000001
 44
0.0000000001
 40
0.0
 40
0.0
 40
0.0
 40
0.0
 40
0.2586686794
 40
1.0
 40
1.0
 40
1.0
 40
1.0
 10
33.0303455527
 20
92.9464412418
 30
0.0
 10
33.0699793246
 20
92.9371883518
 30
0.0
 10
33.2239997883
 20
92.9050271643
 30
0.0
 10
33.3813237842
 20
92.887871206
 30
0.0
 10
33.497941367
 20
92.8854462202
 30
0.0
  0
SPLINE
  5
2D3
100
AcDbEntity
  8
0
100
AcDbSpline
 62
7
  6
BYLAYER
 70
0
 71
3
 72
10
 73
6
 74
0
 42
0.0000001
 43
0.0000001
 44
0.0000000001
 40
0.0
 40
0.0
 40
0.0
 40
0.0
 40
0.2281318611
 40
0.4753421732
 40
1.0
 40
1.0
 40
1.0
 40
1.0
 10
32.133344441
 20
100.0536097367
 30
0.0
 10
32.3334155659
 20
99.938101232
 30
0.0
 10
32.7278204878
 20
99.6573078647
 30
0.0
 10
33.4572910846
 20
98.9517757033
 30
0.0
 10
33.9075583466
 20
98.2993660062
 30
0.0
 10
34.1560489315
 20
97.8297551473
 30
0.0
  0
SPLINE
  5
2D4
100
AcDbEntity
  8
0
100
AcDbSpline
 62
7
  6
BYLAYER
 70
0
 71
3
 72
11
 73
7
 74
0
 42
0.0000001
 43
0.0000001
 44
0.0000000001
 40
0.0
 40
0.0
 40
0.0
 40
0.0
 40
0.2177793583
 40
0.450922273
 40
0.7102594722
 40
1.0
 40
1.0
 40
1.0
 40
1.0
 10
53.6153735841
 20
81.096316585
 30
0.0
 10
53.7410631458
 20
81.1688540647
 30
0.0
 10
53.97619168
 20
81.3665739
 30
0.0
 10
54.226522698
 20
81.7758447963
 30
0.0
 10
54.37525322
 20
82.280260553
 30
0.0
 10
54.4044813174
 20
82.6473907004
 30
0.0
 10
54.4044813174
 20
82.8404617226
 30
0.0
  0
SPLINE
  5
2D5
100
AcDbEntity
  8
0
100
AcDbSpline
 62
7
  6
BYLAYER
 70
0
 71
3
 72
11
 73
7
 74
0
 42
0.0000001
 43
0.0000001
 44
0.0000000001
 40
0.0
 40
0.0
 40
0.0
 40
0.0
 40
0.2897475214
 40
0.5490818091
 40
0.782222901
 40
1.0
 40
1.0
 40
1.0
 40
1.0
 10
31.0557181931
 20
99.4314456462
 30
0.0
 10
30.8885131415
 20
99.5279793438
 30
0.0
 10
30.5559595192
 20
99.6862262998
 30
0.0
 10
30.044767892
 20
99.8096194278
 30
0.0
 10
29.5651801077
 20
99.7974600811
 30
0.0
 10
29.2763978691
 20
99.6926919795
 30
0.0
 10
29.1507374895
 20
99.6201144985
 30
0.0
  0
SPLINE
  5
2D6
100
AcDbEntity
  8
0
100
AcDbSpline
 62
7
  6
BYLAYER
 70
0
 71
3
 72
9
 73
5
 74
0
 42
0.0000001
 43
0.0000001
 44
0.0000000001
 40
0.0
 40
0.0
 40
0.0
 40
0.0
 40
0.5229853345
 40
1.0
 40
1.0
 40
1.0
 40
1.0
 10
53.6917287936
 20
81.0201902491
 30
0.0
 10
53.8767880284
 20
80.9775060819
 30
0.0
 10
54.2417918778
 20
80.934010809
 30
0.0
 10
54.6063262015
 20
80.9980101797
 30
0.0
 10
54.7693042791
 20
81.0567021699
 30
0.0
  0
SPLINE
  5
2D7
100
AcDbEntity
  8
0
100
AcDbSpline
 62
7
  6
BYLAYER
 70
0
 71
3
 72
11
 73
7
 74
0
 42
0.0000001
 43
0.0000001
 44
0.0000000001
 40
0.0
 40
0.0
 40
0.0
 40
0.0
 40
0.2177648073
 40
0.4508950352
 40
0.7103684932
 40
1.0
 40
1.0
 40
1.0
 40
1.0
 10
92.4549273168
 20
137.6945558879
 30
0.0
 10
92.4549657418
 20
137.791291378
 30
0.0
 10
92.4905626563
 20
137.9929439607
 30
0.0
 10
92.6435146555
 20
138.2739230263
 30
0.0
 10
92.8852123675
 20
138.527847648
 30
0.0
 10
93.0873922663
 20
138.6671577998
 30
0.0
 10
93.1988153719
 20
138.7314875758
 30
0.0
  0
SPLINE
  5
2D8
100
AcDbEntity
  8
0
100
AcDbSpline
 62
7
  6
BYLAYER
 70
0
 71
3
 72
11
 73
7
 74
0
 42
0.0000001
 43
0.0000001
 44
0.0000000001
 40
0.0
 40
0.0
 40
0.0
 40
0.0
 40
0.289748519
 40
0.5490831644
 40
0.7822238581
 40
1.0
 40
1.0
 40
1.0
 40
1.0
 10
55.4821075653
 20
83.4626258131
 30
0.0
 10
55.4821075653
 20
83.2695493159
 30
0.0
 10
55.4528792814
 20
82.9024149299
 30
0.0
 10
55.3041450062
 20
82.3979980386
 30
0.0
 10
55.0538165013
 20
81.9887306619
 30
0.0
 10
54.8186875272
 20
81.7910173434
 30
0.0
 10
54.693000213
 20
81.7184800317
 30
0.0
  0
SPLINE
  5
2D9
100
AcDbEntity
  8
0
100
AcDbSpline
 62
7
  6
BYLAYER
 70
0
 71
3
 72
9
 73
5
 74
0
 42
0.0000001
 43
0.0000001
 44
0.0000000001
 40
0.0
 40
0.0
 40
0.0
 40
0.0
 40
0.477132092
 40
1.0
 40
1.0
 40
1.0
 40
1.0
 10
50.3508299474
 20
88.7168560909
 30
0.0
 10
50.2184180908
 20
88.6055000083
 30
0.0
 10
49.9803781735
 20
88.3228065821
 30
0.0
 10
49.8350132533
 20
87.9857584637
 30
0.0
 10
49.7791771054
 20
87.8045708645
 30
0.0
  0
SPLINE
  5
2DA
100
AcDbEntity
  8
0
100
AcDbSpline
 62
7
  6
BYLAYER
 70
0
 71
3
 72
17
 73
13
 74
0
 42
0.0000001
 43
0.0000001
 44
0.0000000001
 40
0.0
 40
0.0
 40
0.0
 40
0.0
 40
0.1286958631
 40
0.2702808858
 40
0.4174358551
 40
0.561778136
 40
0.6954484112
 40
0.8127115101
 40
0.8646776714
 40
0.9125101075
 40
0.9571398584
 40
1.0
 40
1.0
 40
1.0
 40
1.0
 10
54.4044813174
 20
82.8404617226
 30
0.0
 10
54.4044813174
 20
83.1661402379
 30
0.0
 10
54.3133797369
 20
83.8508979662
 30
0.0
 10
53.9732953539
 20
84.8562954976
 30
0.0
 10
53.4493302225
 20
85.8248165018
 30
0.0
 10
52.7835331263
 20
86.6770404162
 30
0.0
 10
52.0303165159
 20
87.3441438559
 30
0.0
 10
51.348533091
 20
87.7168539877
 30
0.0
 10
50.8152407563
 20
87.8588161385
 30
0.0
 10
50.4481891071
 20
87.8857279998
 30
0.0
 10
50.1063944799
 20
87.835715278
 30
0.0
 10
49.8993534248
 20
87.7496159805
 30
0.0
 10
49.8054129451
 20
87.6954014097
 30
0.0
  0
SPLINE
  5
2DB
100
AcDbEntity
  8
0
100
AcDbSpline
 62
7
  6
BYLAYER
 70
0
 71
3
 72
11
 73
7
 74
0
 42
0.0000001
 43
0.0000001
 44
0.0000000001
 40
0.0
 40
0.0
 40
0.0
 40
0.0
 40
0.2177728947
 40
0.4509002595
 40
0.7103630724
 40
1.0
 40
1.0
 40
1.0
 40
1.0
 10
50.947641884
 20
112.8587944216
 30
0.0
 10
50.9476714568
 20
112.9288822603
 30
0.0
 10
50.9734707277
 20
113.0749804241
 30
0.0
 10
51.0842835935
 20
113.2785482337
 30
0.0
 10
51.2593931576
 20
113.4625159877
 30
0.0
 10
51.4058735194
 20
113.5634432653
 30
0.0
 10
51.4866015009
 20
113.6100513089
 30
0.0
  0
SPLINE
  5
2DC
100
AcDbEntity
  8
0
100
AcDbSpline
 62
7
  6
BYLAYER
 70
0
 71
3
 72
11
 73
7
 74
0
 42
0.0000001
 43
0.0000001
 44
0.0000000001
 40
0.0
 40
0.0
 40
0.0
 40
0.0
 40
0.2177803155
 40
0.4509236285
 40
0.7102604699
 40
1.0
 40
1.0
 40
1.0
 40
1.0
 10
30.2283641043
 20
100.2422779374
 30
0.0
 10
30.3540257541
 20
100.3148572793
 30
0.0
 10
30.6428134148
 20
100.4196217448
 30
0.0
 10
31.1224055046
 20
100.4317815056
 30
0.0
 10
31.6335942725
 20
100.3083856953
 30
0.0
 10
31.9661441308
 20
100.1501406969
 30
0.0
 10
32.133344441
 20
100.0536097367
 30
0.0
  0
SPLINE
  5
2DD
100
AcDbEntity
  8
0
100
AcDbSpline
 62
7
  6
BYLAYER
 70
0
 71
3
 72
9
 73
5
 74
0
 42
0.0000001
 43
0.0000001
 44
0.0000000001
 40
0.0
 40
0.0
 40
0.0
 40
0.0
 40
0.4878905417
 40
1.0
 40
1.0
 40
1.0
 40
1.0
 10
30.2283636858
 20
76.3922430713
 30
0.0
 10
30.3319435828
 20
76.4520217688
 30
0.0
 10
30.5629259311
 20
76.5444475033
 30
0.0
 10
30.8095103557
 20
76.5711664398
 30
0.0
 10
30.9350381888
 20
76.5706905099
 30
0.0
  0
SPLINE
  5
2DE
100
AcDbEntity
  8
0
100
AcDbSpline
 62
7
  6
BYLAYER
 70
0
 71
3
 72
17
 73
13
 74
0
 42
0.0000001
 43
0.0000001
 44
0.0000000001
 40
0.0
 40
0.0
 40
0.0
 40
0.0
 40
0.0428577153
 40
0.0874860392
 40
0.1353173407
 40
0.1872825844
 40
0.3045436677
 40
0.4382112185
 40
0.5825538419
 40
0.7297141485
 40
0.8713039961
 40
1.0
 40
1.0
 40
1.0
 40
1.0
 10
32.9606988966
 20
93.0210283753
 30
0.0
 10
33.0546163345
 20
93.075272132
 30
0.0
 10
33.2327002027
 20
93.2115128423
 30
0.0
 10
33.4469035117
 20
93.4825022156
 30
0.0
 10
33.6071251842
 20
93.81382524
 30
0.0
 10
33.7508445512
 20
94.3466402861
 30
0.0
 10
33.7689683463
 20
95.1234294625
 30
0.0
 10
33.5678591875
 20
96.1092833499
 30
0.0
 10
33.1627191928
 20
97.1120126707
 30
0.0
 10
32.5859291978
 20
98.0500760978
 30
0.0
 10
31.8852510977
 20
98.8473242678
 30
0.0
 10
31.3377679874
 20
99.2686078053
 30
0.0
 10
31.0557181931
 20
99.4314456462
 30
0.0
  0
SPLINE
  5
2DF
100
AcDbEntity
  8
0
100
AcDbSpline
 62
7
  6
BYLAYER
 70
0
 71
3
 72
11
 73
7
 74
0
 42
0.0000001
 43
0.0000001
 44
0.0000000001
 40
0.0
 40
0.0
 40
0.0
 40
0.0
 40
0.2177793583
 40
0.450922273
 40
0.7102594722
 40
1.0
 40
1.0
 40
1.0
 40
1.0
 10
32.9606985125
 20
69.1709934202
 30
0.0
 10
33.0863880743
 20
69.2435308999
 30
0.0
 10
33.3215166085
 20
69.4412507352
 30
0.0
 10
33.5718476265
 20
69.8505216315
 30
0.0
 10
33.7205781485
 20
70.3549373881
 30
0.0
 10
33.7498062459
 20
70.7220675356
 30
0.0
 10
33.7498062459
 20
70.9151385578
 30
0.0
  0
SPLINE
  5
2E0
100
AcDbEntity
  8
0
100
AcDbSpline
 62
7
  6
BYLAYER
 70
0
 71
3
 72
11
 73
7
 74
0
 42
0.0000001
 43
0.0000001
 44
0.0000000001
 40
0.0
 40
0.0
 40
0.0
 40
0.0
 40
0.2177728947
 40
0.4509002595
 40
0.7103630724
 40
1.0
 40
1.0
 40
1.0
 40
1.0
 10
114.1685567392
 20
125.0947892234
 30
0.0
 10
114.1685863121
 20
125.164877062
 30
0.0
 10
114.194385583
 20
125.3109752258
 30
0.0
 10
114.3051984487
 20
125.5145430354
 30
0.0
 10
114.4803080128
 20
125.6985107895
 30
0.0
 10
114.6267883746
 20
125.799438067
 30
0.0
 10
114.7075163562
 20
125.8460461107
 30
0.0
  0
SPLINE
  5
2E1
100
AcDbEntity
  8
0
100
AcDbSpline
 62
7
  6
BYLAYER
 70
0
 71
3
 72
11
 73
7
 74
0
 42
0.0000001
 43
0.0000001
 44
0.0000000001
 40
0.0
 40
0.0
 40
0.0
 40
0.0
 40
0.2895416686
 40
0.5491189711
 40
0.7822562704
 40
1.0
 40
1.0
 40
1.0
 40
1.0
 10
126.2462386447
 20
127.5326600018
 30
0.0
 10
126.3019320143
 20
127.5648143919
 30
0.0
 10
126.4029970652
 20
127.6345021981
 30
0.0
 10
126.5238908481
 20
127.7614205766
 30
0.0
 10
126.6003786981
 20
127.9019326988
 30
0.0
 10
126.6181382563
 20
128.0027634824
 30
0.0
 10
126.6181382413
 20
128.051125766
 30
0.0
  0
SPLINE
  5
2E2
100
AcDbEntity
  8
0
100
AcDbSpline
 62
7
  6
BYLAYER
 70
0
 71
3
 72
17
 73
13
 74
0
 42
0.0000001
 43
0.0000001
 44
0.0000000001
 40
0.0
 40
0.0
 40
0.0
 40
0.0
 40
0.128683287
 40
0.2702724463
 40
0.4174309843
 40
0.561777593
 40
0.6954488768
 40
0.812713569
 40
0.8646777109
 40
0.9125108249
 40
0.9571402275
 40
1.0
 40
1.0
 40
1.0
 40
1.0
 10
114.7075163562
 20
125.8460461107
 30
0.0
 10
114.8437314318
 20
125.9246894518
 30
0.0
 10
115.1521496917
 20
126.05194524
 30
0.0
 10
115.6548171693
 20
126.1525222765
 30
0.0
 10
116.1864932234
 20
126.167244167
 30
0.0
 10
116.7037736618
 20
126.0945603056
 30
0.0
 10
117.1647167355
 20
125.9405960458
 30
0.0
 10
117.485304164
 20
125.7454566147
 30
0.0
 10
117.6734311194
 20
125.5566325927
 30
0.0
 10
117.7733841797
 20
125.4096323414
 30
0.0
 10
117.8349617658
 20
125.2545697935
 30
0.0
 10
117.8489871362
 20
125.1471759947
 30
0.0
 10
117.8489650322
 20
125.0947892306
 30
0.0
  0
SPLINE
  5
2E3
100
AcDbEntity
  8
0
100
AcDbSpline
 62
7
  6
BYLAYER
 70
0
 71
3
 72
17
 73
13
 74
0
 42
0.0000001
 43
0.0000001
 44
0.0000000001
 40
0.0
 40
0.0
 40
0.0
 40
0.0
 40
0.0428582881
 40
0.0874873048
 40
0.1353190908
 40
0.1872844811
 40
0.3045449408
 40
0.4382122887
 40
0.5825562205
 40
0.7297166651
 40
0.8713058633
 40
1.0
 40
1.0
 40
1.0
 40
1.0
 10
78.0371530856
 20
72.4444549526
 30
0.0
 10
77.9212982134
 20
72.5113158652
 30
0.0
 10
77.6659596283
 20
72.6175106276
 30
0.0
 10
77.2444215209
 20
72.6791801566
 30
0.0
 10
76.7917340478
 20
72.6459892799
 30
0.0
 10
76.1340193281
 20
72.4709126195
 30
0.0
 10
75.2931745666
 20
72.0112442875
 30
0.0
 10
74.3642223316
 20
71.1884925635
 30
0.0
 10
73.5430643068
 20
70.1374121482
 30
0.0
 10
72.8968223029
 20
68.9428772483
 30
0.0
 10
72.4773835903
 20
67.7028654434
 30
0.0
 10
72.3650257134
 20
66.8583264277
 30
0.0
 10
72.3650257134
 20
66.4566630075
 30
0.0
  0
SPLINE
  5
2E4
100
AcDbEntity
  8
0
100
AcDbSpline
 62
7
  6
BYLAYER
 70
0
 71
3
 72
9
 73
5
 74
0
 42
0.0000001
 43
0.0000001
 44
0.0000000001
 40
0.0
 40
0.0
 40
0.0
 40
0.0
 40
0.542539696
 40
1.0
 40
1.0
 40
1.0
 40
1.0
 10
126.2614364117
 20
104.9359018983
 30
0.0
 10
126.343966707
 20
104.9852303917
 30
0.0
 10
126.4870261642
 20
105.0946921997
 30
0.0
 10
126.5813201868
 20
105.2529152324
 30
0.0
 10
126.6026677927
 20
105.3311249766
 30
0.0
  0
SPLINE
  5
2E5
100
AcDbEntity
  8
0
100
AcDbSpline
 62
7
  6
BYLAYER
 70
0
 71
3
 72
9
 73
5
 74
0
 42
0.0000001
 43
0.0000001
 44
0.0000000001
 40
0.0
 40
0.0
 40
0.0
 40
0.0
 40
0.2528464247
 40
1.0
 40
1.0
 40
1.0
 40
1.0
 10
126.6026677927
 20
105.3311249766
 30
0.0
 10
126.6052322029
 20
105.3405200287
 30
0.0
 10
126.6141748997
 20
105.3779932812
 30
0.0
 10
126.6181382502
 20
105.4166621396
 30
0.0
 10
126.6181382413
 20
105.4454398454
 30
0.0
  0
SPLINE
  5
2E6
100
AcDbEntity
  8
0
100
AcDbSpline
 62
7
  6
BYLAYER
 70
0
 71
3
 72
11
 73
7
 74
0
 42
0.0000001
 43
0.0000001
 44
0.0000000001
 40
0.0
 40
0.0
 40
0.0
 40
0.0
 40
0.2177799688
 40
0.4509245082
 40
0.710259858
 40
1.0
 40
1.0
 40
1.0
 40
1.0
 10
69.0277196898
 20
66.7941858951
 30
0.0
 10
68.8727008796
 20
66.883647403
 30
0.0
 10
68.582703866
 20
67.1275008115
 30
0.0
 10
68.2739671611
 20
67.6322728069
 30
0.0
 10
68.0905282081
 20
68.2543842552
 30
0.0
 10
68.0544848289
 20
68.7071776838
 30
0.0
 10
68.0544848289
 20
68.945298647
 30
0.0
  0
SPLINE
  5
2E7
100
AcDbEntity
  8
0
100
AcDbSpline
 62
7
  6
BYLAYER
 70
0
 71
3
 72
17
 73
13
 74
0
 42
0.0000001
 43
0.0000001
 44
0.0000000001
 40
0.0
 40
0.0
 40
0.0
 40
0.0
 40
0.128683287
 40
0.2702724463
 40
0.4174309843
 40
0.561777593
 40
0.6954488768
 40
0.812713569
 40
0.8646777109
 40
0.9125108249
 40
0.9571402275
 40
1.0
 40
1.0
 40
1.0
 40
1.0
 10
51.4866015009
 20
113.6100513089
 30
0.0
 10
51.6228165766
 20
113.6886946501
 30
0.0
 10
51.9312348365
 20
113.8159504383
 30
0.0
 10
52.4339023141
 20
113.9165274747
 30
0.0
 10
52.9655783682
 20
113.9312493653
 30
0.0
 10
53.4828588065
 20
113.8585655038
 30
0.0
 10
53.9438018803
 20
113.7046012441
 30
0.0
 10
54.2643893088
 20
113.5094618129
 30
0.0
 10
54.4525162642
 20
113.320637791
 30
0.0
 10
54.5524693245
 20
113.1736375396
 30
0.0
 10
54.6140469106
 20
113.0185749917
 30
0.0
 10
54.628072281
 20
112.9111811929
 30
0.0
 10
54.6280501769
 20
112.8587944289
 30
0.0
  0
SPLINE
  5
2E8
100
AcDbEntity
  8
0
100
AcDbSpline
 62
7
  6
BYLAYER
 70
0
 71
3
 72
21
 73
17
 74
0
 42
0.0000001
 43
0.0000001
 44
0.0000000001
 40
0.0
 40
0.0
 40
0.0
 40
0.0
 40
0.0428262456
 40
0.0874204624
 40
0.1352159771
 40
0.1871391152
 40
0.2436018467
 40
0.3045763271
 40
0.3696918414
 40
0.4383188096
 40
0.5825511713
 40
0.7295902615
 40
0.8015995387
 40
0.8712155627
 40
0.9375993024
 40
1.0
 40
1.0
 40
1.0
 40
1.0
 10
74.798909608
 20
81.3530597002
 30
0.0
 10
74.5327681281
 20
81.5067094761
 30
0.0
 10
73.946097429
 20
81.7505171743
 30
0.0
 10
72.9776903068
 20
81.8924149459
 30
0.0
 10
71.9377817769
 20
81.8158784105
 30
0.0
 10
70.8494388391
 20
81.5267342795
 30
0.0
 10
69.7340584204
 20
81.0337386751
 30
0.0
 10
68.6138496173
 20
80.3483628931
 30
0.0
 10
67.5114472663
 20
79.4853623694
 30
0.0
 10
66.0728200541
 20
78.0995477364
 30
0.0
 10
64.4746131345
 20
76.052651023
 30
0.0
 10
63.2274728288
 20
73.7486957454
 30
0.0
 10
62.4845828902
 20
71.8125996819
 30
0.0
 10
62.0786007955
 20
70.3737985336
 30
0.0
 10
61.8290600775
 20
68.969775735
 30
0.0
 10
61.7683152652
 20
68.0450383787
 30
0.0
 10
61.7683152652
 20
67.5972669532
 30
0.0
  0
SPLINE
  5
2E9
100
AcDbEntity
  8
0
100
AcDbSpline
 62
7
  6
BYLAYER
 70
0
 71
3
 72
10
 73
6
 74
0
 42
0.0000001
 43
0.0000001
 44
0.0000000001
 40
0.0
 40
0.0
 40
0.0
 40
0.0
 40
0.2284797097
 40
0.475110052
 40
1.0
 40
1.0
 40
1.0
 40
1.0
 10
33.7498062459
 20
70.9151385578
 30
0.0
 10
33.7498062459
 20
71.1281197724
 30
0.0
 10
33.7107299558
 20
71.5715040741
 30
0.0
 10
33.4990686888
 20
72.4811863395
 30
0.0
 10
33.2050956046
 20
73.1472926611
 30
0.0
 10
32.9603865084
 20
73.570987464
 30
0.0
  0
SPLINE
  5
2EA
100
AcDbEntity
  8
0
100
AcDbSpline
 62
7
  6
BYLAYER
 70
0
 71
3
 72
14
 73
10
 74
0
 42
0.0000001
 43
0.0000001
 44
0.0000000001
 40
0.0
 40
0.0
 40
0.0
 40
0.0
 40
0.3060683176
 40
0.4498332496
 40
0.5830756331
 40
0.7039000551
 40
0.8119879107
 40
0.9092065367
 40
1.0
 40
1.0
 40
1.0
 40
1.0
 10
32.9603865084
 20
73.570987464
 30
0.0
 10
32.7157610397
 20
73.9945374723
 30
0.0
 10
32.2860896631
 20
74.5817971008
 30
0.0
 10
31.6041379023
 20
75.2197720995
 30
0.0
 10
31.0814203753
 20
75.5861462714
 30
0.0
 10
30.5558955014
 20
75.8362240834
 30
0.0
 10
30.0446263759
 20
75.9595413454
 30
0.0
 10
29.5651215845
 20
75.9475150709
 30
0.0
 10
29.2764062683
 20
75.8426022935
 30
0.0
 10
29.1507381552
 20
75.7700777035
 30
0.0
  0
SPLINE
  5
2EB
100
AcDbEntity
  8
0
100
AcDbSpline
 62
7
  6
BYLAYER
 70
0
 71
3
 72
11
 73
7
 74
0
 42
0.0000001
 43
0.0000001
 44
0.0000000001
 40
0.0
 40
0.0
 40
0.0
 40
0.0
 40
0.2897475214
 40
0.5490818091
 40
0.782222901
 40
1.0
 40
1.0
 40
1.0
 40
1.0
 10
51.7103932646
 20
63.6566976023
 30
0.0
 10
51.543188213
 20
63.7532312999
 30
0.0
 10
51.2106345908
 20
63.9114782559
 30
0.0
 10
50.6994429636
 20
64.0348713839
 30
0.0
 10
50.2198551792
 20
64.0227120372
 30
0.0
 10
49.9310729407
 20
63.9179439356
 30
0.0
 10
49.805412561
 20
63.8453664546
 30
0.0
  0
SPLINE
  5
2EC
100
AcDbEntity
  8
0
100
AcDbSpline
 62
7
  6
BYLAYER
 70
0
 71
3
 72
9
 73
5
 74
0
 42
0.0000001
 43
0.0000001
 44
0.0000000001
 40
0.0
 40
0.0
 40
0.0
 40
0.0
 40
0.2642822276
 40
1.0
 40
1.0
 40
1.0
 40
1.0
 10
28.7208351507
 20
86.6768068564
 30
0.0
 10
28.7208351507
 20
86.4819842302
 30
0.0
 10
28.7419670372
 20
85.745260486
 30
0.0
 10
28.8518724871
 20
85.0088073444
 30
0.0
 10
28.9971521298
 20
84.4862736494
 30
0.0
  0
SPLINE
  5
2ED
100
AcDbEntity
  8
0
100
AcDbSpline
 62
7
  6
BYLAYER
 70
0
 71
3
 72
9
 73
5
 74
0
 42
0.0000001
 43
0.0000001
 44
0.0000000001
 40
0.0
 40
0.0
 40
0.0
 40
0.0
 40
0.2606570865
 40
1.0
 40
1.0
 40
1.0
 40
1.0
 10
28.9971521298
 20
89.1864015235
 30
0.0
 10
28.9519296985
 20
88.971529957
 30
0.0
 10
28.7974389447
 20
88.1434588191
 30
0.0
 10
28.7208351507
 20
87.299632988
 30
0.0
 10
28.7208351507
 20
86.6768068564
 30
0.0
  0
SPLINE
  5
2EE
100
AcDbEntity
  8
0
100
AcDbSpline
 62
7
  6
BYLAYER
 70
0
 71
3
 72
17
 73
13
 74
0
 42
0.0000001
 43
0.0000001
 44
0.0000000001
 40
0.0
 40
0.0
 40
0.0
 40
0.0
 40
0.0428577153
 40
0.0874860392
 40
0.1353173407
 40
0.1872825844
 40
0.3045436677
 40
0.4382112185
 40
0.5825538419
 40
0.7297141485
 40
0.8713039961
 40
1.0
 40
1.0
 40
1.0
 40
1.0
 10
53.6153739682
 20
57.2462803314
 30
0.0
 10
53.709291406
 20
57.3005240881
 30
0.0
 10
53.8873752742
 20
57.4367647984
 30
0.0
 10
54.1015785832
 20
57.7077541717
 30
0.0
 10
54.2618002557
 20
58.0390771961
 30
0.0
 10
54.4055196228
 20
58.5718922422
 30
0.0
 10
54.4236434178
 20
59.3486814186
 30
0.0
 10
54.222534259
 20
60.334535306
 30
0.0
 10
53.8173942643
 20
61.3372646268
 30
0.0
 10
53.2406042694
 20
62.2753280539
 30
0.0
 10
52.5399261692
 20
63.0725762239
 30
0.0
 10
51.992443059
 20
63.4938597614
 30
0.0
 10
51.7103932646
 20
63.6566976023
 30
0.0
  0
ELLIPSE
  5
2EF
100
AcDbEntity
  8
0
100
AcDbEllipse
 62
7
  6
BYLAYER
 10
51.9527451046
 20
60.6857444579
 30
0.0
 11
3.3592030598
 21
-3.072548609
 31
0.0
 40
0.6979086025
 41
6.9795213408
 42
9.2075152175
  0
ELLIPSE
  5
2F0
100
AcDbEntity
  8
0
100
AcDbEllipse
 62
7
  6
BYLAYER
 10
31.2980700331
 20
96.4604925018
 30
0.0
 11
-0.9812704905
 21
4.4454395962
 31
0.0
 40
0.6979052179
 41
3.3588647843
 42
5.5868673012
  0
ELLIPSE
  5
2F1
100
AcDbEntity
  8
0
100
AcDbEllipse
 62
7
  6
BYLAYER
 10
31.2980700331
 20
72.6104568974
 30
0.0
 11
-2.9344572575
 21
3.4233292402
 31
0.0
 40
0.4107626802
 41
-3.7133606959
 42
-1.6475320478
  0
ELLIPSE
  5
2F2
100
AcDbEntity
  8
0
100
AcDbEllipse
 62
7
  6
BYLAYER
 10
51.9527451046
 20
60.6857444579
 30
0.0
 11
-2.9344572575
 21
3.4233292402
 31
0.0
 40
0.4107626802
 41
-0.076735721
 42
0.8940800571
  0
ELLIPSE
  5
2F3
100
AcDbEntity
  8
0
100
AcDbEllipse
 62
7
  6
BYLAYER
 10
90.7513389069
 20
59.6782068927
 30
0.0
 11
40.6752588877
 21
-14.321285947
 31
0.0
 40
0.2183880723
 41
2.6699438313
 42
3.7667232756
  0
ELLIPSE
  5
2F4
100
AcDbEntity
  8
0
100
AcDbEllipse
 62
7
  6
BYLAYER
 10
31.2980700331
 20
72.6104568974
 30
0.0
 11
-1.4974538615
 21
4.2529793374
 31
0.0
 40
0.4107605099
 41
4.7891400705
 42
6.8539632422
  0
ELLIPSE
  5
2F5
100
AcDbEntity
  8
0
100
AcDbEllipse
 62
7
  6
BYLAYER
 10
31.2980700331
 20
96.4604925018
 30
0.0
 11
-1.4974538615
 21
4.2529793374
 31
0.0
 40
0.4107605099
 41
2.2899300333
 42
3.2183351035
  0
ELLIPSE
  5
2F6
100
AcDbEntity
  8
0
100
AcDbEllipse
 62
7
  6
BYLAYER
 10
51.9527451046
 20
84.5357800622
 30
0.0
 11
3.3592030598
 21
-3.072548609
 31
0.0
 40
0.6979086025
 41
-1.7880504298
 42
0.439952087
  0
ELLIPSE
  5
2F7
100
AcDbEntity
  8
0
100
AcDbEllipse
 62
7
  6
BYLAYER
 10
51.9527451046
 20
84.5357800622
 30
0.0
 11
-0.9812704905
 21
4.4454395962
 31
0.0
 40
0.6979052179
 41
5.8432512478
 42
8.0712537647
  0
ENDSEC
  0
SECTION
  2
OBJECTS
  0
DICTIONARY
  5
C
100
AcDbDictionary
280
0
281
1
  3
ACAD_GROUP
350
D
  3
ACAD_MLINESTYLE
350
17
  3
ACAD_LAYOUT
350
1A
  3
ACAD_PLOTSETTINGS
350
19
  3
ACAD_PLOTSTYLENAME
350
E
  0
DICTIONARY
  5
D
102
{ACAD_REACTORS
330
C
102
}
100
AcDbDictionary
280
0
281
1
  0
ACDBDICTIONARYWDFLT
  5
E
102
{ACAD_REACTORS
330
C
102
}
100
AcDbDictionary
281
1
  3
Normal
350
F
100
AcDbDictionaryWithDefault
340
F
  0
DICTIONARY
  5
17
102
{ACAD_REACTORS
330
C
102
}
100
AcDbDictionary
280
0
281
1
  3
Standard
350
18
  0
DICTIONARY
  5
19
102
{ACAD_REACTORS
330
C
102
}
100
AcDbDictionary
281
1
  0
DICTIONARY
  5
1A
102
{ACAD_REACTORS
330
C
102
}
100
AcDbDictionary
281
1
  3
Model
350
2F8
  3
Layout1
350
2F9
  0
ACDBPLACEHOLDER
  5
F
102
{ACAD_REACTORS
330
E
102
}
  0
MLINESTYLE
  5
18
102
{ACAD_REACTORS
330
17
102
}
100
AcDbMlineStyle
  2
STANDARD
 70
0
  3

 62
256
 51
90.0
 52
90.0
 71
2
 49
0.5
 62
256
  6
BYLAYER
 49
-0.5
 62
256
  6
BYLAYER
  0
LAYOUT
  5
2F8
102
{ACAD_REACTORS
330
1A
102
}
100
AcDbPlotSettings
  1

  2
none_device
  4

  6

 40
0.0
 41
0.0
 42
0.0
 43
0.0
 44
210.0
 45
297.0
 46
0.0
 47
0.0
 48
0.0
 49
0.0
140
0.0
141
0.0
142
1.0
143
1.0
 70
1024
 72
1
 73
0
 74
0
  7

 75
0
147
1.0
148
0.0
149
0.0
100
AcDbLayout
  1
Model
 70
0
 71
0
 10
0.0
 20
0.0
 11
210.0
 21
297.0
 12
0.0
 22
0.0
 32
0.0
 14
0.0
 24
0.0
 34
0.0
 15
0.0
 25
0.0
 35
0.0
146
0.0
 13
0.0
 23
0.0
 33
0.0
 16
1.0
 26
0.0
 36
0.0
 17
0.0
 27
1.0
 37
0.0
 76
0
330
210
345
0
346
0
  0
LAYOUT
  5
2F9
102
{ACAD_REACTORS
330
1A
102
}
100
AcDbPlotSettings
  1

  2
none_device
  4

  6

 40
0.0
 41
0.0
 42
0.0
 43
0.0
 44
210.0
 45
297.0
 46
0.0
 47
0.0
 48
0.0
 49
0.0
140
0.0
141
0.0
142
1.0
143
1.0
 70
0
 72
1
 73
0
 74
0
  7

 75
0
147
1.0
148
0.0
149
0.0
100
AcDbLayout
  1
Layout1
 70
0
 71
1
 10
0.0
 20
0.0
 11
210.0
 21
297.0
 12
0.0
 22
0.0
 32
0.0
 14
0.0
 24
0.0
 34
0.0
 15
0.0
 25
0.0
 35
0.0
146
0.0
 13
0.0
 23
0.0
 33
0.0
 16
1.0
 26
0.0
 36
0.0
 17
0.0
 27
1.0
 37
0.0
 76
0
330
211
345
0
346
0
  0
ENDSEC
  0
EOF
