999
DXF file: C:\Users\sesa63760\Dev\_Creo\CAD\MCADID0002558_3D-CAD\drw0001_1.dxf
999
Pro/ENGINEER 2019471 by Parametric Technology Corporation
  0
SECTION
  2
HEADER
  9
$ACADVER
  1
AC1024
  9
$DWGCODEPAGE
  3
ANSI_1252
  9
$EXTMAX
 10
125.3859692569
 20
177.3315850919
 30
0.0
  9
$EXTMIN
 10
0.0
 20
0.0
 30
0.0
  9
$LIMMIN
 10
0.0
 20
0.0
  9
$LIMMAX
 10
125.3859692569
 20
177.3315850919
  9
$VIEWCTR
 10
62.6929846285
 20
88.665792546
  9
$VIEWSIZE
 40
177.3315850919
  9
$CLAYER
  8
0
  9
$LTSCALE
 40
11.5593922134
  9
$CELTYPE
  6
BYLAYER
  9
$DIMSCALE
 40
1.0
  9
$DIMASZ
 40
1.4926901102
  9
$DIMEXO
 40
1.0
  9
$DIMDLI
 40
7.9864891656
  9
$DIMEXE
 40
1.0
  9
$DIMCEN
 40
1.8915369076
  9
$DIMLFAC
 40
1.0
  9
$DIMBLK
  1
_FILLED
  9
$DIMALT
 70
0
  9
$DIMALTF
 40
0.0393700787
  9
$DIMTXT
 40
2.0897661543
  9
$DIMTOL
 70
1
  9
$DIMLIM
 70
0
  9
$DIMTFAC
 40
1.0
  9
$DIMTP
 40
0.01
  9
$DIMTM
 40
0.01
  9
$DIMGAP
 40
0.625
  9
$DIMDSEP
 70
46
  9
$AUNITS
 70
0
  9
$PDMODE
 70
3
  9
$PDSIZE
 40
0.3125
  9
$HANDSEED
  5
2E6
  9
$TILEMODE
 70
1
  9
$MEASUREMENT
 70
1
  9
$INSUNITS
 70
4
  0
ENDSEC
  0
SECTION
  2
CLASSES
  0
CLASS
  1
ACDBDICTIONARYWDFLT
  2
AcDbDictionaryWithDefault
  3
AutoCAD 2000
 90
0
 91
1
280
0
281
0
  0
CLASS
  1
ACDBPLACEHOLDER
  2
AcDbPlaceHolder
  3
AutoCAD 2000
 90
0
 91
1
280
0
281
0
  0
CLASS
  1
LAYOUT
  2
AcDbLayout
  3
AutoCAD 2000
 90
0
 91
0
280
0
281
0
  0
ENDSEC
  0
SECTION
  2
TABLES
  0
TABLE
  2
VPORT
  5
8
100
AcDbSymbolTable
 70
2
  0
VPORT
  5
1F4
100
AcDbSymbolTableRecord
100
AcDbViewportTableRecord
  2
*ACTIVE
 70
0
 10
0.0
 20
0.0
 11
1.0
 21
1.0
 12
62.6929846285
 22
88.665792546
 13
0.0
 23
0.0
 14
1.0
 24
1.0
 15
0.0
 25
0.0
 16
0.0
 26
0.0
 36
1.0
 17
0.0
 27
0.0
 37
0.0
 40
177.3315850919
 41
0.7070707071
 42
50.0
 43
0.0
 44
0.0
 50
0.0
 51
0.0
 71
0
 72
100
 73
1
 74
1
 75
0
 76
0
 77
0
 78
0
  0
ENDTAB
  0
TABLE
  2
LTYPE
  5
5
100
AcDbSymbolTable
 70
6
  0
LTYPE
  5
14
100
AcDbSymbolTableRecord
100
AcDbLinetypeTableRecord
  2
BYBLOCK
 70
0
  3

 72
65
 73
0
 40
0.0
  0
LTYPE
  5
15
100
AcDbSymbolTableRecord
100
AcDbLinetypeTableRecord
  2
BYLAYER
 70
0
  3

 72
65
 73
0
 40
0.0
  0
LTYPE
  5
16
100
AcDbSymbolTableRecord
100
AcDbLinetypeTableRecord
  2
CONTINUOUS
 70
64
  3
Solid line
 72
65
 73
0
 40
0.0
  0
LTYPE
  5
1F5
100
AcDbSymbolTableRecord
100
AcDbLinetypeTableRecord
  2
CENTER
 70
64
  3
____ _ ____ _ ____ _ ____ _ ____ _ ____ _ ____
 72
65
 73
4
 40
0.6
 49
0.375
 74
0
 49
-0.075
 74
0
 49
0.075
 74
0
 49
-0.075
 74
0
  0
LTYPE
  5
1F6
100
AcDbSymbolTableRecord
100
AcDbLinetypeTableRecord
  2
HIDDEN
 70
64
  3
- - - - - - - - - - - - - - - - - - - -
 72
65
 73
2
 40
0.2
 49
0.1
 74
0
 49
-0.1
 74
0
  0
LTYPE
  5
1F7
100
AcDbSymbolTableRecord
100
AcDbLinetypeTableRecord
  2
PHANTOM
 70
64
  3
_____ _ _ _____ _ _ _____ _ _ _____
 72
65
 73
6
 40
0.8
 49
0.45
 74
0
 49
-0.05
 74
0
 49
0.1
 74
0
 49
-0.05
 74
0
 49
0.1
 74
0
 49
-0.05
 74
0
  0
LTYPE
  5
1F8
100
AcDbSymbolTableRecord
100
AcDbLinetypeTableRecord
  2
DOT
 70
64
  3
. . . . . . . . . . . . . . . . . . . .
 72
65
 73
2
 40
0.2
 49
0.1
 74
0
 49
-0.1
 74
0
  0
LTYPE
  5
1F9
100
AcDbSymbolTableRecord
100
AcDbLinetypeTableRecord
  2
DASHED
 70
64
  3
- - - - - - - - - - - - - - - - - - - -
 72
65
 73
2
 40
0.2
 49
0.1
 74
0
 49
-0.1
 74
0
  0
ENDTAB
  0
TABLE
  2
LAYER
  5
2
100
AcDbSymbolTable
 70
36
  0
LAYER
  5
10
100
AcDbSymbolTableRecord
100
AcDbLayerTableRecord
  2
0
 70
0
 62
7
  6
CONTINUOUS
370
-3
390
F
  0
LAYER
  5
1FA
100
AcDbSymbolTableRecord
100
AcDbLayerTableRecord
  2
DEFAULT_1
 70
0
 62
7
  6
CENTER
370
-3
390
F
  0
LAYER
  5
1FB
100
AcDbSymbolTableRecord
100
AcDbLayerTableRecord
  2
DEFAULT_2
 70
0
 62
7
  6
HIDDEN
370
-3
390
F
  0
LAYER
  5
1FC
100
AcDbSymbolTableRecord
100
AcDbLayerTableRecord
  2
DEFAULT_3
 70
0
 62
7
  6
PHANTOM
370
-3
390
F
  0
LAYER
  5
1FD
100
AcDbSymbolTableRecord
100
AcDbLayerTableRecord
  2
00_COMPONENTS
 70
0
 62
7
  6
CONTINUOUS
370
-3
390
F
  0
LAYER
  5
1FE
100
AcDbSymbolTableRecord
100
AcDbLayerTableRecord
  2
01_1_DEFAULT_DATUMS
 70
0
 62
7
  6
CONTINUOUS
370
-3
390
F
  0
LAYER
  5
1FF
100
AcDbSymbolTableRecord
100
AcDbLayerTableRecord
  2
01_PLANES
 70
0
 62
7
  6
CONTINUOUS
370
-3
390
F
  0
LAYER
  5
200
100
AcDbSymbolTableRecord
100
AcDbLayerTableRecord
  2
02_COORD_SYS
 70
0
 62
7
  6
CONTINUOUS
370
-3
390
F
  0
LAYER
  5
201
100
AcDbSymbolTableRecord
100
AcDbLayerTableRecord
  2
03_AXES
 70
0
 62
7
  6
CONTINUOUS
370
-3
390
F
  0
LAYER
  5
202
100
AcDbSymbolTableRecord
100
AcDbLayerTableRecord
  2
04_POINTS
 70
0
 62
7
  6
CONTINUOUS
370
-3
390
F
  0
LAYER
  5
203
100
AcDbSymbolTableRecord
100
AcDbLayerTableRecord
  2
05_CURVES
 70
0
 62
7
  6
CONTINUOUS
370
-3
390
F
  0
LAYER
  5
204
100
AcDbSymbolTableRecord
100
AcDbLayerTableRecord
  2
06_SURFS
 70
0
 62
7
  6
CONTINUOUS
370
-3
390
F
  0
LAYER
  5
205
100
AcDbSymbolTableRecord
100
AcDbLayerTableRecord
  2
07_COSMETICS
 70
0
 62
7
  6
CONTINUOUS
370
-3
390
F
  0
LAYER
  5
206
100
AcDbSymbolTableRecord
100
AcDbLayerTableRecord
  2
10_NOTES
 70
0
 62
7
  6
CONTINUOUS
370
-3
390
F
  0
LAYER
  5
207
100
AcDbSymbolTableRecord
100
AcDbLayerTableRecord
  2
11_NOTES_PUB
 70
0
 62
7
  6
CONTINUOUS
370
-3
390
F
  0
LAYER
  5
208
100
AcDbSymbolTableRecord
100
AcDbLayerTableRecord
  2
13_REF_GTOL
 70
0
 62
7
  6
CONTINUOUS
370
-3
390
F
  0
LAYER
  5
209
100
AcDbSymbolTableRecord
100
AcDbLayerTableRecord
  2
16_MISC
 70
0
 62
7
  6
CONTINUOUS
370
-3
390
F
  0
LAYER
  5
20A
100
AcDbSymbolTableRecord
100
AcDbLayerTableRecord
  2
17_NO_PRINT
 70
0
 62
7
  6
CONTINUOUS
370
-3
390
F
  0
LAYER
  5
20B
100
AcDbSymbolTableRecord
100
AcDbLayerTableRecord
  2
18_DATUM_CAMS_JOINTS
 70
0
 62
7
  6
CONTINUOUS
370
-3
390
F
  0
LAYER
  5
20C
100
AcDbSymbolTableRecord
100
AcDbLayerTableRecord
  2
19_DATUM_FUNCTIONAL
 70
0
 62
7
  6
CONTINUOUS
370
-3
390
F
  0
LAYER
  5
20D
100
AcDbSymbolTableRecord
100
AcDbLayerTableRecord
  2
20_DATUM_KINEMATIC_SCHEME
 70
0
 62
7
  6
CONTINUOUS
370
-3
390
F
  0
ENDTAB
  0
TABLE
  2
STYLE
  5
3
100
AcDbSymbolTable
 70
1
  0
STYLE
  5
11
100
AcDbSymbolTableRecord
100
AcDbTextStyleTableRecord
  2
STANDARD
 70
0
 40
0.0
 41
1.0
 50
0.0
 71
0
 42
0.2
  3
ARIAL.TTF
  4

  0
STYLE
  5
20E
100
AcDbSymbolTableRecord
100
AcDbTextStyleTableRecord
  2
TEXTSTYLE_1
 70
0
 40
0.0
 41
0.8
 50
0.0
 71
0
 42
0.2
  3
gdt
  4

  0
ENDTAB
  0
TABLE
  2
VIEW
  5
6
100
AcDbSymbolTable
 70
0
  0
ENDTAB
  0
TABLE
  2
UCS
  5
7
100
AcDbSymbolTable
 70
0
  0
ENDTAB
  0
TABLE
  2
APPID
  5
9
100
AcDbSymbolTable
 70
1
  0
APPID
  5
20F
100
AcDbSymbolTableRecord
100
AcDbRegAppTableRecord
  2
ACAD
 70
0
  0
ENDTAB
  0
TABLE
  2
BLOCK_RECORD
  5
1
100
AcDbSymbolTable
 70
0
  0
BLOCK_RECORD
  5
210
100
AcDbSymbolTableRecord
100
AcDbBlockTableRecord
  2
*Model_Space
  0
BLOCK_RECORD
  5
211
100
AcDbSymbolTableRecord
100
AcDbBlockTableRecord
  2
*Paper_Space
  0
BLOCK_RECORD
  5
212
100
AcDbSymbolTableRecord
100
AcDbBlockTableRecord
  2
_FILLED
  0
ENDTAB
  0
TABLE
  2
DIMSTYLE
  5
A
100
AcDbSymbolTable
 70
1
100
AcDbDimStyleTable
 71
0
  0
DIMSTYLE
105
213
100
AcDbSymbolTableRecord
100
AcDbDimStyleTableRecord
  2
STANDARD
 70
0
  3

  4

 40
1.0
 41
1.4926901102
 42
1.0
 43
0.38
 44
1.0
 45
0.0
 46
0.0
 47
0.01
 48
0.01
140
2.0897661543
141
0.09
142
0.0
143
25.4
144
1.0
145
0.0
146
1.0
147
0.625
 71
1
 72
0
 73
0
 74
0
 75
0
 76
0
 77
1
 78
8
 79
2
170
0
171
1
172
0
173
0
174
0
175
0
176
0
177
0
178
0
270
2
179
2
271
2
272
2
273
2
274
2
275
0
280
0
281
0
282
0
283
1
284
8
285
0
286
0
287
3
288
0
340
11
278
46
341
212
342
212
343
212
344
212
  0
ENDTAB
  0
ENDSEC
  0
SECTION
  2
BLOCKS
  0
BLOCK
  5
20
100
AcDbEntity
  8
0
100
AcDbBlockBegin
  2
*Model_Space
 70
0
 10
0.0
 20
0.0
 30
0.0
  3
*Model_Space
  1

  0
ENDBLK
  5
21
100
AcDbEntity
  8
0
100
AcDbBlockEnd
  0
BLOCK
  5
1C
100
AcDbEntity
  8
0
100
AcDbBlockBegin
  2
*Paper_Space
 70
0
 10
0.0
 20
0.0
 30
0.0
  3
*Paper_Space
  1

  0
ENDBLK
  5
1D
100
AcDbEntity
  8
0
100
AcDbBlockEnd
  0
BLOCK
  5
214
100
AcDbEntity
  8
0
100
AcDbBlockBegin
  2
_FILLED
 70
64
 10
0.0
 20
0.0
  3
_FILLED
  1

  0
SOLID
  5
215
100
AcDbEntity
  8
0
  6
BYBLOCK
 62
0
100
AcDbTrace
 10
0.0
 20
0.0
 11
-1.0
 21
0.25
 12
-1.0
 22
-0.25
 13
-1.0
 23
-0.25
  0
ENDBLK
  5
216
100
AcDbEntity
  8
0
  6
BYBLOCK
 62
0
100
AcDbBlockEnd
  0
ENDSEC
  0
SECTION
  2
ENTITIES
  0
LINE
  5
217
100
AcDbEntity
  8
0
100
AcDbLine
 62
7
  6
BYLAYER
 10
15.1817370232
 20
97.1530276754
 11
15.1817370232
 21
94.2586774144
  0
LINE
  5
218
100
AcDbEntity
  8
0
100
AcDbLine
 62
7
  6
BYLAYER
 10
15.1817370232
 20
90.3460176509
 11
15.1817370232
 21
70.3812043565
  0
LINE
  5
219
100
AcDbEntity
  8
0
100
AcDbLine
 62
7
  6
BYLAYER
 10
15.1817370232
 20
66.5480409436
 11
15.1817370232
 21
66.0442855828
  0
LINE
  5
21A
100
AcDbEntity
  8
0
100
AcDbLine
 62
7
  6
BYLAYER
 10
15.2006168487
 20
97.1043682055
 11
15.2006168487
 21
94.2739020948
  0
LINE
  5
21B
100
AcDbEntity
  8
0
100
AcDbLine
 62
7
  6
BYLAYER
 10
15.2006168487
 20
66.512528262
 11
15.2006168487
 21
66.0551863046
  0
LINE
  5
21C
100
AcDbEntity
  8
0
100
AcDbLine
 62
7
  6
BYLAYER
 10
19.1261677145
 20
68.3216976238
 11
19.1261677145
 21
86.9869428794
  0
LINE
  5
21D
100
AcDbEntity
  8
0
100
AcDbLine
 62
7
  6
BYLAYER
 10
15.1817370232
 20
66.0442855828
 11
15.5681566498
 21
65.8211911544
  0
LINE
  5
21E
100
AcDbEntity
  8
0
100
AcDbLine
 62
7
  6
BYLAYER
 10
18.959970153
 20
63.8629710161
 11
24.1578888168
 21
60.862019167
  0
LINE
  5
21F
100
AcDbEntity
  8
0
100
AcDbLine
 62
7
  6
BYLAYER
 10
33.1464657577
 20
55.6725792513
 11
36.2735060802
 21
53.867222522
  0
LINE
  5
220
100
AcDbEntity
  8
0
100
AcDbLine
 62
7
  6
BYLAYER
 10
39.5915888275
 20
51.9515698925
 11
42.1226175513
 21
50.4903128356
  0
LINE
  5
221
100
AcDbEntity
  8
0
100
AcDbLine
 62
7
  6
BYLAYER
 10
15.2006168487
 20
66.0551863046
 11
15.5514337772
 21
65.8526466386
  0
LINE
  5
222
100
AcDbEntity
  8
0
100
AcDbLine
 62
7
  6
BYLAYER
 10
39.6172165571
 20
51.9585747982
 11
42.0899168916
 21
50.5309928907
  0
LINE
  5
223
100
AcDbEntity
  8
0
100
AcDbLine
 62
7
  6
BYLAYER
 10
19.1261677145
 20
86.9869428794
 11
19.1096495788
 21
87.0295155043
  0
LINE
  5
224
100
AcDbEntity
  8
0
100
AcDbLine
 62
7
  6
BYLAYER
 10
15.2006168487
 20
97.1043682055
 11
15.1817370232
 21
97.1530276754
  0
LINE
  5
225
100
AcDbEntity
  8
0
100
AcDbLine
 62
7
  6
BYLAYER
 10
35.2906960313
 20
58.9893139755
 11
19.1261677145
 21
68.3216976238
  0
LINE
  5
226
100
AcDbEntity
  8
0
100
AcDbLine
 62
7
  6
BYLAYER
 10
42.1226175513
 20
50.4903128356
 11
42.0899168916
 21
50.5309928907
  0
LINE
  5
227
100
AcDbEntity
  8
0
100
AcDbLine
 62
7
  6
BYLAYER
 10
35.3193061441
 20
58.9537226151
 11
35.2906960313
 21
58.9893139755
  0
LINE
  5
228
100
AcDbEntity
  8
0
100
AcDbLine
 62
7
  6
BYLAYER
 10
29.0941619028
 20
105.143844014
 11
29.0941619028
 21
106.3259668957
  0
LINE
  5
229
100
AcDbEntity
  8
0
100
AcDbLine
 62
7
  6
BYLAYER
 10
30.4210462309
 20
42.397777567
 11
30.4210462309
 21
54.3720080296
  0
LINE
  5
22A
100
AcDbEntity
  8
0
100
AcDbLine
 62
7
  6
BYLAYER
 10
84.5919136591
 20
138.3674175499
 11
31.9857923347
 21
107.9954405385
  0
LINE
  5
22B
100
AcDbEntity
  8
0
100
AcDbLine
 62
7
  6
BYLAYER
 10
31.9678318972
 20
107.985071137
 11
29.0941619028
 21
106.3259668957
  0
LINE
  5
22C
100
AcDbEntity
  8
0
100
AcDbLine
 62
7
  6
BYLAYER
 10
32.0037529217
 20
107.9850712234
 11
31.9857924843
 21
107.9747018218
  0
LINE
  5
22D
100
AcDbEntity
  8
0
100
AcDbLine
 62
7
  6
BYLAYER
 10
31.9857923347
 20
107.9747018218
 11
31.9857923347
 21
107.9954405385
  0
LINE
  5
22E
100
AcDbEntity
  8
0
100
AcDbLine
 62
7
  6
BYLAYER
 10
35.2906960313
 20
77.6545592311
 11
35.2906960313
 21
58.9893139755
  0
LINE
  5
22F
100
AcDbEntity
  8
0
100
AcDbLine
 62
7
  6
BYLAYER
 10
25.9510890852
 20
103.370678873
 11
15.1817370232
 21
97.1530276754
  0
LINE
  5
230
100
AcDbEntity
  8
0
100
AcDbLine
 62
7
  6
BYLAYER
 10
29.5611371653
 20
105.4134506981
 11
25.9870105696
 21
103.3499400635
  0
LINE
  5
231
100
AcDbEntity
  8
0
100
AcDbLine
 62
7
  6
BYLAYER
 10
15.3353116149
 20
94.3824521919
 11
16.4129378628
 21
95.0046162824
  0
LINE
  5
232
100
AcDbEntity
  8
0
100
AcDbLine
 62
7
  6
BYLAYER
 10
56.93307178
 20
58.3152198428
 11
56.2685266481
 21
58.6988864739
  0
LINE
  5
233
100
AcDbEntity
  8
0
100
AcDbLine
 62
7
  6
BYLAYER
 10
36.7274113858
 20
101.2968331088
 11
33.1353238927
 21
99.2229528071
  0
LINE
  5
234
100
AcDbEntity
  8
0
100
AcDbLine
 62
7
  6
BYLAYER
 10
19.1261677145
 20
86.9869428794
 11
35.2906960313
 21
77.6545592311
  0
LINE
  5
235
100
AcDbEntity
  8
0
100
AcDbLine
 62
7
  6
BYLAYER
 10
60.2557527111
 20
64.3621090744
 11
68.3214573121
 21
59.7054776989
  0
LINE
  5
236
100
AcDbEntity
  8
0
100
AcDbLine
 62
7
  6
BYLAYER
 10
41.5970462309
 20
42.397777567
 11
41.5970462309
 21
50.7937447143
  0
LINE
  5
237
100
AcDbEntity
  8
0
100
AcDbLine
 62
7
  6
BYLAYER
 10
42.0899168916
 20
50.5309928907
 11
42.0899168916
 21
54.5945467726
  0
LINE
  5
238
100
AcDbEntity
  8
0
100
AcDbLine
 62
7
  6
BYLAYER
 10
42.0899168916
 20
77.5166209097
 11
42.0899168916
 21
81.5801747916
  0
LINE
  5
239
100
AcDbEntity
  8
0
100
AcDbLine
 62
7
  6
BYLAYER
 10
42.1226175513
 20
50.4903128356
 11
42.1226175513
 21
81.5990549282
  0
LINE
  5
23A
100
AcDbEntity
  8
0
100
AcDbLine
 62
7
  6
BYLAYER
 10
19.145294558
 20
87.7833287672
 11
20.2229208059
 21
88.4054928577
  0
LINE
  5
23B
100
AcDbEntity
  8
0
100
AcDbLine
 62
7
  6
BYLAYER
 10
63.1293942922
 20
65.83301953
 11
66.5419058239
 21
63.8628496498
  0
LINE
  5
23C
100
AcDbEntity
  8
0
100
AcDbLine
 62
7
  6
BYLAYER
 10
59.8247022137
 20
69.3380552738
 11
59.8067416267
 21
69.348424589
  0
LINE
  5
23D
100
AcDbEntity
  8
0
100
AcDbLine
 62
7
  6
BYLAYER
 10
60.2377921241
 20
69.5765510648
 11
60.2557527111
 21
69.5661817496
  0
LINE
  5
23E
100
AcDbEntity
  8
0
100
AcDbLine
 62
7
  6
BYLAYER
 10
49.2998222989
 20
94.017573332
 11
49.2998222989
 21
94.0383124934
  0
LINE
  5
23F
100
AcDbEntity
  8
0
100
AcDbLine
 62
7
  6
BYLAYER
 10
42.0899168916
 20
81.5801747916
 11
38.5707865029
 21
83.611899705
  0
LINE
  5
240
100
AcDbEntity
  8
0
100
AcDbLine
 62
7
  6
BYLAYER
 10
18.7197472374
 20
95.072643292
 11
15.2006168487
 21
97.1043682055
  0
LINE
  5
241
100
AcDbEntity
  8
0
100
AcDbLine
 62
7
  6
BYLAYER
 10
42.1226175513
 20
81.5990549282
 11
15.1817370232
 21
97.1530276754
  0
LINE
  5
242
100
AcDbEntity
  8
0
100
AcDbLine
 62
7
  6
BYLAYER
 10
52.8919696133
 20
56.7079640332
 11
52.8919696133
 21
65.0036285912
  0
LINE
  5
243
100
AcDbEntity
  8
0
100
AcDbLine
 62
7
  6
BYLAYER
 10
52.8919696133
 20
79.5210415678
 11
52.8919696133
 21
87.8167061258
  0
LINE
  5
244
100
AcDbEntity
  8
0
100
AcDbLine
 62
7
  6
BYLAYER
 10
49.2998222989
 20
94.0383124934
 11
45.7077348058
 21
91.9644321917
  0
LINE
  5
245
100
AcDbEntity
  8
0
100
AcDbLine
 62
7
  6
BYLAYER
 10
49.2998222989
 20
94.017573332
 11
45.7256957032
 21
91.9540626974
  0
LINE
  5
246
100
AcDbEntity
  8
0
100
AcDbLine
 62
7
  6
BYLAYER
 10
66.5419058239
 20
73.1954722776
 11
66.5239452369
 21
73.2058415927
  0
LINE
  5
247
100
AcDbEntity
  8
0
100
AcDbLine
 62
7
  6
BYLAYER
 10
56.4840571064
 20
81.5949218694
 11
56.4660965194
 21
81.6052911846
  0
LINE
  5
248
100
AcDbEntity
  8
0
100
AcDbLine
 62
7
  6
BYLAYER
 10
56.4660965194
 20
58.8129528114
 11
56.4660965194
 21
67.067139405
  0
LINE
  5
249
100
AcDbEntity
  8
0
100
AcDbLine
 62
7
  6
BYLAYER
 10
56.4660965194
 20
81.6052911846
 11
56.4660965194
 21
89.8802165812
  0
LINE
  5
24A
100
AcDbEntity
  8
0
100
AcDbLine
 62
7
  6
BYLAYER
 10
56.4840571064
 20
67.0775088929
 11
56.4840571064
 21
81.5949218694
  0
LINE
  5
24B
100
AcDbEntity
  8
0
100
AcDbLine
 62
7
  6
BYLAYER
 10
56.93307178
 20
90.2535283912
 11
56.93307178
 21
58.3152198428
  0
LINE
  5
24C
100
AcDbEntity
  8
0
100
AcDbLine
 62
7
  6
BYLAYER
 10
35.9899866864
 20
82.4577397523
 11
37.0676129344
 21
83.0799038428
  0
LINE
  5
24D
100
AcDbEntity
  8
0
100
AcDbLine
 62
7
  6
BYLAYER
 10
15.3353116149
 20
70.5324165875
 11
16.4129378628
 21
71.154580678
  0
LINE
  5
24E
100
AcDbEntity
  8
0
100
AcDbLine
 62
7
  6
BYLAYER
 10
59.8067416249
 20
91.9333713493
 11
59.7887811875
 21
91.9230019477
  0
LINE
  5
24F
100
AcDbEntity
  8
0
100
AcDbLine
 62
7
  6
BYLAYER
 10
59.8067417745
 20
91.9126326326
 11
56.93307178
 21
90.2535283912
  0
LINE
  5
250
100
AcDbEntity
  8
0
100
AcDbLine
 62
7
  6
BYLAYER
 10
59.8247022137
 20
91.9230020331
 11
112.4308235381
 21
122.2949790444
  0
LINE
  5
251
100
AcDbEntity
  8
0
100
AcDbLine
 62
7
  6
BYLAYER
 10
19.1261677145
 20
68.3216976238
 11
19.1096495788
 21
68.3121604804
  0
LINE
  5
252
100
AcDbEntity
  8
0
100
AcDbLine
 62
7
  6
BYLAYER
 10
15.2006168487
 20
66.0551863046
 11
15.1817370232
 21
66.0442855828
  0
LINE
  5
253
100
AcDbEntity
  8
0
100
AcDbLine
 62
7
  6
BYLAYER
 10
35.2906960313
 20
77.6545592311
 11
35.3193061441
 21
77.671077639
  0
LINE
  5
254
100
AcDbEntity
  8
0
100
AcDbLine
 62
7
  6
BYLAYER
 10
56.4660965194
 20
89.8802165812
 11
42.0899168916
 21
81.5801747916
  0
LINE
  5
255
100
AcDbEntity
  8
0
100
AcDbLine
 62
7
  6
BYLAYER
 10
52.8919696133
 20
87.8167061258
 11
45.7077348058
 21
91.9644321917
  0
LINE
  5
256
100
AcDbEntity
  8
0
100
AcDbLine
 62
7
  6
BYLAYER
 10
33.1353238927
 20
99.2229528071
 11
25.9510890852
 21
103.370678873
  0
LINE
  5
257
100
AcDbEntity
  8
0
100
AcDbLine
 62
7
  6
BYLAYER
 10
59.8067417745
 20
69.3069467119
 11
59.8067416249
 21
91.9333713493
  0
LINE
  5
258
100
AcDbEntity
  8
0
100
AcDbLine
 62
7
  6
BYLAYER
 10
59.8247022137
 20
69.3380552738
 11
59.8247022137
 21
91.9230020331
  0
LINE
  5
259
100
AcDbEntity
  8
0
100
AcDbLine
 62
7
  6
BYLAYER
 10
60.2557527111
 20
69.5661817496
 11
60.2557527111
 21
60.2335591219
  0
LINE
  5
25A
100
AcDbEntity
  8
0
100
AcDbLine
 62
7
  6
BYLAYER
 10
63.1293942922
 20
65.83301953
 11
63.1293942922
 21
71.2460083896
  0
LINE
  5
25B
100
AcDbEntity
  8
0
100
AcDbLine
 62
7
  6
BYLAYER
 10
39.7999696295
 20
75.8586163277
 11
40.8775958775
 21
76.4807804182
  0
LINE
  5
25C
100
AcDbEntity
  8
0
100
AcDbLine
 62
7
  6
BYLAYER
 10
19.145294558
 20
63.9332931629
 11
20.2229208059
 21
64.5554572534
  0
LINE
  5
25D
100
AcDbEntity
  8
0
100
AcDbLine
 62
7
  6
BYLAYER
 10
56.4660965194
 20
89.8802165812
 11
49.2998222989
 21
94.017573332
  0
LINE
  5
25E
100
AcDbEntity
  8
0
100
AcDbLine
 62
7
  6
BYLAYER
 10
36.7094504884
 20
101.2864634417
 11
29.5611371653
 21
105.4134506981
  0
LINE
  5
25F
100
AcDbEntity
  8
0
100
AcDbLine
 62
7
  6
BYLAYER
 10
49.2998222989
 20
94.0383124934
 11
36.7274113858
 21
101.2968331088
  0
LINE
  5
260
100
AcDbEntity
  8
0
100
AcDbLine
 62
7
  6
BYLAYER
 10
29.0941619028
 20
106.3259668957
 11
56.9330717818
 21
90.2535283902
  0
LINE
  5
261
100
AcDbEntity
  8
0
100
AcDbLine
 62
7
  6
BYLAYER
 10
67.5297298845
 20
64.4331667327
 11
68.3214573121
 21
59.7054776989
  0
LINE
  5
262
100
AcDbEntity
  8
0
100
AcDbLine
 62
7
  6
BYLAYER
 10
66.5419058239
 20
63.8628496498
 11
66.5419058239
 21
73.1954722776
  0
LINE
  5
263
100
AcDbEntity
  8
0
100
AcDbLine
 62
7
  6
BYLAYER
 10
52.8919696133
 20
79.5417803708
 11
56.4660965194
 21
81.6052911846
  0
LINE
  5
264
100
AcDbEntity
  8
0
100
AcDbLine
 62
7
  6
BYLAYER
 10
56.4840571064
 20
81.5949218694
 11
52.8919696133
 21
79.5210415678
  0
LINE
  5
265
100
AcDbEntity
  8
0
100
AcDbLine
 62
7
  6
BYLAYER
 10
59.8067417763
 20
91.9126326315
 11
59.7887811893
 21
91.9230019467
  0
LINE
  5
266
100
AcDbEntity
  8
0
100
AcDbLine
 62
7
  6
BYLAYER
 10
31.9857924843
 20
107.9747018218
 11
31.9678318972
 21
107.985071137
  0
LINE
  5
267
100
AcDbEntity
  8
0
100
AcDbLine
 62
7
  6
BYLAYER
 10
31.9857923347
 20
107.9954405385
 11
32.0037529217
 21
107.9850712234
  0
LINE
  5
268
100
AcDbEntity
  8
0
100
AcDbLine
 62
7
  6
BYLAYER
 10
59.8067416267
 20
91.9333713482
 11
59.8247022137
 21
91.9230020331
  0
LINE
  5
269
100
AcDbEntity
  8
0
100
AcDbLine
 62
7
  6
BYLAYER
 10
35.9899866864
 20
58.607704148
 11
37.0676129344
 21
59.2298682385
  0
LINE
  5
26A
100
AcDbEntity
  8
0
100
AcDbLine
 62
7
  6
BYLAYER
 10
35.3193305037
 20
58.953736658
 11
35.3193061441
 21
58.9537226151
  0
LINE
  5
26B
100
AcDbEntity
  8
0
100
AcDbLine
 62
7
  6
BYLAYER
 10
112.4308235381
 20
99.7100322852
 11
59.8247022137
 21
69.3380552738
  0
LINE
  5
26C
100
AcDbEntity
  8
0
100
AcDbLine
 62
7
  6
BYLAYER
 10
59.8067417763
 20
69.3069467109
 11
60.2557527129
 21
69.5661817486
  0
LINE
  5
26D
100
AcDbEntity
  8
0
100
AcDbLine
 62
7
  6
BYLAYER
 10
66.5419058257
 20
73.1954722765
 11
112.4308235381
 21
99.6892931238
  0
LINE
  5
26E
100
AcDbEntity
  8
0
100
AcDbLine
 62
7
  6
BYLAYER
 10
56.4840571064
 20
67.0775088929
 11
52.8919696133
 21
65.0036285912
  0
LINE
  5
26F
100
AcDbEntity
  8
0
100
AcDbLine
 62
7
  6
BYLAYER
 10
39.7999696295
 20
52.0085807233
 11
40.8775958775
 21
52.6307448138
  0
LINE
  5
270
100
AcDbEntity
  8
0
100
AcDbLine
 62
7
  6
BYLAYER
 10
56.4660965194
 20
58.8129528114
 11
52.8919696133
 21
56.7494419976
  0
LINE
  5
271
100
AcDbEntity
  8
0
100
AcDbLine
 62
7
  6
BYLAYER
 10
52.8919696133
 20
56.7079640332
 11
42.1226175513
 21
50.4903128356
  0
LINE
  5
272
100
AcDbEntity
  8
0
100
AcDbLine
 62
7
  6
BYLAYER
 10
112.4308235458
 20
90.3566705025
 11
102.0137698178
 21
84.3424176287
  0
LINE
  5
273
100
AcDbEntity
  8
0
100
AcDbLine
 62
7
  6
BYLAYER
 10
67.5297298845
 20
64.4331667327
 11
66.5419058239
 21
63.8628496498
  0
LINE
  5
274
100
AcDbEntity
  8
0
100
AcDbLine
 62
7
  6
BYLAYER
 10
60.2557527111
 20
60.2335591219
 11
56.93307178
 21
58.3152198428
  0
LINE
  5
275
100
AcDbEntity
  8
0
100
AcDbLine
 62
7
  6
BYLAYER
 10
68.3214573121
 20
59.7054776989
 11
102.0137698178
 21
79.15762728
  0
LINE
  5
276
100
AcDbEntity
  8
0
100
AcDbLine
 62
7
  6
BYLAYER
 10
102.0137698178
 20
84.3424176287
 11
102.0137698178
 21
79.15762728
  0
LINE
  5
277
100
AcDbEntity
  8
0
100
AcDbLine
 62
7
  6
BYLAYER
 10
112.4308235494
 20
122.294979051
 11
112.4308235494
 21
99.7100322917
  0
LINE
  5
278
100
AcDbEntity
  8
0
100
AcDbLine
 62
7
  6
BYLAYER
 10
112.4308235476
 20
99.6892931314
 11
112.4308235476
 21
90.3566705036
  0
LINE
  5
279
100
AcDbEntity
  8
0
100
AcDbLine
 62
7
  6
BYLAYER
 10
112.8027941949
 20
100.2077588886
 11
112.8027941949
 21
90.8751362608
  0
LINE
  5
27A
100
AcDbEntity
  8
0
100
AcDbLine
 62
7
  6
BYLAYER
 10
112.8027941949
 20
100.22849805
 11
112.8027941949
 21
122.8134448092
  0
LINE
  5
27B
100
AcDbEntity
  8
0
100
AcDbLine
 62
7
  6
BYLAYER
 10
112.4308160604
 20
123.3319148912
 11
86.3879649059
 21
138.3674218671
  0
ARC
  5
27C
100
AcDbEntity
  8
0
100
AcDbCircle
 62
7
  6
BYLAYER
 10
17.8370847443
 20
69.8635938523
 40
2.6449453322
100
AcDbArc
 50
163.3014612336
 51
164.1747561576
  0
ARC
  5
27D
100
AcDbEntity
  8
0
100
AcDbCircle
 62
7
  6
BYLAYER
 10
19.815369212
 20
66.4279582255
 40
2.6383915058
100
AcDbArc
 50
255.8555155238
 51
256.8931588357
  0
ARC
  5
27E
100
AcDbEntity
  8
0
100
AcDbCircle
 62
7
  6
BYLAYER
 10
19.8102907498
 20
90.2586486963
 40
2.6184698772
100
AcDbArc
 50
256.0494842378
 51
256.8481216617
  0
ARC
  5
27F
100
AcDbEntity
  8
0
100
AcDbCircle
 62
7
  6
BYLAYER
 10
40.4622511728
 20
78.3224404198
 40
2.6066402875
100
AcDbArc
 50
256.0229974169
 51
257.0137448069
  0
ARC
  5
280
100
AcDbEntity
  8
0
100
AcDbCircle
 62
7
  6
BYLAYER
 10
38.4531656878
 20
81.799831351
 40
2.6049010645
100
AcDbArc
 50
162.874394311
 51
163.8634793333
  0
ARC
  5
281
100
AcDbEntity
  8
0
100
AcDbCircle
 62
7
  6
BYLAYER
 10
19.7827314423
 20
65.3264785642
 40
1.5230009598
100
AcDbArc
 50
289.5667255131
 51
292.4002896118
  0
ARC
  5
282
100
AcDbEntity
  8
0
100
AcDbCircle
 62
7
  6
BYLAYER
 10
16.8589741907
 20
70.3899775893
 40
1.5203546265
100
AcDbArc
 50
126.7656854171
 51
130.4044950057
  0
ARC
  5
283
100
AcDbEntity
  8
0
100
AcDbCircle
 62
7
  6
BYLAYER
 10
18.469150597
 20
65.1610695495
 40
1.4047154106
100
AcDbArc
 50
279.288895006
 51
283.8729687844
  0
ARC
  5
284
100
AcDbEntity
  8
0
100
AcDbCircle
 62
7
  6
BYLAYER
 10
19.5871803593
 20
89.5061718941
 40
1.2710637416
100
AcDbArc
 50
300.0102715455
 51
301.8564586343
  0
ARC
  5
285
100
AcDbEntity
  8
0
100
AcDbCircle
 62
7
  6
BYLAYER
 10
37.7025517631
 20
58.1305609507
 40
1.269474962
100
AcDbArc
 50
118.9699755485
 51
120.009907665
  0
ARC
  5
286
100
AcDbEntity
  8
0
100
AcDbCircle
 62
7
  6
BYLAYER
 10
111.8484149049
 20
100.6981231192
 40
1.1648767212
100
AcDbArc
 50
299.9983116399
 51
300.8652776809
  0
ARC
  5
287
100
AcDbEntity
  8
0
100
AcDbCircle
 62
7
  6
BYLAYER
 10
103.045026607
 20
120.0705803861
 40
1.0512251508
100
AcDbArc
 50
316.5730741878
 51
318.3358774984
  0
ARC
  5
288
100
AcDbEntity
  8
0
100
AcDbCircle
 62
7
  6
BYLAYER
 10
39.8241117519
 20
107.8345855843
 40
1.0512251507
100
AcDbArc
 50
316.5730741877
 51
318.3358774985
  0
ARC
  5
289
100
AcDbEntity
  8
0
100
AcDbCircle
 62
7
  6
BYLAYER
 10
112.3767398923
 20
100.2284987549
 40
0.4259832423
100
AcDbArc
 50
358.6034091732
 51
359.9999052487
  0
SPLINE
  5
28A
100
AcDbEntity
  8
0
100
AcDbSpline
 62
7
  6
BYLAYER
 70
0
 71
3
 72
18
 73
14
 74
0
 42
0.0000001
 43
0.0000001
 44
0.0000000001
 40
0.0
 40
0.0
 40
0.0
 40
0.0
 40
0.1286561911
 40
0.2702032914
 40
0.4173188539
 40
0.5616277803
 40
0.6952644396
 40
0.7562715049
 40
0.8127642906
 40
0.8647138337
 40
0.9125352117
 40
0.9571529353
 40
1.0
 40
1.0
 40
1.0
 40
1.0
 10
39.960375375
 20
40.1165282307
 30
0.0
 10
39.5467252338
 20
39.8777086359
 30
0.0
 10
38.610162892
 20
39.4912914923
 30
0.0
 10
37.0838384381
 20
39.1859054325
 30
0.0
 10
35.469145472
 20
39.1412467339
 30
0.0
 10
33.8992895568
 20
39.3616740756
 30
0.0
 10
32.6961988789
 20
39.7635272673
 30
0.0
 10
31.8751175529
 20
40.2098654441
 30
0.0
 10
31.3654104619
 20
40.5823192712
 30
0.0
 10
30.9541277768
 20
40.9953941851
 30
0.0
 10
30.6506277954
 20
41.4417430691
 30
0.0
 10
30.4635894886
 20
41.9126036706
 30
0.0
 10
30.4210912381
 20
42.2387061061
 30
0.0
 10
30.4210874857
 20
42.3977775719
 30
0.0
  0
SPLINE
  5
28B
100
AcDbEntity
  8
0
100
AcDbSpline
 62
7
  6
BYLAYER
 70
0
 71
3
 72
16
 73
12
 74
0
 42
0.0000001
 43
0.0000001
 44
0.0000000001
 40
0.0
 40
0.0
 40
0.0
 40
0.0
 40
0.1509983916
 40
0.2999149325
 40
0.4430700611
 40
0.5772677145
 40
0.7001472771
 40
0.8106254397
 40
0.9094456581
 40
0.9554891772
 40
1.0
 40
1.0
 40
1.0
 40
1.0
 10
36.7565439236
 20
53.1321688387
 30
0.0
 10
36.2109193522
 20
53.1039816669
 30
0.0
 10
35.1230469341
 20
53.1092988346
 30
0.0
 10
33.5276401538
 20
53.2978726039
 30
0.0
 10
32.0242775751
 20
53.6600536285
 30
0.0
 10
30.6686259949
 20
54.1826478068
 30
0.0
 10
29.5097580111
 20
54.8479559062
 30
0.0
 10
28.5897949293
 20
55.6339372865
 30
0.0
 10
28.0394302261
 20
56.3911830475
 30
0.0
 10
27.7691242377
 20
57.0234197492
 30
0.0
 10
27.689179686
 20
57.3429726939
 30
0.0
 10
27.6634285427
 20
57.5019525896
 30
0.0
  0
SPLINE
  5
28C
100
AcDbEntity
  8
0
100
AcDbSpline
 62
7
  6
BYLAYER
 70
0
 71
3
 72
11
 73
7
 74
0
 42
0.0000001
 43
0.0000001
 44
0.0000000001
 40
0.0
 40
0.0
 40
0.0
 40
0.0
 40
0.2177803682
 40
0.4509244437
 40
0.710260382
 40
1.0
 40
1.0
 40
1.0
 40
1.0
 10
35.9899979509
 20
82.4577202569
 30
0.0
 10
35.8643076436
 20
82.3851826849
 30
0.0
 10
35.6291773941
 20
82.1874621549
 30
0.0
 10
35.3788482903
 20
81.7781893311
 30
0.0
 10
35.2301163185
 20
81.2737747803
 30
0.0
 10
35.2008901052
 20
80.9066457559
 30
0.0
 10
35.2008901052
 20
80.7135753147
 30
0.0
  0
SPLINE
  5
28D
100
AcDbEntity
  8
0
100
AcDbSpline
 62
7
  6
BYLAYER
 70
0
 71
3
 72
11
 73
7
 74
0
 42
0.0000001
 43
0.0000001
 44
0.0000000001
 40
0.0
 40
0.0
 40
0.0
 40
0.0
 40
0.2663069552
 40
0.5235905608
 40
0.7688622175
 40
1.0
 40
1.0
 40
1.0
 40
1.0
 10
33.1464657577
 20
55.6725792513
 30
0.0
 10
32.6039018154
 20
55.7482416589
 30
0.0
 10
31.5426680473
 20
55.9409359171
 30
0.0
 10
30.0151478682
 20
56.3592636968
 30
0.0
 10
28.6018337813
 20
56.8954673322
 30
0.0
 10
27.7251671805
 20
57.3391196384
 30
0.0
 10
27.3151685791
 20
57.5798922163
 30
0.0
  0
SPLINE
  5
28E
100
AcDbEntity
  8
0
100
AcDbSpline
 62
7
  6
BYLAYER
 70
0
 71
3
 72
11
 73
7
 74
0
 42
0.0000001
 43
0.0000001
 44
0.0000000001
 40
0.0
 40
0.0
 40
0.0
 40
0.0
 40
0.2789596933
 40
0.5376861214
 40
0.7771846441
 40
1.0
 40
1.0
 40
1.0
 40
1.0
 10
27.3151685791
 20
57.5798922163
 30
0.0
 10
26.9441429545
 20
57.7977778281
 30
0.0
 10
26.2517438841
 20
58.258814489
 30
0.0
 10
25.3494560854
 20
59.0544272836
 30
0.0
 10
24.6382502079
 20
59.9160111152
 30
0.0
 10
24.2905359444
 20
60.5449754835
 30
0.0
 10
24.1578888168
 20
60.862019167
 30
0.0
  0
SPLINE
  5
28F
100
AcDbEntity
  8
0
100
AcDbSpline
 62
7
  6
BYLAYER
 70
0
 71
3
 72
17
 73
13
 74
0
 42
0.0000001
 43
0.0000001
 44
0.0000000001
 40
0.0
 40
0.0
 40
0.0
 40
0.0
 40
0.0428581026
 40
0.0874868785
 40
0.1353185455
 40
0.1872839908
 40
0.3045448201
 40
0.4382124207
 40
0.5825558086
 40
0.7297162529
 40
0.8713055297
 40
1.0
 40
1.0
 40
1.0
 40
1.0
 10
15.3353225157
 20
94.3824333066
 30
0.0
 10
15.241404341
 20
94.3281888672
 30
0.0
 10
15.0633183533
 20
94.1919473114
 30
0.0
 10
14.8491147458
 20
93.920954112
 30
0.0
 10
14.688892702
 20
93.5896284477
 30
0.0
 10
14.5451762281
 20
93.0568117323
 30
0.0
 10
14.5270538417
 20
92.2800228751
 30
0.0
 10
14.7281651082
 20
91.2941678323
 30
0.0
 10
15.1333081397
 20
90.2914371695
 30
0.0
 10
15.7101002095
 20
89.3533739749
 30
0.0
 10
16.4107774977
 20
88.5561317335
 30
0.0
 10
16.9582566545
 20
88.1348521698
 30
0.0
 10
17.2403030864
 20
87.9720162703
 30
0.0
  0
SPLINE
  5
290
100
AcDbEntity
  8
0
100
AcDbSpline
 62
7
  6
BYLAYER
 70
0
 71
3
 72
10
 73
6
 74
0
 42
0.0000001
 43
0.0000001
 44
0.0000000001
 40
0.0
 40
0.0
 40
0.0
 40
0.0
 40
0.2284629154
 40
0.4751082624
 40
1.0
 40
1.0
 40
1.0
 40
1.0
 10
14.5462150336
 20
68.7882521499
 30
0.0
 10
14.5462150336
 20
68.574689851
 30
0.0
 10
14.5855032113
 20
68.1300630209
 30
0.0
 10
14.7982530663
 20
67.217940681
 30
0.0
 10
15.0936721251
 20
66.5501821256
 30
0.0
 10
15.3395744968
 20
66.1255917445
 30
0.0
  0
SPLINE
  5
291
100
AcDbEntity
  8
0
100
AcDbSpline
 62
7
  6
BYLAYER
 70
0
 71
3
 72
16
 73
12
 74
0
 42
0.0000001
 43
0.0000001
 44
0.0000000001
 40
0.0
 40
0.0
 40
0.0
 40
0.0
 40
0.1489271467
 40
0.2950037255
 40
0.4355812454
 40
0.5031010087
 40
0.5684222673
 40
0.6916373185
 40
0.8043235645
 40
0.9066039625
 40
1.0
 40
1.0
 40
1.0
 40
1.0
 10
15.3395744968
 20
66.1255917445
 30
0.0
 10
15.4468922725
 20
65.9402901756
 30
0.0
 10
15.6773916162
 20
65.5832493478
 30
0.0
 10
16.0680342224
 20
65.0924535901
 30
0.0
 10
16.4258019542
 20
64.7284465143
 30
0.0
 10
16.7250489406
 20
64.4731367825
 30
0.0
 10
17.0194661108
 20
64.251776604
 30
0.0
 10
17.3904713162
 20
64.0253544028
 30
0.0
 10
17.8417720874
 20
63.8381150812
 30
0.0
 10
18.2785721318
 20
63.7465083596
 30
0.0
 10
18.5633679305
 20
63.7530539711
 30
0.0
 10
18.6958892891
 20
63.7747741445
 30
0.0
  0
SPLINE
  5
292
100
AcDbEntity
  8
0
100
AcDbSpline
 62
7
  6
BYLAYER
 70
0
 71
3
 72
9
 73
5
 74
0
 42
0.0000001
 43
0.0000001
 44
0.0000000001
 40
0.0
 40
0.0
 40
0.0
 40
0.0
 40
0.2532081065
 40
1.0
 40
1.0
 40
1.0
 40
1.0
 10
18.8059592777
 20
63.797330096
 30
0.0
 10
18.8359659933
 20
63.804752615
 30
0.0
 10
18.9534485154
 20
63.8380391385
 30
0.0
 10
19.0663224543
 20
63.8877432926
 30
0.0
 10
19.1452832936
 20
63.9333126583
 30
0.0
  0
SPLINE
  5
293
100
AcDbEntity
  8
0
100
AcDbSpline
 62
7
  6
BYLAYER
 70
0
 71
3
 72
17
 73
13
 74
0
 42
0.0000001
 43
0.0000001
 44
0.0000000001
 40
0.0
 40
0.0
 40
0.0
 40
0.0
 40
0.0428581026
 40
0.0874868785
 40
0.1353185455
 40
0.1872839908
 40
0.3045448201
 40
0.4382124207
 40
0.5825558086
 40
0.7297162529
 40
0.8713055297
 40
1.0
 40
1.0
 40
1.0
 40
1.0
 10
35.9899975872
 20
58.6076852627
 30
0.0
 10
35.8960794126
 20
58.5534408233
 30
0.0
 10
35.7179934248
 20
58.4171992675
 30
0.0
 10
35.5037898174
 20
58.1462060681
 30
0.0
 10
35.3435677736
 20
57.8148804038
 30
0.0
 10
35.1998512997
 20
57.2820636884
 30
0.0
 10
35.1817289132
 20
56.5052748312
 30
0.0
 10
35.3828401797
 20
55.5194197884
 30
0.0
 10
35.7879832112
 20
54.5166891256
 30
0.0
 10
36.3647752811
 20
53.578625931
 30
0.0
 10
37.0654525693
 20
52.7813836896
 30
0.0
 10
37.6129317261
 20
52.3601041259
 30
0.0
 10
37.894978158
 20
52.1972682264
 30
0.0
  0
SPLINE
  5
294
100
AcDbEntity
  8
0
100
AcDbSpline
 62
7
  6
BYLAYER
 70
0
 71
3
 72
10
 73
6
 74
0
 42
0.0000001
 43
0.0000001
 44
0.0000000001
 40
0.0
 40
0.0
 40
0.0
 40
0.0
 40
0.2290123451
 40
0.4752069063
 40
1.0
 40
1.0
 40
1.0
 40
1.0
 10
63.1293942922
 20
65.83301953
 30
0.0
 10
62.932029684
 20
65.9469654619
 30
0.0
 10
62.5029022864
 20
66.1504387609
 30
0.0
 10
61.5540219619
 20
66.4559729235
 30
0.0
 10
60.7856436686
 20
66.5607936665
 30
0.0
 10
60.2637498928
 20
66.5796501714
 30
0.0
  0
SPLINE
  5
295
100
AcDbEntity
  8
0
100
AcDbSpline
 62
7
  6
BYLAYER
 70
0
 71
3
 72
11
 73
7
 74
0
 42
0.0000001
 43
0.0000001
 44
0.0000000001
 40
0.0
 40
0.0
 40
0.0
 40
0.0
 40
0.2177827477
 40
0.4509152641
 40
0.7103063952
 40
1.0
 40
1.0
 40
1.0
 40
1.0
 10
62.5263060572
 20
95.9566828435
 30
0.0
 10
62.5262928386
 20
95.8599389206
 30
0.0
 10
62.4905622923
 20
95.6582916498
 30
0.0
 10
62.3376855913
 20
95.3773309188
 30
0.0
 10
62.0960236487
 20
95.1233634067
 30
0.0
 10
61.8938239587
 20
94.9840951702
 30
0.0
 10
61.7823764376
 20
94.919751298
 30
0.0
  0
SPLINE
  5
296
100
AcDbEntity
  8
0
100
AcDbSpline
 62
7
  6
BYLAYER
 70
0
 71
3
 72
9
 73
5
 74
0
 42
0.0000001
 43
0.0000001
 44
0.0000000001
 40
0.0
 40
0.0
 40
0.0
 40
0.0
 40
0.476306865
 40
1.0
 40
1.0
 40
1.0
 40
1.0
 10
104.0335499255
 20
119.8571082733
 30
0.0
 10
104.0335140719
 20
119.7721349264
 30
0.0
 10
103.9945017103
 20
119.5923418009
 30
0.0
 10
103.8924485849
 20
119.4415668739
 30
0.0
 10
103.8303491812
 20
119.3717651229
 30
0.0
  0
SPLINE
  5
297
100
AcDbEntity
  8
0
100
AcDbSpline
 62
7
  6
BYLAYER
 70
0
 71
3
 72
9
 73
5
 74
0
 42
0.0000001
 43
0.0000001
 44
0.0000000001
 40
0.0
 40
0.0
 40
0.0
 40
0.0
 40
0.2432260175
 40
1.0
 40
1.0
 40
1.0
 40
1.0
 10
103.8084806578
 20
119.3479378535
 30
0.0
 10
103.7990256923
 20
119.3379468193
 30
0.0
 10
103.7593641091
 20
119.2976189044
 30
0.0
 10
103.7167281121
 20
119.2602504153
 30
0.0
 10
103.6832488371
 20
119.233587408
 30
0.0
  0
SPLINE
  5
298
100
AcDbEntity
  8
0
100
AcDbSpline
 62
7
  6
BYLAYER
 70
0
 71
3
 72
9
 73
5
 74
0
 42
0.0000001
 43
0.0000001
 44
0.0000000001
 40
0.0
 40
0.0
 40
0.0
 40
0.0
 40
0.2605686625
 40
1.0
 40
1.0
 40
1.0
 40
1.0
 10
100.7201703627
 20
119.2204069078
 30
0.0
 10
100.7028008137
 20
119.2338030215
 30
0.0
 10
100.6373933958
 20
119.2867937562
 30
0.0
 10
100.5771549227
 20
119.3463496439
 30
0.0
 10
100.5371418117
 20
119.3940324737
 30
0.0
  0
SPLINE
  5
299
100
AcDbEntity
  8
0
100
AcDbSpline
 62
7
  6
BYLAYER
 70
0
 71
3
 72
9
 73
5
 74
0
 42
0.0000001
 43
0.0000001
 44
0.0000000001
 40
0.0
 40
0.0
 40
0.0
 40
0.0
 40
0.5217327724
 40
1.0
 40
1.0
 40
1.0
 40
1.0
 10
100.5371418117
 20
119.3940324737
 30
0.0
 10
100.4805566695
 20
119.4614638639
 30
0.0
 10
100.3881227136
 20
119.6064522083
 30
0.0
 10
100.3531075845
 20
119.7764141862
 30
0.0
 10
100.3531416326
 20
119.857108266
 30
0.0
  0
SPLINE
  5
29A
100
AcDbEntity
  8
0
100
AcDbSpline
 62
7
  6
BYLAYER
 70
0
 71
3
 72
11
 73
7
 74
0
 42
0.0000001
 43
0.0000001
 44
0.0000000001
 40
0.0
 40
0.0
 40
0.0
 40
0.0
 40
0.2372531815
 40
0.5000006935
 40
0.7627478297
 40
1.0
 40
1.0
 40
1.0
 40
1.0
 10
86.3879649059
 20
138.3674218671
 30
0.0
 10
86.2604634823
 20
138.4410331827
 30
0.0
 10
85.9639795498
 20
138.5484664224
 30
0.0
 10
85.4899376104
 20
138.5998284504
 30
0.0
 10
85.0158965498
 20
138.5484641574
 30
0.0
 10
84.7194140083
 20
138.4410294712
 30
0.0
 10
84.5919136591
 20
138.3674175499
 30
0.0
  0
SPLINE
  5
29B
100
AcDbEntity
  8
0
100
AcDbSpline
 62
7
  6
BYLAYER
 70
0
 71
3
 72
13
 73
9
 74
0
 42
0.0000001
 43
0.0000001
 44
0.0000000001
 40
0.0
 40
0.0
 40
0.0
 40
0.0
 40
0.1142082245
 40
0.2375727969
 40
0.5000075035
 40
0.7624637258
 40
0.885748255
 40
1.0
 40
1.0
 40
1.0
 40
1.0
 10
40.6786866906
 20
107.1036966167
 30
0.0
 10
40.5619298076
 20
107.0362874012
 30
0.0
 10
40.3064292484
 20
106.9173848874
 30
0.0
 10
39.7403488546
 20
106.745314586
 30
0.0
 10
38.9723669669
 20
106.6618851781
 30
0.0
 10
38.2045202592
 20
106.7453967253
 30
0.0
 10
37.6384030295
 20
106.9173118327
 30
0.0
 10
37.3829888159
 20
107.0363025203
 30
0.0
 10
37.2661877421
 20
107.1037379441
 30
0.0
  0
SPLINE
  5
29C
100
AcDbEntity
  8
0
100
AcDbSpline
 62
7
  6
BYLAYER
 70
0
 71
3
 72
13
 73
9
 74
0
 42
0.0000001
 43
0.0000001
 44
0.0000000001
 40
0.0
 40
0.0
 40
0.0
 40
0.0
 40
0.1142082245
 40
0.2375727969
 40
0.5000075035
 40
0.7624637258
 40
0.885748255
 40
1.0
 40
1.0
 40
1.0
 40
1.0
 10
103.8996015458
 20
119.3396914185
 30
0.0
 10
103.7828446628
 20
119.272282203
 30
0.0
 10
103.5273441036
 20
119.1533796892
 30
0.0
 10
102.9612637099
 20
118.9813093878
 30
0.0
 10
102.1932818221
 20
118.8978799798
 30
0.0
 10
101.4254351144
 20
118.9813915271
 30
0.0
 10
100.8593178847
 20
119.1533066344
 30
0.0
 10
100.6039036711
 20
119.2722973221
 30
0.0
 10
100.4871025973
 20
119.3397327458
 30
0.0
  0
SPLINE
  5
29D
100
AcDbEntity
  8
0
100
AcDbSpline
 62
7
  6
BYLAYER
 70
0
 71
3
 72
17
 73
13
 74
0
 42
0.0000001
 43
0.0000001
 44
0.0000000001
 40
0.0
 40
0.0
 40
0.0
 40
0.0
 40
0.1286926208
 40
0.2702795078
 40
0.4174383051
 40
0.5617803148
 40
0.6954501289
 40
0.8127134773
 40
0.8646759206
 40
0.9125113962
 40
0.9571388332
 40
1.0
 40
1.0
 40
1.0
 40
1.0
 10
61.7823764376
 20
94.919751298
 30
0.0
 10
61.5943509602
 20
94.811195386
 30
0.0
 10
61.1686430765
 20
94.6355411684
 30
0.0
 10
60.4748134796
 20
94.4967527562
 30
0.0
 10
59.7409762501
 20
94.4764287178
 30
0.0
 10
59.027006988
 20
94.5767646254
 30
0.0
 10
58.3908013433
 20
94.7892700036
 30
0.0
 10
57.9483059658
 20
95.0585983328
 30
0.0
 10
57.6886457556
 20
95.3192222195
 30
0.0
 10
57.5506668691
 20
95.5221096972
 30
0.0
 10
57.4657126797
 20
95.736152974
 30
0.0
 10
57.4463195343
 20
95.8843732186
 30
0.0
 10
57.4463294143
 20
95.9566827855
 30
0.0
  0
SPLINE
  5
29E
100
AcDbEntity
  8
0
100
AcDbSpline
 62
7
  6
BYLAYER
 70
0
 71
3
 72
17
 73
13
 74
0
 42
0.0000001
 43
0.0000001
 44
0.0000000001
 40
0.0
 40
0.0
 40
0.0
 40
0.0
 40
0.1286926208
 40
0.2702795078
 40
0.4174383051
 40
0.5617803148
 40
0.6954501289
 40
0.8127134773
 40
0.8646759206
 40
0.9125113962
 40
0.9571388332
 40
1.0
 40
1.0
 40
1.0
 40
1.0
 10
82.975517669
 20
131.4199435855
 30
0.0
 10
82.7874921915
 20
131.3113876734
 30
0.0
 10
82.3617843078
 20
131.1357334558
 30
0.0
 10
81.6679547109
 20
130.9969450436
 30
0.0
 10
80.9341174814
 20
130.9766210052
 30
0.0
 10
80.2201482193
 20
131.0769569128
 30
0.0
 10
79.5839425747
 20
131.289462291
 30
0.0
 10
79.1414471972
 20
131.5587906202
 30
0.0
 10
78.8817869869
 20
131.819414507
 30
0.0
 10
78.7438081005
 20
132.0223019847
 30
0.0
 10
78.6588539111
 20
132.2363452614
 30
0.0
 10
78.6394607656
 20
132.384565506
 30
0.0
 10
78.6394706457
 20
132.456875073
 30
0.0
  0
SPLINE
  5
29F
100
AcDbEntity
  8
0
100
AcDbSpline
 62
7
  6
BYLAYER
 70
0
 71
3
 72
9
 73
5
 74
0
 42
0.0000001
 43
0.0000001
 44
0.0000000001
 40
0.0
 40
0.0
 40
0.0
 40
0.0
 40
0.476306865
 40
1.0
 40
1.0
 40
1.0
 40
1.0
 10
40.8126350703
 20
107.6211134715
 30
0.0
 10
40.8125992166
 20
107.5361401246
 30
0.0
 10
40.773586855
 20
107.3563469991
 30
0.0
 10
40.6715337296
 20
107.2055720721
 30
0.0
 10
40.609434326
 20
107.1357703211
 30
0.0
  0
SPLINE
  5
2A0
100
AcDbEntity
  8
0
100
AcDbSpline
 62
7
  6
BYLAYER
 70
0
 71
3
 72
9
 73
5
 74
0
 42
0.0000001
 43
0.0000001
 44
0.0000000001
 40
0.0
 40
0.0
 40
0.0
 40
0.0
 40
0.2432260175
 40
1.0
 40
1.0
 40
1.0
 40
1.0
 10
40.5875658026
 20
107.1119430517
 30
0.0
 10
40.5781108371
 20
107.1019520175
 30
0.0
 10
40.5384492539
 20
107.0616241027
 30
0.0
 10
40.4958132569
 20
107.0242556135
 30
0.0
 10
40.4623339818
 20
106.9975926062
 30
0.0
  0
SPLINE
  5
2A1
100
AcDbEntity
  8
0
100
AcDbSpline
 62
7
  6
BYLAYER
 70
0
 71
3
 72
9
 73
5
 74
0
 42
0.0000001
 43
0.0000001
 44
0.0000000001
 40
0.0
 40
0.0
 40
0.0
 40
0.0
 40
0.2605686625
 40
1.0
 40
1.0
 40
1.0
 40
1.0
 10
37.4992555075
 20
106.9844121061
 30
0.0
 10
37.4818859585
 20
106.9978082197
 30
0.0
 10
37.4164785406
 20
107.0507989545
 30
0.0
 10
37.3562400675
 20
107.1103548421
 30
0.0
 10
37.3162269565
 20
107.1580376719
 30
0.0
  0
SPLINE
  5
2A2
100
AcDbEntity
  8
0
100
AcDbSpline
 62
7
  6
BYLAYER
 70
0
 71
3
 72
9
 73
5
 74
0
 42
0.0000001
 43
0.0000001
 44
0.0000000001
 40
0.0
 40
0.0
 40
0.0
 40
0.0
 40
0.5217327724
 40
1.0
 40
1.0
 40
1.0
 40
1.0
 10
37.3162269565
 20
107.1580376719
 30
0.0
 10
37.2596418143
 20
107.2254690622
 30
0.0
 10
37.1672078584
 20
107.3704574065
 30
0.0
 10
37.1321927293
 20
107.5404193844
 30
0.0
 10
37.1322267774
 20
107.6211134643
 30
0.0
  0
SPLINE
  5
2A3
100
AcDbEntity
  8
0
100
AcDbSpline
 62
7
  6
BYLAYER
 70
0
 71
3
 72
11
 73
7
 74
0
 42
0.0000001
 43
0.0000001
 44
0.0000000001
 40
0.0
 40
0.0
 40
0.0
 40
0.0
 40
0.2177434117
 40
0.4508805376
 40
0.7104578122
 40
1.0
 40
1.0
 40
1.0
 40
1.0
 10
112.8027231347
 20
122.8134448087
 30
0.0
 10
112.8027231197
 20
122.8618076455
 30
0.0
 10
112.7849631885
 20
122.962639636
 30
0.0
 10
112.7084736152
 20
123.103153077
 30
0.0
 10
112.5875774709
 20
123.2300724354
 30
0.0
 10
112.4865104801
 20
123.2997604303
 30
0.0
 10
112.4308160604
 20
123.3319148912
 30
0.0
  0
SPLINE
  5
2A4
100
AcDbEntity
  8
0
100
AcDbSpline
 62
7
  6
BYLAYER
 70
0
 71
3
 72
9
 73
5
 74
0
 42
0.0000001
 43
0.0000001
 44
0.0000000001
 40
0.0
 40
0.0
 40
0.0
 40
0.0
 40
0.7472855677
 40
1.0
 40
1.0
 40
1.0
 40
1.0
 10
112.8025965928
 20
100.2181163954
 30
0.0
 10
112.8019576342
 20
100.1919074503
 30
0.0
 10
112.7978224328
 20
100.156800479
 30
0.0
 10
112.7895765425
 20
100.1226937393
 30
0.0
 10
112.7872411519
 20
100.1141409714
 30
0.0
  0
SPLINE
  5
2A5
100
AcDbEntity
  8
0
100
AcDbSpline
 62
7
  6
BYLAYER
 70
0
 71
3
 72
10
 73
6
 74
0
 42
0.0000001
 43
0.0000001
 44
0.0000000001
 40
0.0
 40
0.0
 40
0.0
 40
0.0
 40
0.4554602813
 40
0.7161484645
 40
1.0
 40
1.0
 40
1.0
 40
1.0
 10
112.7872411519
 20
100.1141409714
 30
0.0
 10
112.7652472458
 20
100.0335939399
 30
0.0
 10
112.6941565372
 20
99.9162554748
 30
0.0
 10
112.5592826944
 20
99.7919003851
 30
0.0
 10
112.4758882795
 20
99.7360502706
 30
0.0
 10
112.4308235381
 20
99.7100322852
 30
0.0
  0
SPLINE
  5
2A6
100
AcDbEntity
  8
0
100
AcDbSpline
 62
7
  6
BYLAYER
 70
0
 71
3
 72
11
 73
7
 74
0
 42
0.0000001
 43
0.0000001
 44
0.0000000001
 40
0.0
 40
0.0
 40
0.0
 40
0.0
 40
0.217765166
 40
0.4514635617
 40
0.7110336347
 40
1.0
 40
1.0
 40
1.0
 40
1.0
 10
105.3676239222
 20
86.2740908395
 30
0.0
 10
105.3632987115
 20
86.1560111239
 30
0.0
 10
105.3119352464
 20
85.9112759233
 30
0.0
 10
105.1188185981
 20
85.5716776255
 30
0.0
 10
104.8211708664
 20
85.2641900519
 30
0.0
 10
104.5742056644
 20
85.0947831846
 30
0.0
 10
104.4384191564
 20
85.0163872756
 30
0.0
  0
SPLINE
  5
2A7
100
AcDbEntity
  8
0
100
AcDbSpline
 62
7
  6
BYLAYER
 70
0
 71
3
 72
11
 73
7
 74
0
 42
0.0000001
 43
0.0000001
 44
0.0000000001
 40
0.0
 40
0.0
 40
0.0
 40
0.0
 40
0.2177827477
 40
0.4509152641
 40
0.7103063952
 40
1.0
 40
1.0
 40
1.0
 40
1.0
 10
83.7194472886
 20
132.4568751309
 30
0.0
 10
83.71943407
 20
132.360131208
 30
0.0
 10
83.6837035236
 20
132.1584839372
 30
0.0
 10
83.5308268227
 20
131.8775232062
 30
0.0
 10
83.2891648801
 20
131.6235556942
 30
0.0
 10
83.0869651901
 20
131.4842874577
 30
0.0
 10
82.975517669
 20
131.4199435855
 30
0.0
  0
SPLINE
  5
2A8
100
AcDbEntity
  8
0
100
AcDbSpline
 62
7
  6
BYLAYER
 70
0
 71
3
 72
11
 73
7
 74
0
 42
0.0000001
 43
0.0000001
 44
0.0000000001
 40
0.0
 40
0.0
 40
0.0
 40
0.0
 40
0.2177438688
 40
0.4508811915
 40
0.7104582955
 40
1.0
 40
1.0
 40
1.0
 40
1.0
 10
112.8027231346
 20
90.8751362612
 30
0.0
 10
112.8027231239
 20
90.8267739467
 30
0.0
 10
112.7849635983
 20
90.7259431206
 30
0.0
 10
112.7084756822
 20
90.5854310408
 30
0.0
 10
112.5875819914
 20
90.4585126248
 30
0.0
 10
112.4865169223
 20
90.3888248966
 30
0.0
 10
112.4308235458
 20
90.3566705025
 30
0.0
  0
SPLINE
  5
2A9
100
AcDbEntity
  8
0
100
AcDbSpline
 62
7
  6
BYLAYER
 70
0
 71
3
 72
9
 73
5
 74
0
 42
0.0000001
 43
0.0000001
 44
0.0000000001
 40
0.0
 40
0.0
 40
0.0
 40
0.0
 40
0.2480431922
 40
1.0
 40
1.0
 40
1.0
 40
1.0
 10
15.3353228793
 20
70.5323970921
 30
0.0
 10
15.3079001884
 20
70.5165710872
 30
0.0
 10
15.1997393665
 20
70.4486709006
 30
0.0
 10
15.1020695284
 20
70.3643213432
 30
0.0
 10
15.0363750447
 20
70.2943411086
 30
0.0
  0
SPLINE
  5
2AA
100
AcDbEntity
  8
0
100
AcDbSpline
 62
7
  6
BYLAYER
 70
0
 71
3
 72
11
 73
7
 74
0
 42
0.0000001
 43
0.0000001
 44
0.0000000001
 40
0.0
 40
0.0
 40
0.0
 40
0.0
 40
0.2202128846
 40
0.4578996319
 40
0.7175144197
 40
1.0
 40
1.0
 40
1.0
 40
1.0
 10
15.0363750447
 20
70.2943411086
 30
0.0
 10
14.9550429307
 20
70.2077030818
 30
0.0
 10
14.8089212172
 20
70.0050260546
 30
0.0
 10
14.6561235313
 20
69.6465538919
 30
0.0
 10
14.5648138734
 20
69.2337620181
 30
0.0
 10
14.5462150336
 20
68.9406880341
 30
0.0
 10
14.5462150336
 20
68.7882521499
 30
0.0
  0
SPLINE
  5
2AB
100
AcDbEntity
  8
0
100
AcDbSpline
 62
7
  6
BYLAYER
 70
0
 71
3
 72
12
 73
8
 74
0
 42
0.0000001
 43
0.0000001
 44
0.0000000001
 40
0.0
 40
0.0
 40
0.0
 40
0.0
 40
0.1081593853
 40
0.2183667186
 40
0.4513484566
 40
0.710448005
 40
1.0
 40
1.0
 40
1.0
 40
1.0
 10
41.5970049761
 20
42.397777562
 30
0.0
 10
41.5970074714
 20
42.2919935869
 30
0.0
 10
41.5786679018
 20
42.0779715287
 30
0.0
 10
41.4673826776
 20
41.6489726897
 30
0.0
 10
41.1821209198
 20
41.1228096687
 30
0.0
 10
40.6505100261
 20
40.5645821079
 30
0.0
 10
40.205627915
 20
40.2581240055
 30
0.0
 10
39.960375375
 20
40.1165282307
 30
0.0
  0
SPLINE
  5
2AC
100
AcDbEntity
  8
0
100
AcDbSpline
 62
7
  6
BYLAYER
 70
0
 71
3
 72
17
 73
13
 74
0
 42
0.0000001
 43
0.0000001
 44
0.0000000001
 40
0.0
 40
0.0
 40
0.0
 40
0.0
 40
0.1286941955
 40
0.2702788497
 40
0.417434436
 40
0.5617779052
 40
0.6954482577
 40
0.8127108962
 40
0.8646770845
 40
0.9125096826
 40
0.9571396761
 40
1.0
 40
1.0
 40
1.0
 40
1.0
 10
35.2008901052
 20
80.7135753147
 30
0.0
 10
35.2008901052
 20
80.3879010173
 30
0.0
 10
35.2919901928
 20
79.7031485243
 30
0.0
 10
35.6320702702
 20
78.6977533014
 30
0.0
 10
36.1560359226
 20
77.7292283074
 30
0.0
 10
36.8218351251
 20
76.8769999422
 30
0.0
 10
37.5750528371
 20
76.2098945359
 30
0.0
 10
38.2568351688
 20
75.837184627
 30
0.0
 10
38.7901265803
 20
75.6952215134
 30
0.0
 10
39.157179203
 20
75.6683091507
 30
0.0
 10
39.4989756832
 20
75.7183205824
 30
0.0
 10
39.706017376
 20
75.8044212109
 30
0.0
 10
39.7999583651
 20
75.8586358231
 30
0.0
  0
SPLINE
  5
2AD
100
AcDbEntity
  8
0
100
AcDbSpline
 62
7
  6
BYLAYER
 70
0
 71
3
 72
10
 73
6
 74
0
 42
0.0000001
 43
0.0000001
 44
0.0000000001
 40
0.0
 40
0.0
 40
0.0
 40
0.0
 40
0.2288944409
 40
0.4751849449
 40
1.0
 40
1.0
 40
1.0
 40
1.0
 10
104.4384191564
 20
85.0163872756
 30
0.0
 10
104.2956955525
 20
84.9339862563
 30
0.0
 10
103.9850400825
 20
84.7870963231
 30
0.0
 10
103.2979955411
 20
84.5675460464
 30
0.0
 10
102.7415499989
 20
84.4939265965
 30
0.0
 10
102.363869303
 20
84.482156945
 30
0.0
  0
SPLINE
  5
2AE
100
AcDbEntity
  8
0
100
AcDbSpline
 62
7
  6
BYLAYER
 70
0
 71
3
 72
9
 73
5
 74
0
 42
0.0000001
 43
0.0000001
 44
0.0000000001
 40
0.0
 40
0.0
 40
0.0
 40
0.0
 40
0.255868535
 40
1.0
 40
1.0
 40
1.0
 40
1.0
 10
17.2403030864
 20
87.9720162703
 30
0.0
 10
17.2678386515
 20
87.9561189641
 30
0.0
 10
17.3762800557
 20
87.895436117
 30
0.0
 10
17.4880543218
 20
87.8406517913
 30
0.0
 10
17.5728893955
 20
87.8038628125
 30
0.0
  0
SPLINE
  5
2AF
100
AcDbEntity
  8
0
100
AcDbSpline
 62
7
  6
BYLAYER
 70
0
 71
3
 72
11
 73
7
 74
0
 42
0.0000001
 43
0.0000001
 44
0.0000000001
 40
0.0
 40
0.0
 40
0.0
 40
0.0
 40
0.2823951997
 40
0.5390660442
 40
0.775296946
 40
1.0
 40
1.0
 40
1.0
 40
1.0
 10
17.5728893955
 20
87.8038628125
 30
0.0
 10
17.713499821
 20
87.7428866886
 30
0.0
 10
17.9917013587
 20
87.6467780536
 30
0.0
 10
18.4117791628
 20
87.5892036509
 30
0.0
 10
18.8033522724
 20
87.6288012814
 30
0.0
 10
19.0396805969
 20
87.7223543588
 30
0.0
 10
19.1452836572
 20
87.7833476525
 30
0.0
  0
SPLINE
  5
2B0
100
AcDbEntity
  8
0
100
AcDbSpline
 62
7
  6
BYLAYER
 70
0
 71
3
 72
11
 73
7
 74
0
 42
0.0000001
 43
0.0000001
 44
0.0000000001
 40
0.0
 40
0.0
 40
0.0
 40
0.0
 40
0.2897460512
 40
0.5490789211
 40
0.7822214189
 40
1.0
 40
1.0
 40
1.0
 40
1.0
 10
37.894978158
 20
52.1972682264
 30
0.0
 10
38.0621823806
 20
52.1007350073
 30
0.0
 10
38.3947335708
 20
51.9424870329
 30
0.0
 10
38.9059245308
 20
51.8190957387
 30
0.0
 10
39.3855133912
 20
51.8312520955
 30
0.0
 10
39.6742976284
 20
51.9360213672
 30
0.0
 10
39.7999587288
 20
52.0085996086
 30
0.0
  0
SPLINE
  5
2B1
100
AcDbEntity
  8
0
100
AcDbSpline
 62
7
  6
BYLAYER
 70
0
 71
3
 72
11
 73
7
 74
0
 42
0.0000001
 43
0.0000001
 44
0.0000000001
 40
0.0
 40
0.0
 40
0.0
 40
0.0
 40
0.2177827477
 40
0.4509152641
 40
0.7103063952
 40
1.0
 40
1.0
 40
1.0
 40
1.0
 10
57.4463294143
 20
95.9566827855
 30
0.0
 10
57.4463426329
 20
96.0534267085
 30
0.0
 10
57.4820731793
 20
96.2550739792
 30
0.0
 10
57.6349498802
 20
96.5360347103
 30
0.0
 10
57.8766118228
 20
96.7900022223
 30
0.0
 10
58.0788115128
 20
96.9292704588
 30
0.0
 10
58.1902590339
 20
96.993614331
 30
0.0
  0
SPLINE
  5
2B2
100
AcDbEntity
  8
0
100
AcDbSpline
 62
7
  6
BYLAYER
 70
0
 71
3
 72
11
 73
7
 74
0
 42
0.0000001
 43
0.0000001
 44
0.0000000001
 40
0.0
 40
0.0
 40
0.0
 40
0.0
 40
0.2177827477
 40
0.4509152641
 40
0.7103063952
 40
1.0
 40
1.0
 40
1.0
 40
1.0
 10
78.6394706457
 20
132.456875073
 30
0.0
 10
78.6394838643
 20
132.5536189959
 30
0.0
 10
78.6752144106
 20
132.7552662667
 30
0.0
 10
78.8280911116
 20
133.0362269977
 30
0.0
 10
79.0697530542
 20
133.2901945097
 30
0.0
 10
79.2719527442
 20
133.4294627462
 30
0.0
 10
79.3834002653
 20
133.4938066184
 30
0.0
  0
SPLINE
  5
2B3
100
AcDbEntity
  8
0
100
AcDbSpline
 62
7
  6
BYLAYER
 70
0
 71
3
 72
9
 73
5
 74
0
 42
0.0000001
 43
0.0000001
 44
0.0000000001
 40
0.0
 40
0.0
 40
0.0
 40
0.0
 40
0.542539696
 40
1.0
 40
1.0
 40
1.0
 40
1.0
 10
112.4460213051
 20
99.6982209409
 30
0.0
 10
112.5285516004
 20
99.7475494344
 30
0.0
 10
112.6716110576
 20
99.8570112423
 30
0.0
 10
112.7659050802
 20
100.0152342751
 30
0.0
 10
112.7872526861
 20
100.0934440193
 30
0.0
  0
SPLINE
  5
2B4
100
AcDbEntity
  8
0
100
AcDbSpline
 62
7
  6
BYLAYER
 70
0
 71
3
 72
9
 73
5
 74
0
 42
0.0000001
 43
0.0000001
 44
0.0000000001
 40
0.0
 40
0.0
 40
0.0
 40
0.0
 40
0.2528464247
 40
1.0
 40
1.0
 40
1.0
 40
1.0
 10
112.7872526861
 20
100.0934440193
 30
0.0
 10
112.7898170963
 20
100.1028390713
 30
0.0
 10
112.7987597931
 20
100.1403123238
 30
0.0
 10
112.8027231436
 20
100.1789811822
 30
0.0
 10
112.8027231347
 20
100.207758888
 30
0.0
  0
SPLINE
  5
2B5
100
AcDbEntity
  8
0
100
AcDbSpline
 62
7
  6
BYLAYER
 70
0
 71
3
 72
11
 73
7
 74
0
 42
0.0000001
 43
0.0000001
 44
0.0000000001
 40
0.0
 40
0.0
 40
0.0
 40
0.0
 40
0.2177803682
 40
0.4509244437
 40
0.710260382
 40
1.0
 40
1.0
 40
1.0
 40
1.0
 10
19.1452832936
 20
63.9333126583
 30
0.0
 10
19.2709736008
 20
64.0058502303
 30
0.0
 10
19.5061038503
 20
64.2035707603
 30
0.0
 10
19.7564329542
 20
64.6128435841
 30
0.0
 10
19.9051649259
 20
65.1172581349
 30
0.0
 10
19.9343911393
 20
65.4843871593
 30
0.0
 10
19.9343911393
 20
65.6774576005
 30
0.0
  0
SPLINE
  5
2B6
100
AcDbEntity
  8
0
100
AcDbSpline
 62
7
  6
BYLAYER
 70
0
 71
3
 72
9
 73
5
 74
0
 42
0.0000001
 43
0.0000001
 44
0.0000000001
 40
0.0
 40
0.0
 40
0.0
 40
0.0
 40
0.4860736593
 40
1.0
 40
1.0
 40
1.0
 40
1.0
 10
16.4129487706
 20
71.1545617895
 30
0.0
 10
16.524872029
 20
71.219155212
 30
0.0
 10
16.7771766013
 20
71.3166410324
 30
0.0
 10
17.0458035877
 20
71.3371368166
 30
0.0
 10
17.1823218709
 20
71.331615923
 30
0.0
  0
SPLINE
  5
2B7
100
AcDbEntity
  8
0
100
AcDbSpline
 62
7
  6
BYLAYER
 70
0
 71
3
 72
11
 73
7
 74
0
 42
0.0000001
 43
0.0000001
 44
0.0000000001
 40
0.0
 40
0.0
 40
0.0
 40
0.0
 40
0.2177728947
 40
0.4509002595
 40
0.7103630724
 40
1.0
 40
1.0
 40
1.0
 40
1.0
 10
100.3531416326
 20
119.857108266
 30
0.0
 10
100.3531712055
 20
119.9271961047
 30
0.0
 10
100.3789704764
 20
120.0732942685
 30
0.0
 10
100.4897833421
 20
120.2768620781
 30
0.0
 10
100.6648929062
 20
120.4608298321
 30
0.0
 10
100.811373268
 20
120.5617571097
 30
0.0
 10
100.8921012495
 20
120.6083651533
 30
0.0
  0
SPLINE
  5
2B8
100
AcDbEntity
  8
0
100
AcDbSpline
 62
7
  6
BYLAYER
 70
0
 71
3
 72
9
 73
5
 74
0
 42
0.0000001
 43
0.0000001
 44
0.0000000001
 40
0.0
 40
0.0
 40
0.0
 40
0.0
 40
0.5231798559
 40
1.0
 40
1.0
 40
1.0
 40
1.0
 10
19.217067504
 20
63.858299726
 30
0.0
 10
19.4017561992
 20
63.8153060927
 30
0.0
 10
19.76592131
 20
63.7710569199
 30
0.0
 10
20.1299508773
 20
63.8335390067
 30
0.0
 10
20.2927911861
 20
63.8914277006
 30
0.0
  0
SPLINE
  5
2B9
100
AcDbEntity
  8
0
100
AcDbSpline
 62
7
  6
BYLAYER
 70
0
 71
3
 72
9
 73
5
 74
0
 42
0.0000001
 43
0.0000001
 44
0.0000000001
 40
0.0
 40
0.0
 40
0.0
 40
0.0
 40
0.4765990348
 40
1.0
 40
1.0
 40
1.0
 40
1.0
 10
15.8735112705
 20
71.5477085698
 30
0.0
 10
15.7407838201
 20
71.4347516353
 30
0.0
 10
15.5027239154
 20
71.1479101034
 30
0.0
 10
15.3586791788
 20
70.8069106501
 30
0.0
 10
15.3036772243
 20
70.6235821078
 30
0.0
  0
SPLINE
  5
2BA
100
AcDbEntity
  8
0
100
AcDbSpline
 62
7
  6
BYLAYER
 70
0
 71
3
 72
17
 73
13
 74
0
 42
0.0000001
 43
0.0000001
 44
0.0000000001
 40
0.0
 40
0.0
 40
0.0
 40
0.0
 40
0.0428581026
 40
0.0874868785
 40
0.1353185455
 40
0.1872839908
 40
0.3045448201
 40
0.4382124207
 40
0.5825558086
 40
0.7297162529
 40
0.8713055297
 40
1.0
 40
1.0
 40
1.0
 40
1.0
 10
19.1452836572
 20
87.7833476525
 30
0.0
 10
19.2392018319
 20
87.8375920919
 30
0.0
 10
19.4172878196
 20
87.9738336477
 30
0.0
 10
19.6314914271
 20
88.2448268471
 30
0.0
 10
19.7917134709
 20
88.5761525114
 30
0.0
 10
19.9354299448
 20
89.1089692268
 30
0.0
 10
19.9535523312
 20
89.885758084
 30
0.0
 10
19.7524410647
 20
90.8716131268
 30
0.0
 10
19.3472980332
 20
91.8743437896
 30
0.0
 10
18.7705059634
 20
92.8124069842
 30
0.0
 10
18.0698286752
 20
93.6096492256
 30
0.0
 10
17.5223495184
 20
94.0309287893
 30
0.0
 10
17.2403030864
 20
94.1937646888
 30
0.0
  0
SPLINE
  5
2BB
100
AcDbEntity
  8
0
100
AcDbSpline
 62
7
  6
BYLAYER
 70
0
 71
3
 72
9
 73
5
 74
0
 42
0.0000001
 43
0.0000001
 44
0.0000000001
 40
0.0
 40
0.0
 40
0.0
 40
0.0
 40
0.2665466526
 40
1.0
 40
1.0
 40
1.0
 40
1.0
 10
100.4871025973
 20
119.3397327458
 30
0.0
 10
100.4441949932
 20
119.36450557
 30
0.0
 10
100.2863676542
 20
119.4625678401
 30
0.0
 10
100.1413918026
 20
119.5829729115
 30
0.0
 10
100.0503801551
 20
119.6844803996
 30
0.0
  0
SPLINE
  5
2BC
100
AcDbEntity
  8
0
100
AcDbSpline
 62
7
  6
BYLAYER
 70
0
 71
3
 72
15
 73
11
 74
0
 42
0.0000001
 43
0.0000001
 44
0.0000000001
 40
0.0
 40
0.0
 40
0.0
 40
0.0
 40
0.1268042497
 40
0.2441068077
 40
0.3560215111
 40
0.4678030496
 40
0.5846989129
 40
0.7109640387
 40
0.8492533921
 40
1.0
 40
1.0
 40
1.0
 40
1.0
 10
100.0503801551
 20
119.6844803996
 30
0.0
 10
99.9946098267
 20
119.7466823935
 30
0.0
 10
99.8977646756
 20
119.8767910399
 30
0.0
 10
99.8032642072
 20
120.0940156033
 30
0.0
 10
99.7700267948
 20
120.3190812148
 30
0.0
 10
99.8000885106
 20
120.5443189567
 30
0.0
 10
99.8916260924
 20
120.7621320693
 30
0.0
 10
100.0405520272
 20
120.9669045816
 30
0.0
 10
100.2421027108
 20
121.1539504753
 30
0.0
 10
100.4010788907
 20
121.260203052
 30
0.0
 10
100.4870900123
 20
121.3098612998
 30
0.0
  0
SPLINE
  5
2BD
100
AcDbEntity
  8
0
100
AcDbSpline
 62
7
  6
BYLAYER
 70
0
 71
3
 72
9
 73
5
 74
0
 42
0.0000001
 43
0.0000001
 44
0.0000000001
 40
0.0
 40
0.0
 40
0.0
 40
0.0
 40
0.5081023022
 40
1.0
 40
1.0
 40
1.0
 40
1.0
 10
20.6509870971
 20
64.9524809698
 30
0.0
 10
20.5937554624
 20
64.8711175633
 30
0.0
 10
20.4650527178
 20
64.7214510279
 30
0.0
 10
20.3063193335
 20
64.6036135977
 30
0.0
 10
20.2229098981
 20
64.5554761419
 30
0.0
  0
SPLINE
  5
2BE
100
AcDbEntity
  8
0
100
AcDbSpline
 62
7
  6
BYLAYER
 70
0
 71
3
 72
11
 73
7
 74
0
 42
0.0000001
 43
0.0000001
 44
0.0000000001
 40
0.0
 40
0.0
 40
0.0
 40
0.0
 40
0.2895416686
 40
0.5491189711
 40
0.7822562704
 40
1.0
 40
1.0
 40
1.0
 40
1.0
 10
112.4308235381
 20
122.2949790444
 30
0.0
 10
112.4865169077
 20
122.3271334345
 30
0.0
 10
112.5875819586
 20
122.3968212407
 30
0.0
 10
112.7084757415
 20
122.5237396193
 30
0.0
 10
112.7849635915
 20
122.6642517414
 30
0.0
 10
112.8027231497
 20
122.7650825251
 30
0.0
 10
112.8027231347
 20
122.8134448087
 30
0.0
  0
SPLINE
  5
2BF
100
AcDbEntity
  8
0
100
AcDbSpline
 62
7
  6
BYLAYER
 70
0
 71
3
 72
11
 73
7
 74
0
 42
0.0000001
 43
0.0000001
 44
0.0000000001
 40
0.0
 40
0.0
 40
0.0
 40
0.0
 40
0.2177803682
 40
0.4509244437
 40
0.710260382
 40
1.0
 40
1.0
 40
1.0
 40
1.0
 10
39.7999583651
 20
75.8586358231
 30
0.0
 10
39.9256486724
 20
75.9311733951
 30
0.0
 10
40.1607789218
 20
76.1288939252
 30
0.0
 10
40.4111080257
 20
76.5381667489
 30
0.0
 10
40.5598399975
 20
77.0425812997
 30
0.0
 10
40.5890662108
 20
77.4097103241
 30
0.0
 10
40.5890662108
 20
77.6027807653
 30
0.0
  0
SPLINE
  5
2C0
100
AcDbEntity
  8
0
100
AcDbSpline
 62
7
  6
BYLAYER
 70
0
 71
3
 72
17
 73
13
 74
0
 42
0.0000001
 43
0.0000001
 44
0.0000000001
 40
0.0
 40
0.0
 40
0.0
 40
0.0
 40
0.1286941955
 40
0.2702788497
 40
0.417434436
 40
0.5617779052
 40
0.6954482577
 40
0.8127108962
 40
0.8646770845
 40
0.9125096826
 40
0.9571396761
 40
1.0
 40
1.0
 40
1.0
 40
1.0
 10
40.5890662108
 20
77.6027807653
 30
0.0
 10
40.5890662108
 20
77.9284550627
 30
0.0
 10
40.4979661232
 20
78.6132075557
 30
0.0
 10
40.1578860458
 20
79.6186027786
 30
0.0
 10
39.6339203934
 20
80.5871277727
 30
0.0
 10
38.9681211909
 20
81.4393561378
 30
0.0
 10
38.2149034789
 20
82.1064615442
 30
0.0
 10
37.5331211472
 20
82.4791714531
 30
0.0
 10
36.9998297357
 20
82.6211345666
 30
0.0
 10
36.632777113
 20
82.6480469293
 30
0.0
 10
36.2909806328
 20
82.5980354976
 30
0.0
 10
36.08393894
 20
82.5119348692
 30
0.0
 10
35.9899979509
 20
82.4577202569
 30
0.0
  0
SPLINE
  5
2C1
100
AcDbEntity
  8
0
100
AcDbSpline
 62
7
  6
BYLAYER
 70
0
 71
3
 72
10
 73
6
 74
0
 42
0.0000001
 43
0.0000001
 44
0.0000000001
 40
0.0
 40
0.0
 40
0.0
 40
0.0
 40
0.2284772874
 40
0.4751060582
 40
1.0
 40
1.0
 40
1.0
 40
1.0
 10
19.9343911393
 20
65.6774576005
 30
0.0
 10
19.9343911393
 20
65.8904372828
 30
0.0
 10
19.8953170507
 20
66.3338195631
 30
0.0
 10
19.6836529569
 20
67.2435045182
 30
0.0
 10
19.389679269
 20
67.9096157881
 30
0.0
 10
19.1449664407
 20
68.3333146601
 30
0.0
  0
SPLINE
  5
2C2
100
AcDbEntity
  8
0
100
AcDbSpline
 62
7
  6
BYLAYER
 70
0
 71
3
 72
14
 73
10
 74
0
 42
0.0000001
 43
0.0000001
 44
0.0000000001
 40
0.0
 40
0.0
 40
0.0
 40
0.0
 40
0.3060741243
 40
0.4498399864
 40
0.5830787209
 40
0.7038982833
 40
0.8119850302
 40
0.9092045508
 40
1.0
 40
1.0
 40
1.0
 40
1.0
 10
19.1449664407
 20
68.3333146601
 30
0.0
 10
18.9003358194
 20
68.7568711981
 30
0.0
 10
18.4706583328
 20
69.3441388031
 30
0.0
 10
17.78869784
 20
69.9821083638
 30
0.0
 10
17.2659923632
 20
70.3484763073
 30
0.0
 10
16.7404795067
 20
70.5985407449
 30
0.0
 10
16.2292202525
 20
70.7218561969
 30
0.0
 10
15.74971359
 20
70.7098359284
 30
0.0
 10
15.4609933968
 20
70.6049232432
 30
0.0
 10
15.3353228793
 20
70.5323970921
 30
0.0
  0
SPLINE
  5
2C3
100
AcDbEntity
  8
0
100
AcDbSpline
 62
7
  6
BYLAYER
 70
0
 71
3
 72
9
 73
5
 74
0
 42
0.0000001
 43
0.0000001
 44
0.0000000001
 40
0.0
 40
0.0
 40
0.0
 40
0.0
 40
0.4771320756
 40
1.0
 40
1.0
 40
1.0
 40
1.0
 10
36.5354158296
 20
83.4791759651
 30
0.0
 10
36.4030037279
 20
83.3678198677
 30
0.0
 10
36.1649633523
 20
83.0851262322
 30
0.0
 10
36.019598214
 20
82.7480777246
 30
0.0
 10
35.9637619988
 20
82.5668899072
 30
0.0
  0
SPLINE
  5
2C4
100
AcDbEntity
  8
0
100
AcDbSpline
 62
7
  6
BYLAYER
 70
0
 71
3
 72
11
 73
7
 74
0
 42
0.0000001
 43
0.0000001
 44
0.0000000001
 40
0.0
 40
0.0
 40
0.0
 40
0.0
 40
0.2897470487
 40
0.5490802763
 40
0.782222376
 40
1.0
 40
1.0
 40
1.0
 40
1.0
 10
41.6666924587
 20
78.2249448558
 30
0.0
 10
41.6666924587
 20
78.0318693159
 30
0.0
 10
41.6374662728
 20
77.6647365269
 30
0.0
 10
41.4887307432
 20
77.1603211305
 30
0.0
 10
41.2384042898
 20
76.7510513266
 30
0.0
 10
41.0032733027
 20
76.5533368626
 30
0.0
 10
40.8775849696
 20
76.4807993067
 30
0.0
  0
SPLINE
  5
2C5
100
AcDbEntity
  8
0
100
AcDbSpline
 62
7
  6
BYLAYER
 70
0
 71
3
 72
9
 73
5
 74
0
 42
0.0000001
 43
0.0000001
 44
0.0000000001
 40
0.0
 40
0.0
 40
0.0
 40
0.0
 40
0.5229842475
 40
1.0
 40
1.0
 40
1.0
 40
1.0
 10
39.8764939945
 20
75.7824675624
 30
0.0
 10
40.0615672832
 20
75.7397938075
 30
0.0
 10
40.4265993673
 20
75.696328976
 30
0.0
 10
40.7911493296
 20
75.7603843363
 30
0.0
 10
40.9541280812
 20
75.8191072421
 30
0.0
  0
SPLINE
  5
2C6
100
AcDbEntity
  8
0
100
AcDbSpline
 62
7
  6
BYLAYER
 70
0
 71
3
 72
17
 73
13
 74
0
 42
0.0000001
 43
0.0000001
 44
0.0000000001
 40
0.0
 40
0.0
 40
0.0
 40
0.0
 40
0.0428581026
 40
0.0874868785
 40
0.1353185455
 40
0.1872839908
 40
0.3045448201
 40
0.4382124207
 40
0.5825558086
 40
0.7297162529
 40
0.8713055297
 40
1.0
 40
1.0
 40
1.0
 40
1.0
 10
39.7999587288
 20
52.0085996086
 30
0.0
 10
39.8938769034
 20
52.062844048
 30
0.0
 10
40.0719628912
 20
52.1990856038
 30
0.0
 10
40.2861664986
 20
52.4700788032
 30
0.0
 10
40.4463885424
 20
52.8014044675
 30
0.0
 10
40.5901050163
 20
53.3342211829
 30
0.0
 10
40.6082274028
 20
54.1110100401
 30
0.0
 10
40.4071161363
 20
55.0968650829
 30
0.0
 10
40.0019731047
 20
56.0995957457
 30
0.0
 10
39.4251810349
 20
57.0376589403
 30
0.0
 10
38.7245037467
 20
57.8349011817
 30
0.0
 10
38.1770245899
 20
58.2561807454
 30
0.0
 10
37.894978158
 20
58.4190166449
 30
0.0
  0
SPLINE
  5
2C7
100
AcDbEntity
  8
0
100
AcDbSpline
 62
7
  6
BYLAYER
 70
0
 71
3
 72
21
 73
17
 74
0
 42
0.0000001
 43
0.0000001
 44
0.0000000001
 40
0.0
 40
0.0
 40
0.0
 40
0.0
 40
0.0661304589
 40
0.1372950188
 40
0.2889086234
 40
0.4426909806
 40
0.5163381379
 40
0.585793743
 40
0.6499593387
 40
0.7082456965
 40
0.760771033
 40
0.8085594673
 40
0.8536770674
 40
0.8989110404
 40
0.9470065291
 40
1.0
 40
1.0
 40
1.0
 40
1.0
 10
37.2661751571
 20
109.073866498
 30
0.0
 10
37.3739389869
 20
109.1360836028
 30
0.0
 10
37.6084300931
 20
109.2470772092
 30
0.0
 10
38.1271596716
 20
109.4135313043
 30
0.0
 10
38.8353438409
 20
109.5088395717
 30
0.0
 10
39.5523863484
 20
109.4598478885
 30
0.0
 10
40.0968526953
 20
109.3299277274
 30
0.0
 10
40.4634913934
 20
109.1937380588
 30
0.0
 10
40.7824431301
 20
109.0215203533
 30
0.0
 10
41.0437348482
 20
108.8181993469
 30
0.0
 10
41.2389350502
 20
108.5890853797
 30
0.0
 10
41.3599571545
 20
108.339676558
 30
0.0
 10
41.3992361266
 20
108.0782981694
 30
0.0
 10
41.3532484111
 20
107.8174382
 30
0.0
 10
41.2260415599
 20
107.5694449867
 30
0.0
 10
41.0989050003
 20
107.4254869171
 30
0.0
 10
41.0260699679
 20
107.3573823345
 30
0.0
  0
SPLINE
  5
2C8
100
AcDbEntity
  8
0
100
AcDbSpline
 62
7
  6
BYLAYER
 70
0
 71
3
 72
9
 73
5
 74
0
 42
0.0000001
 43
0.0000001
 44
0.0000000001
 40
0.0
 40
0.0
 40
0.0
 40
0.0
 40
0.2386288742
 40
1.0
 40
1.0
 40
1.0
 40
1.0
 10
41.0260699679
 20
107.3573823345
 30
0.0
 10
41.0010466889
 20
107.3339842538
 30
0.0
 10
40.8929546132
 20
107.2394002523
 30
0.0
 10
40.7733477054
 20
107.1583488529
 30
0.0
 10
40.6786866906
 20
107.1036966167
 30
0.0
  0
SPLINE
  5
2C9
100
AcDbEntity
  8
0
100
AcDbSpline
 62
7
  6
BYLAYER
 70
0
 71
3
 72
21
 73
17
 74
0
 42
0.0000001
 43
0.0000001
 44
0.0000000001
 40
0.0
 40
0.0
 40
0.0
 40
0.0
 40
0.0661304589
 40
0.1372950188
 40
0.2889086234
 40
0.4426909806
 40
0.5163381379
 40
0.585793743
 40
0.6499593387
 40
0.7082456965
 40
0.760771033
 40
0.8085594673
 40
0.8536770674
 40
0.8989110404
 40
0.9470065291
 40
1.0
 40
1.0
 40
1.0
 40
1.0
 10
100.4870900123
 20
121.3098612998
 30
0.0
 10
100.5948538421
 20
121.3720784045
 30
0.0
 10
100.8293449483
 20
121.483072011
 30
0.0
 10
101.3480745268
 20
121.649526106
 30
0.0
 10
102.0562586961
 20
121.7448343734
 30
0.0
 10
102.7733012036
 20
121.6958426902
 30
0.0
 10
103.3177675505
 20
121.5659225291
 30
0.0
 10
103.6844062486
 20
121.4297328606
 30
0.0
 10
104.0033579853
 20
121.2575151551
 30
0.0
 10
104.2646497034
 20
121.0541941486
 30
0.0
 10
104.4598499054
 20
120.8250801815
 30
0.0
 10
104.5808720097
 20
120.5756713598
 30
0.0
 10
104.6201509818
 20
120.3142929712
 30
0.0
 10
104.5741632663
 20
120.0534330018
 30
0.0
 10
104.4469564151
 20
119.8054397885
 30
0.0
 10
104.3198198555
 20
119.6614817189
 30
0.0
 10
104.2469848231
 20
119.5933771363
 30
0.0
  0
SPLINE
  5
2CA
100
AcDbEntity
  8
0
100
AcDbSpline
 62
7
  6
BYLAYER
 70
0
 71
3
 72
9
 73
5
 74
0
 42
0.0000001
 43
0.0000001
 44
0.0000000001
 40
0.0
 40
0.0
 40
0.0
 40
0.0
 40
0.2386288742
 40
1.0
 40
1.0
 40
1.0
 40
1.0
 10
104.2469848231
 20
119.5933771363
 30
0.0
 10
104.2219615441
 20
119.5699790555
 30
0.0
 10
104.1138694684
 20
119.4753950541
 30
0.0
 10
103.9942625606
 20
119.3943436546
 30
0.0
 10
103.8996015458
 20
119.3396914185
 30
0.0
  0
SPLINE
  5
2CB
100
AcDbEntity
  8
0
100
AcDbSpline
 62
7
  6
BYLAYER
 70
0
 71
3
 72
17
 73
13
 74
0
 42
0.0000001
 43
0.0000001
 44
0.0000000001
 40
0.0
 40
0.0
 40
0.0
 40
0.0
 40
0.1286926208
 40
0.2702795078
 40
0.4174383051
 40
0.5617803148
 40
0.6954501289
 40
0.8127134773
 40
0.8646759206
 40
0.9125113962
 40
0.9571388332
 40
1.0
 40
1.0
 40
1.0
 40
1.0
 10
58.1902590339
 20
96.993614331
 30
0.0
 10
58.3782845114
 20
97.102170243
 30
0.0
 10
58.8039923951
 20
97.2778244607
 30
0.0
 10
59.497821992
 20
97.4166128729
 30
0.0
 10
60.2316592215
 20
97.4369369113
 30
0.0
 10
60.9456284836
 20
97.3366010036
 30
0.0
 10
61.5818341282
 20
97.1240956255
 30
0.0
 10
62.0243295058
 20
96.8547672963
 30
0.0
 10
62.283989716
 20
96.5941434095
 30
0.0
 10
62.4219686024
 20
96.3912559318
 30
0.0
 10
62.5069227918
 20
96.177212655
 30
0.0
 10
62.5263159373
 20
96.0289924105
 30
0.0
 10
62.5263060572
 20
95.9566828435
 30
0.0
  0
SPLINE
  5
2CC
100
AcDbEntity
  8
0
100
AcDbSpline
 62
7
  6
BYLAYER
 70
0
 71
3
 72
17
 73
13
 74
0
 42
0.0000001
 43
0.0000001
 44
0.0000000001
 40
0.0
 40
0.0
 40
0.0
 40
0.0
 40
0.128683287
 40
0.2702724463
 40
0.4174309843
 40
0.561777593
 40
0.6954488768
 40
0.812713569
 40
0.8646777109
 40
0.9125108249
 40
0.9571402275
 40
1.0
 40
1.0
 40
1.0
 40
1.0
 10
37.6711863943
 20
108.3723703516
 30
0.0
 10
37.80740147
 20
108.4510136927
 30
0.0
 10
38.1158197299
 20
108.5782694809
 30
0.0
 10
38.6184872075
 20
108.6788465174
 30
0.0
 10
39.1501632616
 20
108.6935684079
 30
0.0
 10
39.6674436999
 20
108.6208845465
 30
0.0
 10
40.1283867737
 20
108.4669202867
 30
0.0
 10
40.4489742022
 20
108.2717808556
 30
0.0
 10
40.6371011576
 20
108.0829568336
 30
0.0
 10
40.7370542179
 20
107.9359565823
 30
0.0
 10
40.798631804
 20
107.7808940344
 30
0.0
 10
40.8126571744
 20
107.6735002356
 30
0.0
 10
40.8126350703
 20
107.6211134715
 30
0.0
  0
SPLINE
  5
2CD
100
AcDbEntity
  8
0
100
AcDbSpline
 62
7
  6
BYLAYER
 70
0
 71
3
 72
17
 73
13
 74
0
 42
0.0000001
 43
0.0000001
 44
0.0000000001
 40
0.0
 40
0.0
 40
0.0
 40
0.0
 40
0.1286926208
 40
0.2702795078
 40
0.4174383051
 40
0.5617803148
 40
0.6954501289
 40
0.8127134773
 40
0.8646759206
 40
0.9125113962
 40
0.9571388332
 40
1.0
 40
1.0
 40
1.0
 40
1.0
 10
79.3834002653
 20
133.4938066184
 30
0.0
 10
79.5714257427
 20
133.6023625305
 30
0.0
 10
79.9971336264
 20
133.7780167481
 30
0.0
 10
80.6909632233
 20
133.9168051603
 30
0.0
 10
81.4248004528
 20
133.9371291987
 30
0.0
 10
82.1387697149
 20
133.8367932911
 30
0.0
 10
82.7749753596
 20
133.6242879129
 30
0.0
 10
83.2174707371
 20
133.3549595837
 30
0.0
 10
83.4771309473
 20
133.0943356969
 30
0.0
 10
83.6151098338
 20
132.8914482192
 30
0.0
 10
83.7000640232
 20
132.6774049425
 30
0.0
 10
83.7194571686
 20
132.5291846979
 30
0.0
 10
83.7194472886
 20
132.4568751309
 30
0.0
  0
SPLINE
  5
2CE
100
AcDbEntity
  8
0
100
AcDbSpline
 62
7
  6
BYLAYER
 70
0
 71
3
 72
11
 73
7
 74
0
 42
0.0000001
 43
0.0000001
 44
0.0000000001
 40
0.0
 40
0.0
 40
0.0
 40
0.0
 40
0.2177813253
 40
0.4509257992
 40
0.7102613796
 40
1.0
 40
1.0
 40
1.0
 40
1.0
 10
16.4129491107
 20
95.0045967851
 30
0.0
 10
16.5386112131
 20
95.0771767266
 30
0.0
 10
16.8274003334
 20
95.1819423296
 30
0.0
 10
17.3069931351
 20
95.1940994695
 30
0.0
 10
17.8181815836
 20
95.0707055177
 30
0.0
 10
18.1507295273
 20
94.9124594491
 30
0.0
 10
18.3179293344
 20
94.8159287793
 30
0.0
  0
SPLINE
  5
2CF
100
AcDbEntity
  8
0
100
AcDbSpline
 62
7
  6
BYLAYER
 70
0
 71
3
 72
11
 73
7
 74
0
 42
0.0000001
 43
0.0000001
 44
0.0000000001
 40
0.0
 40
0.0
 40
0.0
 40
0.0
 40
0.2897460512
 40
0.5490789211
 40
0.7822214189
 40
1.0
 40
1.0
 40
1.0
 40
1.0
 10
17.2403030864
 20
94.1937646888
 30
0.0
 10
17.0730988638
 20
94.2902979079
 30
0.0
 10
16.7405476737
 20
94.4485458823
 30
0.0
 10
16.2293567137
 20
94.5719371765
 30
0.0
 10
15.7497678532
 20
94.5597808197
 30
0.0
 10
15.4609836161
 20
94.455011548
 30
0.0
 10
15.3353225157
 20
94.3824333066
 30
0.0
  0
SPLINE
  5
2D0
100
AcDbEntity
  8
0
100
AcDbSpline
 62
7
  6
BYLAYER
 70
0
 71
3
 72
17
 73
13
 74
0
 42
0.0000001
 43
0.0000001
 44
0.0000000001
 40
0.0
 40
0.0
 40
0.0
 40
0.0
 40
0.128683287
 40
0.2702724463
 40
0.4174309843
 40
0.561777593
 40
0.6954488768
 40
0.812713569
 40
0.8646777109
 40
0.9125108249
 40
0.9571402275
 40
1.0
 40
1.0
 40
1.0
 40
1.0
 10
100.8921012495
 20
120.6083651533
 30
0.0
 10
101.0283163252
 20
120.6870084945
 30
0.0
 10
101.3367345851
 20
120.8142642827
 30
0.0
 10
101.8394020627
 20
120.9148413191
 30
0.0
 10
102.3710781168
 20
120.9295632097
 30
0.0
 10
102.8883585552
 20
120.8568793482
 30
0.0
 10
103.3493016289
 20
120.7029150885
 30
0.0
 10
103.6698890574
 20
120.5077756573
 30
0.0
 10
103.8580160128
 20
120.3189516354
 30
0.0
 10
103.9579690731
 20
120.171951384
 30
0.0
 10
104.0195466592
 20
120.0168888361
 30
0.0
 10
104.0335720296
 20
119.9094950374
 30
0.0
 10
104.0335499255
 20
119.8571082733
 30
0.0
  0
SPLINE
  5
2D1
100
AcDbEntity
  8
0
100
AcDbSpline
 62
7
  6
BYLAYER
 70
0
 71
3
 72
11
 73
7
 74
0
 42
0.0000001
 43
0.0000001
 44
0.0000000001
 40
0.0
 40
0.0
 40
0.0
 40
0.0
 40
0.2177728947
 40
0.4509002595
 40
0.7103630724
 40
1.0
 40
1.0
 40
1.0
 40
1.0
 10
37.1322267774
 20
107.6211134643
 30
0.0
 10
37.1322563502
 20
107.6912013029
 30
0.0
 10
37.1580556211
 20
107.8372994667
 30
0.0
 10
37.2688684869
 20
108.0408672763
 30
0.0
 10
37.443978051
 20
108.2248350304
 30
0.0
 10
37.5904584128
 20
108.3257623079
 30
0.0
 10
37.6711863943
 20
108.3723703516
 30
0.0
  0
SPLINE
  5
2D2
100
AcDbEntity
  8
0
100
AcDbSpline
 62
7
  6
BYLAYER
 70
0
 71
3
 72
11
 73
7
 74
0
 42
0.0000001
 43
0.0000001
 44
0.0000000001
 40
0.0
 40
0.0
 40
0.0
 40
0.0
 40
0.2277893691
 40
0.4750515411
 40
0.7350997193
 40
1.0
 40
1.0
 40
1.0
 40
1.0
 10
18.3179293344
 20
94.8159287793
 30
0.0
 10
18.5253492124
 20
94.6961775661
 30
0.0
 10
18.9336602093
 20
94.4034044037
 30
0.0
 10
19.4869013443
 20
93.8602134019
 30
0.0
 10
19.9856299845
 20
93.2166590841
 30
0.0
 10
20.2668408722
 20
92.7397223564
 30
0.0
 10
20.3928373247
 20
92.4913238676
 30
0.0
  0
SPLINE
  5
2D3
100
AcDbEntity
  8
0
100
AcDbSpline
 62
7
  6
BYLAYER
 70
0
 71
3
 72
9
 73
5
 74
0
 42
0.0000001
 43
0.0000001
 44
0.0000000001
 40
0.0
 40
0.0
 40
0.0
 40
0.0
 40
0.2384150783
 40
1.0
 40
1.0
 40
1.0
 40
1.0
 10
36.2358508686
 20
59.2951145903
 30
0.0
 10
36.2041341725
 20
59.2485845618
 30
0.0
 10
36.0801636245
 20
59.0472566144
 30
0.0
 10
35.9929962628
 20
58.824421985
 30
0.0
 10
35.9445126802
 20
58.6511994174
 30
0.0
  0
SPLINE
  5
2D4
100
AcDbEntity
  8
0
100
AcDbSpline
 62
7
  6
BYLAYER
 70
0
 71
3
 72
9
 73
5
 74
0
 42
0.0000001
 43
0.0000001
 44
0.0000000001
 40
0.0
 40
0.0
 40
0.0
 40
0.0
 40
0.2451161076
 40
1.0
 40
1.0
 40
1.0
 40
1.0
 10
35.9445126802
 20
58.6511994174
 30
0.0
 10
35.9380337723
 20
58.6280515187
 30
0.0
 10
35.9128717245
 20
58.5332623914
 30
0.0
 10
35.8927111664
 20
58.4371603661
 30
0.0
 10
35.8800934725
 20
58.3642153241
 30
0.0
  0
SPLINE
  5
2D5
100
AcDbEntity
  8
0
100
AcDbSpline
 62
7
  6
BYLAYER
 70
0
 71
3
 72
9
 73
5
 74
0
 42
0.0000001
 43
0.0000001
 44
0.0000000001
 40
0.0
 40
0.0
 40
0.0
 40
0.0
 40
0.2591275841
 40
1.0
 40
1.0
 40
1.0
 40
1.0
 10
19.2145021845
 20
87.708860375
 30
0.0
 10
19.2562525951
 20
87.6991059002
 30
0.0
 10
19.4182521139
 20
87.6654596759
 30
0.0
 10
19.5839221468
 20
87.6484705914
 30
0.0
 10
19.7065009756
 20
87.6474120291
 30
0.0
  0
SPLINE
  5
2D6
100
AcDbEntity
  8
0
100
AcDbSpline
 62
7
  6
BYLAYER
 70
0
 71
3
 72
9
 73
5
 74
0
 42
0.0000001
 43
0.0000001
 44
0.0000000001
 40
0.0
 40
0.0
 40
0.0
 40
0.0
 40
0.2665466526
 40
1.0
 40
1.0
 40
1.0
 40
1.0
 10
37.2661877421
 20
107.1037379441
 30
0.0
 10
37.223280138
 20
107.1285107682
 30
0.0
 10
37.065452799
 20
107.2265730383
 30
0.0
 10
36.9204769473
 20
107.3469781097
 30
0.0
 10
36.8294652999
 20
107.4484855978
 30
0.0
  0
SPLINE
  5
2D7
100
AcDbEntity
  8
0
100
AcDbSpline
 62
7
  6
BYLAYER
 70
0
 71
3
 72
15
 73
11
 74
0
 42
0.0000001
 43
0.0000001
 44
0.0000000001
 40
0.0
 40
0.0
 40
0.0
 40
0.0
 40
0.1268042497
 40
0.2441068077
 40
0.3560215111
 40
0.4678030496
 40
0.5846989129
 40
0.7109640387
 40
0.8492533921
 40
1.0
 40
1.0
 40
1.0
 40
1.0
 10
36.8294652999
 20
107.4484855978
 30
0.0
 10
36.7736949715
 20
107.5106875918
 30
0.0
 10
36.6768498204
 20
107.6407962381
 30
0.0
 10
36.582349352
 20
107.8580208015
 30
0.0
 10
36.5491119396
 20
108.0830864131
 30
0.0
 10
36.5791736554
 20
108.3083241549
 30
0.0
 10
36.6707112372
 20
108.5261372676
 30
0.0
 10
36.819637172
 20
108.7309097798
 30
0.0
 10
37.0211878555
 20
108.9179556736
 30
0.0
 10
37.1801640355
 20
109.0242082503
 30
0.0
 10
37.2661751571
 20
109.073866498
 30
0.0
  0
SPLINE
  5
2D8
100
AcDbEntity
  8
0
100
AcDbSpline
 62
7
  6
BYLAYER
 70
0
 71
3
 72
16
 73
12
 74
0
 42
0.0000001
 43
0.0000001
 44
0.0000000001
 40
0.0
 40
0.0
 40
0.0
 40
0.0
 40
0.1533267513
 40
0.3043848796
 40
0.4489456317
 40
0.5833885454
 40
0.7051997405
 40
0.8135750668
 40
0.9101644426
 40
0.9555550651
 40
1.0
 40
1.0
 40
1.0
 40
1.0
 10
40.6730769264
 20
57.3614228032
 30
0.0
 10
40.8190094779
 20
57.1400832644
 30
0.0
 10
41.0823133748
 20
56.6826331225
 30
0.0
 10
41.3868468441
 20
55.9665688411
 30
0.0
 10
41.5892657233
 20
55.2486928151
 30
0.0
 10
41.6809523197
 20
54.5589861108
 30
0.0
 10
41.6573435561
 20
53.9252107471
 30
0.0
 10
41.5178089645
 20
53.3724776341
 30
0.0
 10
41.2989701247
 20
52.9901940831
 30
0.0
 10
41.0718260056
 20
52.7594124353
 30
0.0
 10
40.9441319818
 20
52.6692007437
 30
0.0
 10
40.8775846296
 20
52.6307643111
 30
0.0
  0
SPLINE
  5
2D9
100
AcDbEntity
  8
0
100
AcDbSpline
 62
7
  6
BYLAYER
 70
0
 71
3
 72
17
 73
13
 74
0
 42
0.0000001
 43
0.0000001
 44
0.0000000001
 40
0.0
 40
0.0
 40
0.0
 40
0.0
 40
0.042858087
 40
0.0874868226
 40
0.1353184074
 40
0.1872837243
 40
0.3045441942
 40
0.4382114024
 40
0.5825545259
 40
0.7297149923
 40
0.8713046897
 40
1.0
 40
1.0
 40
1.0
 40
1.0
 10
37.0676238422
 20
83.0798849543
 30
0.0
 10
37.1615595763
 20
83.1340973731
 30
0.0
 10
37.368589945
 20
83.2202020573
 30
0.0
 10
37.7103760802
 20
83.2702099562
 30
0.0
 10
38.0774202629
 20
83.2433032288
 30
0.0
 10
38.6107060498
 20
83.1013580166
 30
0.0
 10
39.2924792503
 20
82.7286616387
 30
0.0
 10
40.0456919246
 20
82.0615731311
 30
0.0
 10
40.7115054006
 20
81.2093513184
 30
0.0
 10
41.2354938622
 20
80.2408104204
 30
0.0
 10
41.5755890996
 20
79.2353901552
 30
0.0
 10
41.6666924587
 20
78.5506220133
 30
0.0
 10
41.6666924587
 20
78.2249448558
 30
0.0
  0
SPLINE
  5
2DA
100
AcDbEntity
  8
0
100
AcDbSpline
 62
7
  6
BYLAYER
 70
0
 71
3
 72
11
 73
7
 74
0
 42
0.0000001
 43
0.0000001
 44
0.0000000001
 40
0.0
 40
0.0
 40
0.0
 40
0.0
 40
0.2897460512
 40
0.5490789211
 40
0.7822214189
 40
1.0
 40
1.0
 40
1.0
 40
1.0
 10
37.894978158
 20
58.4190166449
 30
0.0
 10
37.7277739354
 20
58.515549864
 30
0.0
 10
37.3952227452
 20
58.6737978384
 30
0.0
 10
36.8840317852
 20
58.7971891326
 30
0.0
 10
36.4044429248
 20
58.7850327758
 30
0.0
 10
36.1156586876
 20
58.6802635041
 30
0.0
 10
35.9899975872
 20
58.6076852627
 30
0.0
  0
ELLIPSE
  5
2DB
100
AcDbEntity
  8
0
100
AcDbEllipse
 62
7
  6
BYLAYER
 10
17.4826549265
 20
91.2228115444
 30
0.0
 11
-0.9812704905
 21
4.4454395962
 31
0.0
 40
0.6979052179
 41
3.3588647843
 42
5.5868673012
  0
ELLIPSE
  5
2DC
100
AcDbEntity
  8
0
100
AcDbEllipse
 62
7
  6
BYLAYER
 10
38.137329998
 20
55.4480635005
 30
0.0
 11
3.3592030598
 21
-3.072548609
 31
0.0
 40
0.6979086025
 41
6.9795213408
 42
9.2075152175
  0
ELLIPSE
  5
2DD
100
AcDbEntity
  8
0
100
AcDbEllipse
 62
7
  6
BYLAYER
 10
36.0090462309
 20
30.8107065626
 30
0.0
 11
-10.2766246773
 21
32.4910170193
 31
0.0
 40
0.2019072358
 41
-0.7656441909
 42
0.3311352535
  0
ELLIPSE
  5
2DE
100
AcDbEntity
  8
0
100
AcDbEllipse
 62
7
  6
BYLAYER
 10
17.4826549265
 20
67.37277594
 30
0.0
 11
-1.4974538615
 21
4.2529793374
 31
0.0
 40
0.4107605099
 41
4.7891400705
 42
6.8650586161
  0
ELLIPSE
  5
2DF
100
AcDbEntity
  8
0
100
AcDbEllipse
 62
7
  6
BYLAYER
 10
17.4826549265
 20
67.37277594
 30
0.0
 11
-2.9344572575
 21
3.4233292402
 31
0.0
 40
0.4107626802
 41
-3.7133221824
 42
-1.6475320478
  0
ELLIPSE
  5
2E0
100
AcDbEntity
  8
0
100
AcDbEllipse
 62
7
  6
BYLAYER
 10
38.137329998
 20
79.2980991049
 30
0.0
 11
3.3592030598
 21
-3.072548609
 31
0.0
 40
0.6979086025
 41
-1.7880504298
 42
0.439952087
  0
ELLIPSE
  5
2E1
100
AcDbEntity
  8
0
100
AcDbEllipse
 62
7
  6
BYLAYER
 10
38.137329998
 20
79.2980991049
 30
0.0
 11
-0.9812704905
 21
4.4454395962
 31
0.0
 40
0.6979052179
 41
5.8432512478
 42
8.0712537647
  0
ELLIPSE
  5
2E2
100
AcDbEntity
  8
0
100
AcDbEllipse
 62
7
  6
BYLAYER
 10
17.4826549265
 20
91.2228115444
 30
0.0
 11
-1.4974538615
 21
4.2529793374
 31
0.0
 40
0.4107605099
 41
2.2899668006
 42
3.2183351035
  0
ELLIPSE
  5
2E3
100
AcDbEntity
  8
0
100
AcDbEllipse
 62
7
  6
BYLAYER
 10
38.137329998
 20
55.4480635005
 30
0.0
 11
-2.9344572575
 21
3.4233292402
 31
0.0
 40
0.4107626802
 41
-0.076735721
 42
0.8799234063
  0
ENDSEC
  0
SECTION
  2
OBJECTS
  0
DICTIONARY
  5
C
100
AcDbDictionary
280
0
281
1
  3
ACAD_GROUP
350
D
  3
ACAD_MLINESTYLE
350
17
  3
ACAD_LAYOUT
350
1A
  3
ACAD_PLOTSETTINGS
350
19
  3
ACAD_PLOTSTYLENAME
350
E
  0
DICTIONARY
  5
D
102
{ACAD_REACTORS
330
C
102
}
100
AcDbDictionary
280
0
281
1
  0
ACDBDICTIONARYWDFLT
  5
E
102
{ACAD_REACTORS
330
C
102
}
100
AcDbDictionary
281
1
  3
Normal
350
F
100
AcDbDictionaryWithDefault
340
F
  0
DICTIONARY
  5
17
102
{ACAD_REACTORS
330
C
102
}
100
AcDbDictionary
280
0
281
1
  3
Standard
350
18
  0
DICTIONARY
  5
19
102
{ACAD_REACTORS
330
C
102
}
100
AcDbDictionary
281
1
  0
DICTIONARY
  5
1A
102
{ACAD_REACTORS
330
C
102
}
100
AcDbDictionary
281
1
  3
Model
350
2E4
  3
Layout1
350
2E5
  0
ACDBPLACEHOLDER
  5
F
102
{ACAD_REACTORS
330
E
102
}
  0
MLINESTYLE
  5
18
102
{ACAD_REACTORS
330
17
102
}
100
AcDbMlineStyle
  2
STANDARD
 70
0
  3

 62
256
 51
90.0
 52
90.0
 71
2
 49
0.5
 62
256
  6
BYLAYER
 49
-0.5
 62
256
  6
BYLAYER
  0
LAYOUT
  5
2E4
102
{ACAD_REACTORS
330
1A
102
}
100
AcDbPlotSettings
  1

  2
none_device
  4

  6

 40
0.0
 41
0.0
 42
0.0
 43
0.0
 44
210.0
 45
297.0
 46
0.0
 47
0.0
 48
0.0
 49
0.0
140
0.0
141
0.0
142
1.0
143
1.0
 70
1024
 72
1
 73
0
 74
0
  7

 75
0
147
1.0
148
0.0
149
0.0
100
AcDbLayout
  1
Model
 70
0
 71
0
 10
0.0
 20
0.0
 11
210.0
 21
297.0
 12
0.0
 22
0.0
 32
0.0
 14
0.0
 24
0.0
 34
0.0
 15
0.0
 25
0.0
 35
0.0
146
0.0
 13
0.0
 23
0.0
 33
0.0
 16
1.0
 26
0.0
 36
0.0
 17
0.0
 27
1.0
 37
0.0
 76
0
330
210
345
0
346
0
  0
LAYOUT
  5
2E5
102
{ACAD_REACTORS
330
1A
102
}
100
AcDbPlotSettings
  1

  2
none_device
  4

  6

 40
0.0
 41
0.0
 42
0.0
 43
0.0
 44
210.0
 45
297.0
 46
0.0
 47
0.0
 48
0.0
 49
0.0
140
0.0
141
0.0
142
1.0
143
1.0
 70
0
 72
1
 73
0
 74
0
  7

 75
0
147
1.0
148
0.0
149
0.0
100
AcDbLayout
  1
Layout1
 70
0
 71
1
 10
0.0
 20
0.0
 11
210.0
 21
297.0
 12
0.0
 22
0.0
 32
0.0
 14
0.0
 24
0.0
 34
0.0
 15
0.0
 25
0.0
 35
0.0
146
0.0
 13
0.0
 23
0.0
 33
0.0
 16
1.0
 26
0.0
 36
0.0
 17
0.0
 27
1.0
 37
0.0
 76
0
330
211
345
0
346
0
  0
ENDSEC
  0
EOF
