999
DXF file: C:\Users\sesa63760\Dev\_Creo\CAD\MCADID0003389_3D-CAD\drw0001_1.dxf
999
Pro/ENGINEER 2019471 by Parametric Technology Corporation
  0
SECTION
  2
HEADER
  9
$ACADVER
  1
AC1024
  9
$DWGCODEPAGE
  3
ANSI_1252
  9
$EXTMAX
 10
60.5332876598
 20
85.611363976
 30
0.0
  9
$EXTMIN
 10
0.0
 20
0.0
 30
0.0
  9
$LIMMIN
 10
0.0
 20
0.0
  9
$LIMMAX
 10
60.5332876598
 20
85.611363976
  9
$VIEWCTR
 10
30.2666438299
 20
42.805681988
  9
$VIEWSIZE
 40
85.611363976
  9
$CLAYER
  8
0
  9
$LTSCALE
 40
5.5805926147
  9
$CELTYPE
  6
BYLAYER
  9
$DIMSCALE
 40
1.0
  9
$DIMASZ
 40
0.7206343769
  9
$DIMEXO
 40
1.0
  9
$DIMDLI
 40
3.8556821702
  9
$DIMEXE
 40
1.0
  9
$DIMCEN
 40
0.9131878824
  9
$DIMLFAC
 40
1.0
  9
$DIMBLK
  1
_FILLED
  9
$DIMALT
 70
0
  9
$DIMALTF
 40
0.0393700787
  9
$DIMTXT
 40
1.0088881277
  9
$DIMTOL
 70
1
  9
$DIMLIM
 70
0
  9
$DIMTFAC
 40
1.0
  9
$DIMTP
 40
0.01
  9
$DIMTM
 40
0.01
  9
$DIMGAP
 40
0.625
  9
$DIMDSEP
 70
46
  9
$AUNITS
 70
0
  9
$PDMODE
 70
3
  9
$PDSIZE
 40
0.3125
  9
$HANDSEED
  5
31F
  9
$TILEMODE
 70
1
  9
$MEASUREMENT
 70
1
  9
$INSUNITS
 70
4
  0
ENDSEC
  0
SECTION
  2
CLASSES
  0
CLASS
  1
ACDBDICTIONARYWDFLT
  2
AcDbDictionaryWithDefault
  3
AutoCAD 2000
 90
0
 91
1
280
0
281
0
  0
CLASS
  1
ACDBPLACEHOLDER
  2
AcDbPlaceHolder
  3
AutoCAD 2000
 90
0
 91
1
280
0
281
0
  0
CLASS
  1
LAYOUT
  2
AcDbLayout
  3
AutoCAD 2000
 90
0
 91
0
280
0
281
0
  0
ENDSEC
  0
SECTION
  2
TABLES
  0
TABLE
  2
VPORT
  5
8
100
AcDbSymbolTable
 70
2
  0
VPORT
  5
1F4
100
AcDbSymbolTableRecord
100
AcDbViewportTableRecord
  2
*ACTIVE
 70
0
 10
0.0
 20
0.0
 11
1.0
 21
1.0
 12
30.2666438299
 22
42.805681988
 13
0.0
 23
0.0
 14
1.0
 24
1.0
 15
0.0
 25
0.0
 16
0.0
 26
0.0
 36
1.0
 17
0.0
 27
0.0
 37
0.0
 40
85.611363976
 41
0.7070707071
 42
50.0
 43
0.0
 44
0.0
 50
0.0
 51
0.0
 71
0
 72
100
 73
1
 74
1
 75
0
 76
0
 77
0
 78
0
  0
ENDTAB
  0
TABLE
  2
LTYPE
  5
5
100
AcDbSymbolTable
 70
6
  0
LTYPE
  5
14
100
AcDbSymbolTableRecord
100
AcDbLinetypeTableRecord
  2
BYBLOCK
 70
0
  3

 72
65
 73
0
 40
0.0
  0
LTYPE
  5
15
100
AcDbSymbolTableRecord
100
AcDbLinetypeTableRecord
  2
BYLAYER
 70
0
  3

 72
65
 73
0
 40
0.0
  0
LTYPE
  5
16
100
AcDbSymbolTableRecord
100
AcDbLinetypeTableRecord
  2
CONTINUOUS
 70
64
  3
Solid line
 72
65
 73
0
 40
0.0
  0
LTYPE
  5
1F5
100
AcDbSymbolTableRecord
100
AcDbLinetypeTableRecord
  2
CENTER
 70
64
  3
____ _ ____ _ ____ _ ____ _ ____ _ ____ _ ____
 72
65
 73
4
 40
0.6
 49
0.375
 74
0
 49
-0.075
 74
0
 49
0.075
 74
0
 49
-0.075
 74
0
  0
LTYPE
  5
1F6
100
AcDbSymbolTableRecord
100
AcDbLinetypeTableRecord
  2
HIDDEN
 70
64
  3
- - - - - - - - - - - - - - - - - - - -
 72
65
 73
2
 40
0.2
 49
0.1
 74
0
 49
-0.1
 74
0
  0
LTYPE
  5
1F7
100
AcDbSymbolTableRecord
100
AcDbLinetypeTableRecord
  2
PHANTOM
 70
64
  3
_____ _ _ _____ _ _ _____ _ _ _____
 72
65
 73
6
 40
0.8
 49
0.45
 74
0
 49
-0.05
 74
0
 49
0.1
 74
0
 49
-0.05
 74
0
 49
0.1
 74
0
 49
-0.05
 74
0
  0
LTYPE
  5
1F8
100
AcDbSymbolTableRecord
100
AcDbLinetypeTableRecord
  2
DOT
 70
64
  3
. . . . . . . . . . . . . . . . . . . .
 72
65
 73
2
 40
0.2
 49
0.1
 74
0
 49
-0.1
 74
0
  0
LTYPE
  5
1F9
100
AcDbSymbolTableRecord
100
AcDbLinetypeTableRecord
  2
DASHED
 70
64
  3
- - - - - - - - - - - - - - - - - - - -
 72
65
 73
2
 40
0.2
 49
0.1
 74
0
 49
-0.1
 74
0
  0
ENDTAB
  0
TABLE
  2
LAYER
  5
2
100
AcDbSymbolTable
 70
36
  0
LAYER
  5
10
100
AcDbSymbolTableRecord
100
AcDbLayerTableRecord
  2
0
 70
0
 62
7
  6
CONTINUOUS
370
-3
390
F
  0
LAYER
  5
1FA
100
AcDbSymbolTableRecord
100
AcDbLayerTableRecord
  2
DEFAULT_1
 70
0
 62
7
  6
CENTER
370
-3
390
F
  0
LAYER
  5
1FB
100
AcDbSymbolTableRecord
100
AcDbLayerTableRecord
  2
DEFAULT_2
 70
0
 62
7
  6
HIDDEN
370
-3
390
F
  0
LAYER
  5
1FC
100
AcDbSymbolTableRecord
100
AcDbLayerTableRecord
  2
DEFAULT_3
 70
0
 62
7
  6
PHANTOM
370
-3
390
F
  0
LAYER
  5
1FD
100
AcDbSymbolTableRecord
100
AcDbLayerTableRecord
  2
00_COMPONENTS
 70
0
 62
7
  6
CONTINUOUS
370
-3
390
F
  0
LAYER
  5
1FE
100
AcDbSymbolTableRecord
100
AcDbLayerTableRecord
  2
01_1_DEFAULT_DATUMS
 70
0
 62
7
  6
CONTINUOUS
370
-3
390
F
  0
LAYER
  5
1FF
100
AcDbSymbolTableRecord
100
AcDbLayerTableRecord
  2
01_PLANES
 70
0
 62
7
  6
CONTINUOUS
370
-3
390
F
  0
LAYER
  5
200
100
AcDbSymbolTableRecord
100
AcDbLayerTableRecord
  2
02_COORD_SYS
 70
0
 62
7
  6
CONTINUOUS
370
-3
390
F
  0
LAYER
  5
201
100
AcDbSymbolTableRecord
100
AcDbLayerTableRecord
  2
03_AXES
 70
0
 62
7
  6
CONTINUOUS
370
-3
390
F
  0
LAYER
  5
202
100
AcDbSymbolTableRecord
100
AcDbLayerTableRecord
  2
04_POINTS
 70
0
 62
7
  6
CONTINUOUS
370
-3
390
F
  0
LAYER
  5
203
100
AcDbSymbolTableRecord
100
AcDbLayerTableRecord
  2
05_CURVES
 70
0
 62
7
  6
CONTINUOUS
370
-3
390
F
  0
LAYER
  5
204
100
AcDbSymbolTableRecord
100
AcDbLayerTableRecord
  2
06_SURFS
 70
0
 62
7
  6
CONTINUOUS
370
-3
390
F
  0
LAYER
  5
205
100
AcDbSymbolTableRecord
100
AcDbLayerTableRecord
  2
07_COSMETICS
 70
0
 62
7
  6
CONTINUOUS
370
-3
390
F
  0
LAYER
  5
206
100
AcDbSymbolTableRecord
100
AcDbLayerTableRecord
  2
10_NOTES
 70
0
 62
7
  6
CONTINUOUS
370
-3
390
F
  0
LAYER
  5
207
100
AcDbSymbolTableRecord
100
AcDbLayerTableRecord
  2
11_NOTES_PUB
 70
0
 62
7
  6
CONTINUOUS
370
-3
390
F
  0
LAYER
  5
208
100
AcDbSymbolTableRecord
100
AcDbLayerTableRecord
  2
13_REF_GTOL
 70
0
 62
7
  6
CONTINUOUS
370
-3
390
F
  0
LAYER
  5
209
100
AcDbSymbolTableRecord
100
AcDbLayerTableRecord
  2
16_MISC
 70
0
 62
7
  6
CONTINUOUS
370
-3
390
F
  0
LAYER
  5
20A
100
AcDbSymbolTableRecord
100
AcDbLayerTableRecord
  2
17_NO_PRINT
 70
0
 62
7
  6
CONTINUOUS
370
-3
390
F
  0
LAYER
  5
20B
100
AcDbSymbolTableRecord
100
AcDbLayerTableRecord
  2
18_DATUM_CAMS_JOINTS
 70
0
 62
7
  6
CONTINUOUS
370
-3
390
F
  0
LAYER
  5
20C
100
AcDbSymbolTableRecord
100
AcDbLayerTableRecord
  2
19_DATUM_FUNCTIONAL
 70
0
 62
7
  6
CONTINUOUS
370
-3
390
F
  0
LAYER
  5
20D
100
AcDbSymbolTableRecord
100
AcDbLayerTableRecord
  2
20_DATUM_KINEMATIC_SCHEME
 70
0
 62
7
  6
CONTINUOUS
370
-3
390
F
  0
ENDTAB
  0
TABLE
  2
STYLE
  5
3
100
AcDbSymbolTable
 70
1
  0
STYLE
  5
11
100
AcDbSymbolTableRecord
100
AcDbTextStyleTableRecord
  2
STANDARD
 70
0
 40
0.0
 41
1.0
 50
0.0
 71
0
 42
0.2
  3
ARIAL.TTF
  4

  0
STYLE
  5
20E
100
AcDbSymbolTableRecord
100
AcDbTextStyleTableRecord
  2
TEXTSTYLE_1
 70
0
 40
0.0
 41
0.8
 50
0.0
 71
0
 42
0.2
  3
gdt
  4

  0
ENDTAB
  0
TABLE
  2
VIEW
  5
6
100
AcDbSymbolTable
 70
0
  0
ENDTAB
  0
TABLE
  2
UCS
  5
7
100
AcDbSymbolTable
 70
0
  0
ENDTAB
  0
TABLE
  2
APPID
  5
9
100
AcDbSymbolTable
 70
1
  0
APPID
  5
20F
100
AcDbSymbolTableRecord
100
AcDbRegAppTableRecord
  2
ACAD
 70
0
  0
ENDTAB
  0
TABLE
  2
BLOCK_RECORD
  5
1
100
AcDbSymbolTable
 70
0
  0
BLOCK_RECORD
  5
210
100
AcDbSymbolTableRecord
100
AcDbBlockTableRecord
  2
*Model_Space
  0
BLOCK_RECORD
  5
211
100
AcDbSymbolTableRecord
100
AcDbBlockTableRecord
  2
*Paper_Space
  0
BLOCK_RECORD
  5
212
100
AcDbSymbolTableRecord
100
AcDbBlockTableRecord
  2
_FILLED
  0
ENDTAB
  0
TABLE
  2
DIMSTYLE
  5
A
100
AcDbSymbolTable
 70
1
100
AcDbDimStyleTable
 71
0
  0
DIMSTYLE
105
213
100
AcDbSymbolTableRecord
100
AcDbDimStyleTableRecord
  2
STANDARD
 70
0
  3

  4

 40
1.0
 41
0.7206343769
 42
1.0
 43
0.38
 44
1.0
 45
0.0
 46
0.0
 47
0.01
 48
0.01
140
1.0088881277
141
0.09
142
0.0
143
25.4
144
1.0
145
0.0
146
1.0
147
0.625
 71
1
 72
0
 73
0
 74
0
 75
0
 76
0
 77
1
 78
8
 79
2
170
0
171
1
172
0
173
0
174
0
175
0
176
0
177
0
178
0
270
2
179
2
271
2
272
2
273
2
274
2
275
0
280
0
281
0
282
0
283
1
284
8
285
0
286
0
287
3
288
0
340
11
278
46
341
212
342
212
343
212
344
212
  0
ENDTAB
  0
ENDSEC
  0
SECTION
  2
BLOCKS
  0
BLOCK
  5
20
100
AcDbEntity
  8
0
100
AcDbBlockBegin
  2
*Model_Space
 70
0
 10
0.0
 20
0.0
 30
0.0
  3
*Model_Space
  1

  0
ENDBLK
  5
21
100
AcDbEntity
  8
0
100
AcDbBlockEnd
  0
BLOCK
  5
1C
100
AcDbEntity
  8
0
100
AcDbBlockBegin
  2
*Paper_Space
 70
0
 10
0.0
 20
0.0
 30
0.0
  3
*Paper_Space
  1

  0
ENDBLK
  5
1D
100
AcDbEntity
  8
0
100
AcDbBlockEnd
  0
BLOCK
  5
214
100
AcDbEntity
  8
0
100
AcDbBlockBegin
  2
_FILLED
 70
64
 10
0.0
 20
0.0
  3
_FILLED
  1

  0
SOLID
  5
215
100
AcDbEntity
  8
0
  6
BYBLOCK
 62
0
100
AcDbTrace
 10
0.0
 20
0.0
 11
-1.0
 21
0.25
 12
-1.0
 22
-0.25
 13
-1.0
 23
-0.25
  0
ENDBLK
  5
216
100
AcDbEntity
  8
0
  6
BYBLOCK
 62
0
100
AcDbBlockEnd
  0
ENDSEC
  0
SECTION
  2
ENTITIES
  0
LINE
  5
217
100
AcDbEntity
  8
0
100
AcDbLine
 62
7
  6
BYLAYER
 10
33.5140491876
 20
6.9318979753
 11
36.199832141
 21
7.5347881507
  0
LINE
  5
218
100
AcDbEntity
  8
0
100
AcDbLine
 62
7
  6
BYLAYER
 10
31.3146522801
 20
6.6900866004
 11
33.5140491876
 21
6.9318979753
  0
LINE
  5
219
100
AcDbEntity
  8
0
100
AcDbLine
 62
7
  6
BYLAYER
 10
30.510908456
 20
78.938137391
 11
12.8333125256
 21
68.7320335442
  0
LINE
  5
21A
100
AcDbEntity
  8
0
100
AcDbLine
 62
7
  6
BYLAYER
 10
13.0338744263
 20
68.7460820833
 11
29.6397618069
 21
78.3334384039
  0
LINE
  5
21B
100
AcDbEntity
  8
0
100
AcDbLine
 62
7
  6
BYLAYER
 10
30.5549653044
 20
78.8618282355
 11
30.7114703566
 21
78.9521859301
  0
LINE
  5
21C
100
AcDbEntity
  8
0
100
AcDbLine
 62
7
  6
BYLAYER
 10
31.3146522801
 20
6.6900866004
 11
29.1933231047
 21
7.914808864
  0
LINE
  5
21D
100
AcDbEntity
  8
0
100
AcDbLine
 62
7
  6
BYLAYER
 10
11.515579976
 20
18.120827727
 11
9.3942508006
 21
19.3455499906
  0
LINE
  5
21E
100
AcDbEntity
  8
0
100
AcDbLine
 62
7
  6
BYLAYER
 10
31.0868566026
 20
7.013725308
 11
9.166455123
 21
19.6691886982
  0
LINE
  5
21F
100
AcDbEntity
  8
0
100
AcDbLine
 62
7
  6
BYLAYER
 10
9.3942508006
 20
19.3455499906
 11
9.166455123
 21
19.6691886982
  0
LINE
  5
220
100
AcDbEntity
  8
0
100
AcDbLine
 62
7
  6
BYLAYER
 10
28.6611553074
 20
74.1142187968
 11
27.3814985451
 21
73.6217378298
  0
LINE
  5
221
100
AcDbEntity
  8
0
100
AcDbLine
 62
7
  6
BYLAYER
 10
32.7317528211
 20
6.8458888701
 11
33.1445105163
 21
6.6075884948
  0
LINE
  5
222
100
AcDbEntity
  8
0
100
AcDbLine
 62
7
  6
BYLAYER
 10
11.2877842985
 20
18.4444664346
 11
11.515579976
 21
18.120827727
  0
LINE
  5
223
100
AcDbEntity
  8
0
100
AcDbLine
 62
7
  6
BYLAYER
 10
16.2844839886
 20
65.2730632299
 11
16.6380359072
 21
65.4771853069
  0
LINE
  5
224
100
AcDbEntity
  8
0
100
AcDbLine
 62
7
  6
BYLAYER
 10
14.3707532016
 20
63.1705333953
 11
15.8898005079
 21
64.0475505314
  0
LINE
  5
225
100
AcDbEntity
  8
0
100
AcDbLine
 62
7
  6
BYLAYER
 10
18.0343647292
 20
64.6710327232
 11
17.6808128106
 21
64.4669106463
  0
LINE
  5
226
100
AcDbEntity
  8
0
100
AcDbLine
 62
7
  6
BYLAYER
 10
16.8758589947
 20
62.9838434317
 11
14.3707532016
 21
61.537528561
  0
LINE
  5
227
100
AcDbEntity
  8
0
100
AcDbLine
 62
7
  6
BYLAYER
 10
11.515579976
 20
18.120827727
 11
11.7951215564
 21
18.1515617585
  0
LINE
  5
228
100
AcDbEntity
  8
0
100
AcDbLine
 62
7
  6
BYLAYER
 10
9.166455123
 20
54.969292996
 11
9.166455123
 21
19.6691886982
  0
LINE
  5
229
100
AcDbEntity
  8
0
100
AcDbLine
 62
7
  6
BYLAYER
 10
19.7549422569
 20
60.0575889522
 11
19.5646821632
 21
59.9335845221
  0
LINE
  5
22A
100
AcDbEntity
  8
0
100
AcDbLine
 62
7
  6
BYLAYER
 10
12.7891712797
 20
57.3013896202
 11
9.3891940864
 21
55.3384235897
  0
LINE
  5
22B
100
AcDbEntity
  8
0
100
AcDbLine
 62
7
  6
BYLAYER
 10
9.6040406723
 20
55.3913126151
 11
12.9553872179
 21
57.3262018956
  0
LINE
  5
22C
100
AcDbEntity
  8
0
100
AcDbLine
 62
7
  6
BYLAYER
 10
15.8910391106
 20
58.904330742
 11
17.9738424214
 21
60.1068306162
  0
LINE
  5
22D
100
AcDbEntity
  8
0
100
AcDbLine
 62
7
  6
BYLAYER
 10
18.1184478803
 20
59.3738298107
 11
16.5981488358
 21
58.4960899875
  0
LINE
  5
22E
100
AcDbEntity
  8
0
100
AcDbLine
 62
7
  6
BYLAYER
 10
22.4852345847
 20
61.635079741
 11
19.7546206617
 21
60.058568468
  0
LINE
  5
22F
100
AcDbEntity
  8
0
100
AcDbLine
 62
7
  6
BYLAYER
 10
41.2524217016
 20
11.3032491317
 11
41.3357262021
 21
11.2551543439
  0
LINE
  5
230
100
AcDbEntity
  8
0
100
AcDbLine
 62
7
  6
BYLAYER
 10
41.212164198
 20
12.0003186306
 11
39.5137630718
 21
12.980868795
  0
LINE
  5
231
100
AcDbEntity
  8
0
100
AcDbLine
 62
7
  6
BYLAYER
 10
43.0885440828
 20
12.1854879368
 11
43.0178318884
 21
12.2263127177
  0
LINE
  5
232
100
AcDbEntity
  8
0
100
AcDbLine
 62
7
  6
BYLAYER
 10
29.1933231047
 20
7.914808864
 11
28.9655274271
 21
8.2384475716
  0
LINE
  5
233
100
AcDbEntity
  8
0
100
AcDbLine
 62
7
  6
BYLAYER
 10
31.0868566026
 20
7.013725308
 11
31.3146522801
 21
6.6900866004
  0
LINE
  5
234
100
AcDbEntity
  8
0
100
AcDbLine
 62
7
  6
BYLAYER
 10
12.7090453475
 20
68.4573619792
 11
12.7090453475
 21
57.2551291678
  0
LINE
  5
235
100
AcDbEntity
  8
0
100
AcDbLine
 62
7
  6
BYLAYER
 10
15.6986117695
 20
54.6197852857
 11
15.4890704989
 21
54.2276999568
  0
LINE
  5
236
100
AcDbEntity
  8
0
100
AcDbLine
 62
7
  6
BYLAYER
 10
27.7876541144
 20
73.2468096969
 11
26.9071925234
 21
71.7913398464
  0
LINE
  5
237
100
AcDbEntity
  8
0
100
AcDbLine
 62
7
  6
BYLAYER
 10
18.4482019386
 20
55.4012261627
 11
18.7881173929
 21
55.6493469088
  0
LINE
  5
238
100
AcDbEntity
  8
0
100
AcDbLine
 62
7
  6
BYLAYER
 10
15.4890704989
 20
54.2276999568
 11
15.3301349286
 21
54.1210812368
  0
LINE
  5
239
100
AcDbEntity
  8
0
100
AcDbLine
 62
7
  6
BYLAYER
 10
18.8770925084
 20
55.7079953767
 11
18.7880254343
 21
55.6495087578
  0
LINE
  5
23A
100
AcDbEntity
  8
0
100
AcDbLine
 62
7
  6
BYLAYER
 10
18.5278541101
 20
55.4530912677
 11
18.4482019386
 21
55.4012261626
  0
LINE
  5
23B
100
AcDbEntity
  8
0
100
AcDbLine
 62
7
  6
BYLAYER
 10
22.0800615531
 20
58.4811275031
 11
24.88441852
 21
60.1002140882
  0
LINE
  5
23C
100
AcDbEntity
  8
0
100
AcDbLine
 62
7
  6
BYLAYER
 10
14.3420157199
 20
53.9340120225
 11
15.7731507703
 21
54.760273297
  0
LINE
  5
23D
100
AcDbEntity
  8
0
100
AcDbLine
 62
7
  6
BYLAYER
 10
43.4285360719
 20
13.6158686799
 11
43.4409211958
 21
13.608718287
  0
LINE
  5
23E
100
AcDbEntity
  8
0
100
AcDbLine
 62
7
  6
BYLAYER
 10
43.847777641
 20
14.0815721357
 11
43.5818516195
 21
14.2351011225
  0
LINE
  5
23F
100
AcDbEntity
  8
0
100
AcDbLine
 62
7
  6
BYLAYER
 10
43.7127075851
 20
14.7636206401
 11
44.370922951
 21
14.3836084184
  0
LINE
  5
240
100
AcDbEntity
  8
0
100
AcDbLine
 62
7
  6
BYLAYER
 10
43.7632995502
 20
14.9679585997
 11
44.7245854094
 21
14.4129725056
  0
LINE
  5
241
100
AcDbEntity
  8
0
100
AcDbLine
 62
7
  6
BYLAYER
 10
14.3707532016
 20
63.1705333953
 11
14.3707532016
 21
61.537528561
  0
LINE
  5
242
100
AcDbEntity
  8
0
100
AcDbLine
 62
7
  6
BYLAYER
 10
16.2844100431
 20
66.8975722206
 11
16.2844839886
 21
65.2730632299
  0
LINE
  5
243
100
AcDbEntity
  8
0
100
AcDbLine
 62
7
  6
BYLAYER
 10
16.6379805447
 20
66.6934428143
 11
16.6380359072
 21
65.4771853069
  0
LINE
  5
244
100
AcDbEntity
  8
0
100
AcDbLine
 62
7
  6
BYLAYER
 10
26.2357033648
 20
58.3116281559
 11
25.8821514462
 21
58.107506079
  0
LINE
  5
245
100
AcDbEntity
  8
0
100
AcDbLine
 62
7
  6
BYLAYER
 10
19.0119246361
 20
53.8184747814
 11
18.4619223462
 21
53.5009217323
  0
LINE
  5
246
100
AcDbEntity
  8
0
100
AcDbLine
 62
7
  6
BYLAYER
 10
18.1310702043
 20
52.7902724691
 11
20.794134502
 21
54.3278337505
  0
LINE
  5
247
100
AcDbEntity
  8
0
100
AcDbLine
 62
7
  6
BYLAYER
 10
21.3441372823
 20
53.3752074116
 11
18.681076381
 21
51.8376480911
  0
LINE
  5
248
100
AcDbEntity
  8
0
100
AcDbLine
 62
7
  6
BYLAYER
 10
17.4113250197
 20
61.265343616
 11
17.4113250197
 21
61.4150981509
  0
LINE
  5
249
100
AcDbEntity
  8
0
100
AcDbLine
 62
7
  6
BYLAYER
 10
29.6576793638
 20
57.5522199489
 11
30.0112312825
 21
57.7563420259
  0
LINE
  5
24A
100
AcDbEntity
  8
0
100
AcDbLine
 62
7
  6
BYLAYER
 10
19.7323706777
 20
51.4631338836
 11
20.2823729676
 21
51.7806869328
  0
LINE
  5
24B
100
AcDbEntity
  8
0
100
AcDbLine
 62
7
  6
BYLAYER
 10
23.7571912706
 20
52.1028776215
 11
27.2059970334
 21
54.0940346714
  0
LINE
  5
24C
100
AcDbEntity
  8
0
100
AcDbLine
 62
7
  6
BYLAYER
 10
21.1007598518
 20
50.8068336622
 11
21.1855256217
 21
50.8498947332
  0
LINE
  5
24D
100
AcDbEntity
  8
0
100
AcDbLine
 62
7
  6
BYLAYER
 10
21.4721928874
 20
50.9768314582
 11
21.3861321661
 21
50.9336624735
  0
LINE
  5
24E
100
AcDbEntity
  8
0
100
AcDbLine
 62
7
  6
BYLAYER
 10
21.1007598519
 20
50.8068336622
 11
21.386361752
 21
50.9332291807
  0
LINE
  5
24F
100
AcDbEntity
  8
0
100
AcDbLine
 62
7
  6
BYLAYER
 10
29.9271671548
 20
54.1892367959
 11
31.4462144611
 21
55.066253932
  0
LINE
  5
250
100
AcDbEntity
  8
0
100
AcDbLine
 62
7
  6
BYLAYER
 10
31.548951861
 20
54.9758145085
 11
29.9271671548
 21
54.039482261
  0
LINE
  5
251
100
AcDbEntity
  8
0
100
AcDbLine
 62
7
  6
BYLAYER
 10
34.3046177482
 20
56.4656905201
 11
51.9822136786
 21
66.6717943669
  0
LINE
  5
252
100
AcDbEntity
  8
0
100
AcDbLine
 62
7
  6
BYLAYER
 10
34.629446827
 20
55.8018985891
 11
52.3070427574
 21
66.0080024359
  0
LINE
  5
253
100
AcDbEntity
  8
0
100
AcDbLine
 62
7
  6
BYLAYER
 10
28.2632391549
 20
50.8942805594
 11
24.7630751607
 21
48.8734719977
  0
LINE
  5
254
100
AcDbEntity
  8
0
100
AcDbLine
 62
7
  6
BYLAYER
 10
29.6653573235
 20
53.9486965944
 11
29.9271671548
 21
54.039482261
  0
LINE
  5
255
100
AcDbEntity
  8
0
100
AcDbLine
 62
7
  6
BYLAYER
 10
44.8278536018
 20
14.3021354148
 11
44.7245752856
 21
14.4129549449
  0
LINE
  5
256
100
AcDbEntity
  8
0
100
AcDbLine
 62
7
  6
BYLAYER
 10
44.9666210386
 20
14.1439716618
 11
44.8278536018
 21
14.3021354148
  0
LINE
  5
257
100
AcDbEntity
  8
0
100
AcDbLine
 62
7
  6
BYLAYER
 10
24.7580440524
 20
69.2116854046
 11
24.7580440524
 21
70.2537411509
  0
LINE
  5
258
100
AcDbEntity
  8
0
100
AcDbLine
 62
7
  6
BYLAYER
 10
28.1605769654
 20
49.6804890838
 11
28.7837807649
 21
50.0402938174
  0
LINE
  5
259
100
AcDbEntity
  8
0
100
AcDbLine
 62
7
  6
BYLAYER
 10
30.7403433387
 20
50.3312748971
 11
32.9677389729
 21
51.6172546898
  0
LINE
  5
25A
100
AcDbEntity
  8
0
100
AcDbLine
 62
7
  6
BYLAYER
 10
25.911555244
 20
47.2543643202
 11
28.9041801281
 21
48.9821467891
  0
LINE
  5
25B
100
AcDbEntity
  8
0
100
AcDbLine
 62
7
  6
BYLAYER
 10
32.9677521084
 20
50.8007739657
 11
31.4474530639
 21
49.9230341425
  0
LINE
  5
25C
100
AcDbEntity
  8
0
100
AcDbLine
 62
7
  6
BYLAYER
 10
33.0761985873
 20
6.8837587535
 11
33.1445105163
 21
6.6075884948
  0
LINE
  5
25D
100
AcDbEntity
  8
0
100
AcDbLine
 62
7
  6
BYLAYER
 10
19.9761569248
 20
52.132778743
 11
20.205176752
 21
51.7361069685
  0
LINE
  5
25E
100
AcDbEntity
  8
0
100
AcDbLine
 62
7
  6
BYLAYER
 10
24.7630751607
 20
48.8734719977
 11
24.5535916765
 21
49.5074759086
  0
LINE
  5
25F
100
AcDbEntity
  8
0
100
AcDbLine
 62
7
  6
BYLAYER
 10
29.0080440524
 20
72.2949971937
 11
29.0080440524
 21
77.1940116965
  0
LINE
  5
260
100
AcDbEntity
  8
0
100
AcDbLine
 62
7
  6
BYLAYER
 10
29.9271671548
 20
54.1892367959
 11
29.9271671548
 21
54.039482261
  0
LINE
  5
261
100
AcDbEntity
  8
0
100
AcDbLine
 62
7
  6
BYLAYER
 10
31.0540081859
 20
56.7460673653
 11
31.0540081859
 21
58.3705336645
  0
LINE
  5
262
100
AcDbEntity
  8
0
100
AcDbLine
 62
7
  6
BYLAYER
 10
31.0868566026
 20
7.013725308
 11
31.0868566026
 21
42.3138296059
  0
LINE
  5
263
100
AcDbEntity
  8
0
100
AcDbLine
 62
7
  6
BYLAYER
 10
30.6488824534
 20
43.2413424167
 11
34.0002164934
 21
45.1762244771
  0
LINE
  5
264
100
AcDbEntity
  8
0
100
AcDbLine
 62
7
  6
BYLAYER
 10
45.5608272367
 20
13.0568249872
 11
44.9666210386
 21
14.1439716618
  0
LINE
  5
265
100
AcDbEntity
  8
0
100
AcDbLine
 62
7
  6
BYLAYER
 10
27.2059970334
 20
54.0940346714
 11
28.2632391549
 21
50.8942805594
  0
LINE
  5
266
100
AcDbEntity
  8
0
100
AcDbLine
 62
7
  6
BYLAYER
 10
32.9677389729
 20
50.8007967172
 11
32.9677389729
 21
52.4338015514
  0
LINE
  5
267
100
AcDbEntity
  8
0
100
AcDbLine
 62
7
  6
BYLAYER
 10
36.2512276577
 20
45.2954628268
 11
34.629446827
 21
44.3591328168
  0
LINE
  5
268
100
AcDbEntity
  8
0
100
AcDbLine
 62
7
  6
BYLAYER
 10
31.0868566026
 20
42.3138296059
 11
34.6223757886
 21
44.3550503752
  0
LINE
  5
269
100
AcDbEntity
  8
0
100
AcDbLine
 62
7
  6
BYLAYER
 10
15.6986117695
 20
54.6197852857
 11
17.9748318753
 21
53.3056387249
  0
LINE
  5
26A
100
AcDbEntity
  8
0
100
AcDbLine
 62
7
  6
BYLAYER
 10
21.6951609558
 20
51.1577543204
 11
24.5535916765
 21
49.5074759086
  0
LINE
  5
26B
100
AcDbEntity
  8
0
100
AcDbLine
 62
7
  6
BYLAYER
 10
25.8120687874
 20
58.1160125986
 11
25.825181054
 21
58.0852434752
  0
LINE
  5
26C
100
AcDbEntity
  8
0
100
AcDbLine
 62
7
  6
BYLAYER
 10
25.8120687874
 20
58.1160125986
 11
25.8240391887
 21
58.0850438515
  0
LINE
  5
26D
100
AcDbEntity
  8
0
100
AcDbLine
 62
7
  6
BYLAYER
 10
34.629446827
 20
44.3591328168
 11
34.629446827
 21
55.8018985891
  0
LINE
  5
26E
100
AcDbEntity
  8
0
100
AcDbLine
 62
7
  6
BYLAYER
 10
36.0080440524
 20
72.2949971937
 11
36.0080440524
 21
77.1940116965
  0
LINE
  5
26F
100
AcDbEntity
  8
0
100
AcDbLine
 62
7
  6
BYLAYER
 10
34.629446827
 20
44.3591328168
 11
34.6143972141
 21
44.3678215183
  0
LINE
  5
270
100
AcDbEntity
  8
0
100
AcDbLine
 62
7
  6
BYLAYER
 10
41.2623610319
 20
11.1311469543
 11
41.212164198
 21
12.0003186306
  0
LINE
  5
271
100
AcDbEntity
  8
0
100
AcDbLine
 62
7
  6
BYLAYER
 10
15.8910391106
 20
58.904330742
 11
16.5981488358
 21
58.4960899875
  0
LINE
  5
272
100
AcDbEntity
  8
0
100
AcDbLine
 62
7
  6
BYLAYER
 10
30.7403433387
 20
50.3312748971
 11
31.4474530639
 21
49.9230341425
  0
LINE
  5
273
100
AcDbEntity
  8
0
100
AcDbLine
 62
7
  6
BYLAYER
 10
40.2580440524
 20
69.2116854046
 11
40.2580440524
 21
70.2537411509
  0
LINE
  5
274
100
AcDbEntity
  8
0
100
AcDbLine
 62
7
  6
BYLAYER
 10
22.1974967173
 20
58.0333018571
 11
19.2815934224
 21
59.7167613245
  0
LINE
  5
275
100
AcDbEntity
  8
0
100
AcDbLine
 62
7
  6
BYLAYER
 10
25.7916061477
 20
58.1597812488
 11
25.8821514462
 21
58.107506079
  0
LINE
  5
276
100
AcDbEntity
  8
0
100
AcDbLine
 62
7
  6
BYLAYER
 10
26.2357033648
 20
58.3116281559
 11
25.5301843386
 21
58.7189505408
  0
LINE
  5
277
100
AcDbEntity
  8
0
100
AcDbLine
 62
7
  6
BYLAYER
 10
16.2844839886
 20
65.2730632299
 11
17.6808128106
 21
64.4669106463
  0
LINE
  5
278
100
AcDbEntity
  8
0
100
AcDbLine
 62
7
  6
BYLAYER
 10
29.6576793638
 20
57.5522199489
 11
31.0540081859
 21
56.7460673653
  0
LINE
  5
279
100
AcDbEntity
  8
0
100
AcDbLine
 62
7
  6
BYLAYER
 10
31.0540081859
 20
57.1543081198
 11
30.0112312825
 21
57.7563420259
  0
LINE
  5
27A
100
AcDbEntity
  8
0
100
AcDbLine
 62
7
  6
BYLAYER
 10
16.6380359072
 20
65.4771853069
 11
18.0343647292
 21
64.6710327232
  0
LINE
  5
27B
100
AcDbEntity
  8
0
100
AcDbLine
 62
7
  6
BYLAYER
 10
31.0540081859
 20
58.3705336645
 11
16.2844100431
 21
66.8975722206
  0
LINE
  5
27C
100
AcDbEntity
  8
0
100
AcDbLine
 62
7
  6
BYLAYER
 10
9.6040406723
 20
55.3913126151
 11
9.3892342655
 21
55.3383540422
  0
LINE
  5
27D
100
AcDbEntity
  8
0
100
AcDbLine
 62
7
  6
BYLAYER
 10
12.9553872179
 20
57.3262018956
 11
12.7891647082
 21
57.3013858262
  0
LINE
  5
27E
100
AcDbEntity
  8
0
100
AcDbLine
 62
7
  6
BYLAYER
 10
50.1150026094
 20
16.4054481877
 11
50.1150026094
 21
18.7733489364
  0
LINE
  5
27F
100
AcDbEntity
  8
0
100
AcDbLine
 62
7
  6
BYLAYER
 10
43.0956151212
 20
12.27122062
 11
43.8032391707
 21
15.1292723682
  0
LINE
  5
280
100
AcDbEntity
  8
0
100
AcDbLine
 62
7
  6
BYLAYER
 10
43.4409211958
 20
13.608718287
 11
43.0885440828
 21
12.1854879368
  0
LINE
  5
281
100
AcDbEntity
  8
0
100
AcDbLine
 62
7
  6
BYLAYER
 10
52.3070427574
 20
20.0389163515
 11
52.3070427574
 21
66.0080024359
  0
LINE
  5
282
100
AcDbEntity
  8
0
100
AcDbLine
 62
7
  6
BYLAYER
 10
37.2284339904
 20
73.2468096969
 11
38.1088955815
 21
71.7913398464
  0
LINE
  5
283
100
AcDbEntity
  8
0
100
AcDbLine
 62
7
  6
BYLAYER
 10
13.0338744263
 20
68.7460820833
 11
12.833361361
 21
68.7319488607
  0
LINE
  5
284
100
AcDbEntity
  8
0
100
AcDbLine
 62
7
  6
BYLAYER
 10
52.3070427574
 20
20.0389163515
 11
43.8032391707
 21
15.1292723682
  0
LINE
  5
285
100
AcDbEntity
  8
0
100
AcDbLine
 62
7
  6
BYLAYER
 10
37.6346681518
 20
73.6216809171
 11
36.4114120343
 21
74.0941039811
  0
LINE
  5
286
100
AcDbEntity
  8
0
100
AcDbLine
 62
7
  6
BYLAYER
 10
43.847777641
 20
14.0815721357
 11
44.370922951
 21
14.3836084184
  0
LINE
  5
287
100
AcDbEntity
  8
0
100
AcDbLine
 62
7
  6
BYLAYER
 10
39.6371002798
 20
11.0909604816
 11
41.212164198
 21
12.0003186306
  0
LINE
  5
288
100
AcDbEntity
  8
0
100
AcDbLine
 62
7
  6
BYLAYER
 10
33.1445105163
 20
6.6075884948
 11
33.8284902507
 21
7.0024820214
  0
LINE
  5
289
100
AcDbEntity
  8
0
100
AcDbLine
 62
7
  6
BYLAYER
 10
45.2619876271
 20
13.6035754062
 11
50.1150026094
 21
16.4054481877
  0
LINE
  5
28A
100
AcDbEntity
  8
0
100
AcDbLine
 62
7
  6
BYLAYER
 10
43.0956151212
 20
12.27122062
 11
41.3357262021
 21
11.2551543439
  0
LINE
  5
28B
100
AcDbEntity
  8
0
100
AcDbLine
 62
7
  6
BYLAYER
 10
41.2623610319
 20
11.1311469543
 11
43.0885440828
 21
12.1854879368
  0
LINE
  5
28C
100
AcDbEntity
  8
0
100
AcDbLine
 62
7
  6
BYLAYER
 10
45.3917414815
 20
11.9638770449
 11
40.1539797749
 21
8.9398719645
  0
LINE
  5
28D
100
AcDbEntity
  8
0
100
AcDbLine
 62
7
  6
BYLAYER
 10
30.7114703566
 20
78.9521859301
 11
30.7779360708
 21
78.928288268
  0
LWPOLYLINE
  5
28E
100
AcDbEntity
  8
0
100
AcDbPolyline
 62
7
  6
BYLAYER
 90
4
 70
0
 10
36.0080440524
 20
77.0478096607
 10
37.7602538574
 20
76.4178048759
 10
44.9334301777
 20
72.2764632861
 10
51.9822136786
 20
66.6717943669
  0
LINE
  5
28F
100
AcDbEntity
  8
0
100
AcDbLine
 62
7
  6
BYLAYER
 10
30.5109572914
 20
78.9380527075
 11
30.7114703566
 21
78.9521859301
  0
LINE
  5
290
100
AcDbEntity
  8
0
100
AcDbLine
 62
7
  6
BYLAYER
 10
30.7114703566
 20
78.9521859301
 11
30.776225317
 21
78.936200921
  0
ARC
  5
291
100
AcDbEntity
  8
0
100
AcDbCircle
 62
7
  6
BYLAYER
 10
-124.2531043489
 20
6.3160695636
 40
165.6624742109
100
AcDbArc
 50
1.7084777629
 51
1.9749400952
  0
ARC
  5
292
100
AcDbEntity
  8
0
100
AcDbCircle
 62
7
  6
BYLAYER
 10
70.1592107997
 20
64.9208272997
 40
48.1398717316
100
AcDbArc
 50
195.4421164735
 51
198.2809075967
  0
ARC
  5
293
100
AcDbEntity
  8
0
100
AcDbCircle
 62
7
  6
BYLAYER
 10
-4.1229216628
 20
45.3298077992
 40
32.551354602
100
AcDbArc
 50
23.1288987632
 51
26.9849884311
  0
ARC
  5
294
100
AcDbEntity
  8
0
100
AcDbCircle
 62
7
  6
BYLAYER
 10
34.7880669745
 20
54.2858038398
 40
7.3536255165
100
AcDbArc
 50
207.4648423575
 51
215.2633624371
  0
ARC
  5
295
100
AcDbEntity
  8
0
100
AcDbCircle
 62
7
  6
BYLAYER
 10
30.632207307
 20
67.9875431868
 40
6.5047103494
100
AcDbArc
 50
119.9832557332
 51
123.8118118691
  0
ARC
  5
296
100
AcDbEntity
  8
0
100
AcDbCircle
 62
7
  6
BYLAYER
 10
34.4439867043
 20
68.0835287281
 40
6.3915240297
100
AcDbArc
 50
56.1563315197
 51
60.052574331
  0
ARC
  5
297
100
AcDbEntity
  8
0
100
AcDbCircle
 62
7
  6
BYLAYER
 10
24.6497387926
 20
55.9248824012
 40
6.0184633856
100
AcDbArc
 50
200.4867605807
 51
204.8073046974
  0
ARC
  5
298
100
AcDbEntity
  8
0
100
AcDbCircle
 62
7
  6
BYLAYER
 10
24.0865515014
 20
55.6018282628
 40
6.0041869877
100
AcDbArc
 50
200.4816215705
 51
204.8124437076
  0
ARC
  5
299
100
AcDbEntity
  8
0
100
AcDbCircle
 62
7
  6
BYLAYER
 10
24.0752652297
 20
55.5762447056
 40
5.9815059746
100
AcDbArc
 50
215.1854908399
 51
223.4434259255
  0
ARC
  5
29A
100
AcDbEntity
  8
0
100
AcDbCircle
 62
7
  6
BYLAYER
 10
32.5045580345
 20
76.2551230315
 40
5.9807391405
100
AcDbArc
 50
265.0520566659
 51
266.830763928
  0
ARC
  5
29B
100
AcDbEntity
  8
0
100
AcDbCircle
 62
7
  6
BYLAYER
 10
32.5029676831
 20
76.2310885525
 40
5.9566506687
100
AcDbArc
 50
265.0473399639
 51
266.8332656555
  0
ARC
  5
29C
100
AcDbEntity
  8
0
100
AcDbCircle
 62
7
  6
BYLAYER
 10
24.5989773544
 20
55.8722684229
 40
5.9476140193
100
AcDbArc
 50
215.1619211165
 51
223.4669956489
  0
ARC
  5
29D
100
AcDbEntity
  8
0
100
AcDbCircle
 62
7
  6
BYLAYER
 10
32.6007844696
 20
75.6473955355
 40
5.3661021492
100
AcDbArc
 50
279.952471831
 51
283.1463749566
  0
ARC
  5
29E
100
AcDbEntity
  8
0
100
AcDbCircle
 62
7
  6
BYLAYER
 10
32.6021831217
 20
75.6414935024
 40
5.360038083
100
AcDbArc
 50
279.9485815001
 51
283.1461657342
  0
ARC
  5
29F
100
AcDbEntity
  8
0
100
AcDbCircle
 62
7
  6
BYLAYER
 10
31.3302543974
 20
70.2523225688
 40
4.715621924
100
AcDbArc
 50
119.5467228078
 51
119.9992705723
  0
ARC
  5
2A0
100
AcDbEntity
  8
0
100
AcDbCircle
 62
7
  6
BYLAYER
 10
17.2314530452
 20
51.6360299289
 40
4.5656716469
100
AcDbArc
 50
29.9978679415
 51
37.0073255372
  0
ARC
  5
2A1
100
AcDbEntity
  8
0
100
AcDbCircle
 62
7
  6
BYLAYER
 10
22.3995701073
 20
54.6194182298
 40
4.5464066929
100
AcDbArc
 50
209.9979714121
 51
214.6429345113
  0
ARC
  5
2A2
100
AcDbEntity
  8
0
100
AcDbCircle
 62
7
  6
BYLAYER
 10
17.2581186627
 20
51.6489193628
 40
4.5361342658
100
AcDbArc
 50
22.9701088891
 51
30.0252661907
  0
ARC
  5
2A3
100
AcDbEntity
  8
0
100
AcDbCircle
 62
7
  6
BYLAYER
 10
32.1895202777
 20
74.8379407292
 40
4.5252924807
100
AcDbArc
 50
248.9733468251
 51
252.1891657703
  0
ARC
  5
2A4
100
AcDbEntity
  8
0
100
AcDbCircle
 62
7
  6
BYLAYER
 10
17.1818644623
 20
51.6079141024
 40
4.5217981384
100
AcDbArc
 50
29.9922061417
 51
36.9785012595
  0
ARC
  5
2A5
100
AcDbEntity
  8
0
100
AcDbCircle
 62
7
  6
BYLAYER
 10
32.1858281822
 20
74.8277648313
 40
4.5144627342
100
AcDbArc
 50
248.9707679387
 51
252.1943938497
  0
ARC
  5
2A6
100
AcDbEntity
  8
0
100
AcDbCircle
 62
7
  6
BYLAYER
 10
17.2122288098
 20
51.6216658447
 40
4.4886267159
100
AcDbArc
 50
22.9959270332
 51
30.0339249141
  0
ARC
  5
2A7
100
AcDbEntity
  8
0
100
AcDbCircle
 62
7
  6
BYLAYER
 10
22.3481207661
 20
54.5929687125
 40
4.4886262818
100
AcDbArc
 50
202.9959266925
 51
210.0339252549
  0
ARC
  5
2A8
100
AcDbEntity
  8
0
100
AcDbCircle
 62
7
  6
BYLAYER
 10
22.3086960528
 20
54.5576726523
 40
4.4365438103
100
AcDbArc
 50
214.6540352906
 51
217.0146215654
  0
ARC
  5
2A9
100
AcDbEntity
  8
0
100
AcDbCircle
 62
7
  6
BYLAYER
 10
17.3873134544
 20
51.7493702698
 40
4.3729877406
100
AcDbArc
 50
37.0506434014
 51
37.5026412751
  0
ARC
  5
2AA
100
AcDbEntity
  8
0
100
AcDbCircle
 62
7
  6
BYLAYER
 10
21.5285864571
 20
56.3791677436
 40
4.0837202365
100
AcDbArc
 50
86.486442211
 51
86.7819951475
  0
ARC
  5
2AB
100
AcDbEntity
  8
0
100
AcDbCircle
 62
7
  6
BYLAYER
 10
21.7406003899
 20
54.2050202418
 40
3.8645553527
100
AcDbArc
 50
217.7395722041
 51
220.4099579604
  0
ARC
  5
2AC
100
AcDbEntity
  8
0
100
AcDbCircle
 62
7
  6
BYLAYER
 10
21.6963958185
 20
54.2506534165
 40
3.8488957434
100
AcDbArc
 50
199.7194688785
 51
202.2663888269
  0
ARC
  5
2AD
100
AcDbEntity
  8
0
100
AcDbCircle
 62
7
  6
BYLAYER
 10
33.1590847593
 20
43.6944649072
 40
1.6054070405
100
AcDbArc
 50
24.270745945
 51
24.7558641605
  0
ARC
  5
2AE
100
AcDbEntity
  8
0
100
AcDbCircle
 62
7
  6
BYLAYER
 10
30.2309041857
 20
72.3029226382
 40
1.2234540267
100
AcDbArc
 50
188.1646342529
 51
195.3076904474
  0
ARC
  5
2AF
100
AcDbEntity
  8
0
100
AcDbCircle
 62
7
  6
BYLAYER
 10
30.2273268664
 20
72.3021976224
 40
1.2197991922
100
AcDbArc
 50
188.1548257573
 51
195.3194035152
  0
ARC
  5
2B0
100
AcDbEntity
  8
0
100
AcDbCircle
 62
7
  6
BYLAYER
 10
30.1847732341
 20
72.2953407004
 40
1.1767034419
100
AcDbArc
 50
180.0167258579
 51
188.1182378796
  0
ARC
  5
2B1
100
AcDbEntity
  8
0
100
AcDbCircle
 62
7
  6
BYLAYER
 10
30.1833241414
 20
72.2953091313
 40
1.1752752533
100
AcDbArc
 50
180.0152072258
 51
188.1266516203
  0
ARC
  5
2B2
100
AcDbEntity
  8
0
100
AcDbCircle
 62
7
  6
BYLAYER
 10
19.004083416
 20
54.5736355493
 40
1.0033330682
100
AcDbArc
 50
98.4374600804
 51
100.6640129594
  0
SPLINE
  5
2B3
100
AcDbEntity
  8
0
100
AcDbSpline
 62
7
  6
BYLAYER
 70
0
 71
3
 72
11
 73
7
 74
0
 42
0.0000001
 43
0.0000001
 44
0.0000000001
 40
0.0
 40
0.0
 40
0.0
 40
0.0
 40
0.2350042172
 40
0.480803077
 40
0.7362145524
 40
1.0
 40
1.0
 40
1.0
 40
1.0
 10
34.9829280904
 20
70.8661545529
 30
0.0
 10
34.8982733933
 20
70.8172794325
 30
0.0
 10
34.7205742505
 20
70.7249313806
 30
0.0
 10
34.4383547156
 20
70.6053655086
 30
0.0
 10
34.1369149534
 20
70.5026631619
 30
0.0
 10
33.9280915256
 20
70.4468978027
 30
0.0
 10
33.8212484084
 20
70.4219271307
 30
0.0
  0
SPLINE
  5
2B4
100
AcDbEntity
  8
0
100
AcDbSpline
 62
7
  6
BYLAYER
 70
0
 71
3
 72
10
 73
6
 74
0
 42
0.0000001
 43
0.0000001
 44
0.0000000001
 40
0.0
 40
0.0
 40
0.0
 40
0.0
 40
0.4966351809
 40
0.7482994736
 40
1.0
 40
1.0
 40
1.0
 40
1.0
 10
33.5282143289
 20
70.3620453927
 30
0.0
 10
33.3066316073
 20
70.3230655911
 30
0.0
 10
32.9688289882
 20
70.2844441709
 30
0.0
 10
32.5158721973
 20
70.2710957404
 30
0.0
 10
32.2877611098
 20
70.2772254326
 30
0.0
 10
32.1739104648
 20
70.2835308777
 30
0.0
  0
SPLINE
  5
2B5
100
AcDbEntity
  8
0
100
AcDbSpline
 62
7
  6
BYLAYER
 70
0
 71
3
 72
10
 73
6
 74
0
 42
0.0000001
 43
0.0000001
 44
0.0000000001
 40
0.0
 40
0.0
 40
0.0
 40
0.0
 40
0.5097101685
 40
0.7579134026
 40
1.0
 40
1.0
 40
1.0
 40
1.0
 10
31.9887156711
 20
70.296671276
 30
0.0
 10
31.7842047462
 20
70.3143864224
 30
0.0
 10
31.481085047
 20
70.3564852548
 30
0.0
 10
31.0880791119
 20
70.4451143511
 30
0.0
 10
30.8981624728
 20
70.4996990657
 30
0.0
 10
30.8053448994
 20
70.5295384084
 30
0.0
  0
SPLINE
  5
2B6
100
AcDbEntity
  8
0
100
AcDbSpline
 62
7
  6
BYLAYER
 70
0
 71
3
 72
11
 73
7
 74
0
 42
0.0000001
 43
0.0000001
 44
0.0000000001
 40
0.0
 40
0.0
 40
0.0
 40
0.0
 40
0.2678110802
 40
0.5242053298
 40
0.7684006011
 40
1.0
 40
1.0
 40
1.0
 40
1.0
 10
30.5658353846
 20
70.6139711029
 30
0.0
 10
30.4728761165
 20
70.6497698342
 30
0.0
 10
30.2932727997
 20
70.7261921674
 30
0.0
 10
30.0393613098
 20
70.8580631811
 30
0.0
 10
29.8087963058
 20
71.003636045
 30
0.0
 10
29.6683217579
 20
71.1118433267
 30
0.0
 10
29.6029829376
 20
71.1679841419
 30
0.0
  0
SPLINE
  5
2B7
100
AcDbEntity
  8
0
100
AcDbSpline
 62
7
  6
BYLAYER
 70
0
 71
3
 72
9
 73
5
 74
0
 42
0.0000001
 43
0.0000001
 44
0.0000000001
 40
0.0
 40
0.0
 40
0.0
 40
0.0
 40
0.2542671756
 40
1.0
 40
1.0
 40
1.0
 40
1.0
 10
29.6029829376
 20
71.1679841419
 30
0.0
 10
29.5903143076
 20
71.1788693585
 30
0.0
 10
29.5409368482
 20
71.2221953337
 30
0.0
 10
29.4933842436
 20
71.2676108421
 30
0.0
 10
29.4591595598
 20
71.302659388
 30
0.0
  0
SPLINE
  5
2B8
100
AcDbEntity
  8
0
100
AcDbSpline
 62
7
  6
BYLAYER
 70
0
 71
3
 72
11
 73
7
 74
0
 42
0.0000001
 43
0.0000001
 44
0.0000000001
 40
0.0
 40
0.0
 40
0.0
 40
0.0
 40
0.2676509183
 40
0.5222868814
 40
0.7656208208
 40
1.0
 40
1.0
 40
1.0
 40
1.0
 10
29.4591595598
 20
71.302659388
 30
0.0
 10
29.4093674812
 20
71.3536500695
 30
0.0
 10
29.3171594012
 20
71.4581909177
 30
0.0
 10
29.2005029069
 20
71.6259789486
 30
0.0
 10
29.1101244033
 20
71.7993936376
 30
0.0
 10
29.0673142698
 20
71.9197272459
 30
0.0
 10
29.0508558711
 20
71.9799276995
 30
0.0
  0
SPLINE
  5
2B9
100
AcDbEntity
  8
0
100
AcDbSpline
 62
7
  6
BYLAYER
 70
0
 71
3
 72
31
 73
27
 74
0
 42
0.0000001
 43
0.0000001
 44
0.0000000001
 40
0.0
 40
0.0
 40
0.0
 40
0.0
 40
0.0213270626
 40
0.0428823982
 40
0.0648823635
 40
0.0875214239
 40
0.1109651224
 40
0.1353457578
 40
0.1607626859
 40
0.1872814865
 40
0.214938737
 40
0.243742257
 40
0.2736767705
 40
0.3047045152
 40
0.3697761708
 40
0.4383565992
 40
0.5096257602
 40
0.582633036
 40
0.6563484875
 40
0.7297107555
 40
0.8016731409
 40
0.8712531975
 40
0.9048803173
 40
0.9376010201
 40
0.9693365765
 40
1.0
 40
1.0
 40
1.0
 40
1.0
 10
36.0080416394
 20
77.1940116965
 30
0.0
 10
36.0080430688
 20
77.243663262
 30
0.0
 10
36.0016340396
 20
77.3436127645
 30
0.0
 10
35.9729184517
 20
77.4922918793
 30
0.0
 10
35.9252840025
 20
77.6392456875
 30
0.0
 10
35.8590575105
 20
77.7836206217
 30
0.0
 10
35.7746458942
 20
77.924635997
 30
0.0
 10
35.6725709444
 20
78.0615559185
 30
0.0
 10
35.5533985185
 20
78.1936525192
 30
0.0
 10
35.4178111582
 20
78.3202598398
 30
0.0
 10
35.2665321997
 20
78.4407007538
 30
0.0
 10
35.1003954912
 20
78.5543646393
 30
0.0
 10
34.9202816337
 20
78.6606433655
 30
0.0
 10
34.658667665
 20
78.7938547699
 30
0.0
 10
34.3022607564
 20
78.937430539
 30
0.0
 10
33.843149493
 20
79.0697498053
 30
0.0
 10
33.3555692555
 20
79.1620365297
 30
0.0
 10
32.8499297694
 20
79.2123244383
 30
0.0
 10
32.3369900669
 20
79.2195484681
 30
0.0
 10
31.8276862556
 20
79.1835487578
 30
0.0
 10
31.3329158289
 20
79.1050997338
 30
0.0
 10
30.9369741765
 20
79.0045958019
 30
0.0
 10
30.6368630122
 20
78.903840073
 30
0.0
 10
30.424387396
 20
78.8198750784
 30
0.0
 10
30.2231793182
 20
78.7271140498
 30
0.0
 10
30.0949835479
 20
78.658547958
 30
0.0
 10
30.0331600144
 20
78.6228543373
 30
0.0
  0
SPLINE
  5
2BA
100
AcDbEntity
  8
0
100
AcDbSpline
 62
7
  6
BYLAYER
 70
0
 71
3
 72
15
 73
11
 74
0
 42
0.0000001
 43
0.0000001
 44
0.0000000001
 40
0.0
 40
0.0
 40
0.0
 40
0.0
 40
0.1485882687
 40
0.2895068122
 40
0.4227229146
 40
0.5486445274
 40
0.6680034162
 40
0.7819404044
 40
0.8919889739
 40
1.0
 40
1.0
 40
1.0
 40
1.0
 10
30.0331600144
 20
78.6228543373
 30
0.0
 10
29.9542215138
 20
78.5772794448
 30
0.0
 10
29.8039872341
 20
78.4820569776
 30
0.0
 10
29.5985997844
 20
78.3230835123
 30
0.0
 10
29.4209504048
 20
78.1530372297
 30
0.0
 10
29.2728067362
 20
77.9734794685
 30
0.0
 10
29.1556878113
 20
77.7859928047
 30
0.0
 10
29.0709124987
 20
77.5922810155
 30
0.0
 10
29.0195490255
 20
77.3943062211
 30
0.0
 10
29.0080483728
 20
77.2602701297
 30
0.0
 10
29.0080464654
 20
77.1940116965
 30
0.0
  0
SPLINE
  5
2BB
100
AcDbEntity
  8
0
100
AcDbSpline
 62
7
  6
BYLAYER
 70
0
 71
3
 72
11
 73
7
 74
0
 42
0.0000001
 43
0.0000001
 44
0.0000000001
 40
0.0
 40
0.0
 40
0.0
 40
0.0
 40
0.2442011821
 40
0.4907902241
 40
0.7420349986
 40
1.0
 40
1.0
 40
1.0
 40
1.0
 10
36.0080391754
 20
72.2949971932
 30
0.0
 10
36.0080392956
 20
72.2475973333
 30
0.0
 10
36.0022122849
 20
72.1522339484
 30
0.0
 10
35.9760428278
 20
72.0102659126
 30
0.0
 10
35.9326492973
 20
71.869799024
 30
0.0
 10
35.8929779377
 20
71.7790218072
 30
0.0
 10
35.8705740817
 20
71.7342421647
 30
0.0
  0
SPLINE
  5
2BC
100
AcDbEntity
  8
0
100
AcDbSpline
 62
7
  6
BYLAYER
 70
0
 71
3
 72
9
 73
5
 74
0
 42
0.0000001
 43
0.0000001
 44
0.0000000001
 40
0.0
 40
0.0
 40
0.0
 40
0.0
 40
0.2453632912
 40
1.0
 40
1.0
 40
1.0
 40
1.0
 10
35.8705740817
 20
71.7342421647
 30
0.0
 10
35.8623600982
 20
71.7178244889
 30
0.0
 10
35.8276133423
 20
71.6515525809
 30
0.0
 10
35.7879080106
 20
71.5879062205
 30
0.0
 10
35.7556520267
 20
71.5415660714
 30
0.0
  0
SPLINE
  5
2BD
100
AcDbEntity
  8
0
100
AcDbSpline
 62
7
  6
BYLAYER
 70
0
 71
3
 72
31
 73
27
 74
0
 42
0.0000001
 43
0.0000001
 44
0.0000000001
 40
0.0
 40
0.0
 40
0.0
 40
0.0
 40
0.0213270626
 40
0.0428823982
 40
0.0648823635
 40
0.0875214239
 40
0.1109651224
 40
0.1353457578
 40
0.1607626859
 40
0.1872814865
 40
0.214938737
 40
0.243742257
 40
0.2736767705
 40
0.3047045152
 40
0.3697761708
 40
0.4383565992
 40
0.5096257602
 40
0.582633036
 40
0.6563484875
 40
0.7297107555
 40
0.8016731409
 40
0.8712531975
 40
0.9048803173
 40
0.9376010201
 40
0.9693365765
 40
1.0
 40
1.0
 40
1.0
 40
1.0
 10
29.0080464654
 20
77.1940116965
 30
0.0
 10
29.008045036
 20
77.144360131
 30
0.0
 10
29.0144540652
 20
77.0444106286
 30
0.0
 10
29.0431696531
 20
76.8957315137
 30
0.0
 10
29.0908041023
 20
76.7487777055
 30
0.0
 10
29.1570305944
 20
76.6044027713
 30
0.0
 10
29.2414422107
 20
76.4633873961
 30
0.0
 10
29.3435171604
 20
76.3264674746
 30
0.0
 10
29.4626895863
 20
76.1943708738
 30
0.0
 10
29.5982769466
 20
76.0677635532
 30
0.0
 10
29.7495559051
 20
75.9473226392
 30
0.0
 10
29.9156926136
 20
75.8336587538
 30
0.0
 10
30.0958064711
 20
75.7273800275
 30
0.0
 10
30.3574204398
 20
75.5941686231
 30
0.0
 10
30.7138273484
 20
75.450592854
 30
0.0
 10
31.1729386118
 20
75.3182735877
 30
0.0
 10
31.6605188493
 20
75.2259868633
 30
0.0
 10
32.1661583355
 20
75.1756989548
 30
0.0
 10
32.6790980379
 20
75.1684749249
 30
0.0
 10
33.1884018492
 20
75.2044746352
 30
0.0
 10
33.6831722759
 20
75.2829236592
 30
0.0
 10
34.0791139283
 20
75.3834275911
 30
0.0
 10
34.3792250926
 20
75.48418332
 30
0.0
 10
34.5917007088
 20
75.5681483146
 30
0.0
 10
34.7929087866
 20
75.6609093432
 30
0.0
 10
34.9211045569
 20
75.729475435
 30
0.0
 10
34.9829280904
 20
75.7651690557
 30
0.0
  0
SPLINE
  5
2BE
100
AcDbEntity
  8
0
100
AcDbSpline
 62
7
  6
BYLAYER
 70
0
 71
3
 72
15
 73
11
 74
0
 42
0.0000001
 43
0.0000001
 44
0.0000000001
 40
0.0
 40
0.0
 40
0.0
 40
0.0
 40
0.1485882687
 40
0.2895068122
 40
0.4227229146
 40
0.5486445274
 40
0.6680034162
 40
0.7819404044
 40
0.8919889739
 40
1.0
 40
1.0
 40
1.0
 40
1.0
 10
34.9829280904
 20
75.7651690557
 30
0.0
 10
35.061866591
 20
75.8107439482
 30
0.0
 10
35.2121008708
 20
75.9059664155
 30
0.0
 10
35.4174883204
 20
76.0649398808
 30
0.0
 10
35.5951377
 20
76.2349861634
 30
0.0
 10
35.7432813686
 20
76.4145439246
 30
0.0
 10
35.8604002936
 20
76.6020305884
 30
0.0
 10
35.9451756061
 20
76.7957423775
 30
0.0
 10
35.9965390793
 20
76.9937171719
 30
0.0
 10
36.008039732
 20
77.1277532633
 30
0.0
 10
36.0080416394
 20
77.1940116965
 30
0.0
  0
SPLINE
  5
2BF
100
AcDbEntity
  8
0
100
AcDbSpline
 62
7
  6
BYLAYER
 70
0
 71
3
 72
17
 73
13
 74
0
 42
0.0000001
 43
0.0000001
 44
0.0000000001
 40
0.0
 40
0.0
 40
0.0
 40
0.0
 40
0.0444346493
 40
0.0898152779
 40
0.1863489985
 40
0.2389990339
 40
0.294924865
 40
0.4167703685
 40
0.5512566768
 40
0.6958009238
 40
0.846852245
 40
1.0
 40
1.0
 40
1.0
 40
1.0
 10
22.4852623033
 20
61.6350321918
 30
0.0
 10
22.525308764
 20
61.6581381162
 30
0.0
 10
22.610725907
 20
61.6975447326
 30
0.0
 10
22.7992854453
 20
61.746272308
 30
0.0
 10
23.0055222308
 20
61.7451710487
 30
0.0
 10
23.2147291277
 20
61.7015922284
 30
0.0
 10
23.442474921
 20
61.6248850377
 30
0.0
 10
23.7312476394
 20
61.4712132869
 30
0.0
 10
24.062431935
 20
61.2151316395
 30
0.0
 10
24.3749102998
 20
60.8928625601
 30
0.0
 10
24.6552609788
 20
60.5180853545
 30
0.0
 10
24.8135187785
 20
60.2429224817
 30
0.0
 10
24.88441852
 20
60.1002140882
 30
0.0
  0
SPLINE
  5
2C0
100
AcDbEntity
  8
0
100
AcDbSpline
 62
7
  6
BYLAYER
 70
0
 71
3
 72
19
 73
15
 74
0
 42
0.0000001
 43
0.0000001
 44
0.0000000001
 40
0.0
 40
0.0
 40
0.0
 40
0.0
 40
0.0428394104
 40
0.0874448899
 40
0.1352571039
 40
0.1871950253
 40
0.2436735499
 40
0.3046656819
 40
0.4382689093
 40
0.5825434307
 40
0.7296392143
 40
0.871166535
 40
0.9376088396
 40
1.0
 40
1.0
 40
1.0
 40
1.0
 10
14.816047591
 20
64.1547668254
 30
0.0
 10
14.8690498094
 20
64.1853728281
 30
0.0
 10
14.9859021323
 20
64.2338934892
 30
0.0
 10
15.1787600344
 20
64.2622046224
 30
0.0
 10
15.3858700045
 20
64.2469293109
 30
0.0
 10
15.6026209136
 20
64.1893566014
 30
0.0
 10
15.8247810335
 20
64.0911977512
 30
0.0
 10
16.1314423534
 20
63.9034769302
 30
0.0
 10
16.4967733949
 20
63.5799502992
 30
0.0
 10
16.8722629851
 20
63.099219244
 30
0.0
 10
17.167932553
 20
62.5528525037
 30
0.0
 10
17.3315381276
 20
62.069309154
 30
0.0
 10
17.3991796708
 20
61.688425913
 30
0.0
 10
17.4113250197
 20
61.5042358241
 30
0.0
 10
17.4113250197
 20
61.4150981509
 30
0.0
  0
SPLINE
  5
2C1
100
AcDbEntity
  8
0
100
AcDbSpline
 62
7
  6
BYLAYER
 70
0
 71
3
 72
19
 73
15
 74
0
 42
0.0000001
 43
0.0000001
 44
0.0000000001
 40
0.0
 40
0.0
 40
0.0
 40
0.0
 40
0.0428394104
 40
0.0874448899
 40
0.1352571039
 40
0.1871950253
 40
0.2436735499
 40
0.3046656819
 40
0.4382689093
 40
0.5825434307
 40
0.7296392143
 40
0.871166535
 40
0.9376088396
 40
1.0
 40
1.0
 40
1.0
 40
1.0
 10
30.3724615442
 20
55.1734702259
 30
0.0
 10
30.4254637627
 20
55.2040762286
 30
0.0
 10
30.5423160855
 20
55.2525968898
 30
0.0
 10
30.7351739877
 20
55.2809080229
 30
0.0
 10
30.9422839578
 20
55.2656327115
 30
0.0
 10
31.1590348669
 20
55.2080600019
 30
0.0
 10
31.3811949867
 20
55.1099011518
 30
0.0
 10
31.6878563066
 20
54.9221803308
 30
0.0
 10
32.0531873481
 20
54.5986536998
 30
0.0
 10
32.4286769383
 20
54.1179226445
 30
0.0
 10
32.7243465062
 20
53.5715559042
 30
0.0
 10
32.8879520808
 20
53.0880125546
 30
0.0
 10
32.955593624
 20
52.7071293136
 30
0.0
 10
32.9677389729
 20
52.5229392247
 30
0.0
 10
32.9677389729
 20
52.4338015514
 30
0.0
  0
SPLINE
  5
2C2
100
AcDbEntity
  8
0
100
AcDbSpline
 62
7
  6
BYLAYER
 70
0
 71
3
 72
9
 73
5
 74
0
 42
0.0000001
 43
0.0000001
 44
0.0000000001
 40
0.0
 40
0.0
 40
0.0
 40
0.0
 40
0.4907120311
 40
1.0
 40
1.0
 40
1.0
 40
1.0
 10
36.0080182625
 20
72.2949971918
 30
0.0
 10
36.0080205717
 20
72.1999104698
 30
0.0
 10
35.983904062
 20
72.0054439745
 30
0.0
 10
35.9146931886
 20
71.8225125374
 30
0.0
 10
35.8705541826
 20
71.734247474
 30
0.0
  0
SPLINE
  5
2C3
100
AcDbEntity
  8
0
100
AcDbSpline
 62
7
  6
BYLAYER
 70
0
 71
3
 72
9
 73
5
 74
0
 42
0.0000001
 43
0.0000001
 44
0.0000000001
 40
0.0
 40
0.0
 40
0.0
 40
0.0
 40
0.2453762144
 40
1.0
 40
1.0
 40
1.0
 40
1.0
 10
35.8705541826
 20
71.734247474
 30
0.0
 10
35.8623431392
 20
71.717827796
 30
0.0
 10
35.8276106404
 20
71.65155061
 30
0.0
 10
35.7879072129
 20
71.5879047663
 30
0.0
 10
35.7556535427
 20
71.5415660263
 30
0.0
  0
SPLINE
  5
2C4
100
AcDbEntity
  8
0
100
AcDbSpline
 62
7
  6
BYLAYER
 70
0
 71
3
 72
10
 73
6
 74
0
 42
0.0000001
 43
0.0000001
 44
0.0000000001
 40
0.0
 40
0.0
 40
0.0
 40
0.0
 40
0.4711604219
 40
0.7285393465
 40
1.0
 40
1.0
 40
1.0
 40
1.0
 10
35.7556535427
 20
71.5415660263
 30
0.0
 10
35.6629682353
 20
71.4084053552
 30
0.0
 10
35.4895672204
 20
71.2226194366
 30
0.0
 10
35.2178604068
 20
71.0108008915
 30
0.0
 10
35.0638808275
 20
70.9128923585
 30
0.0
 10
34.9829280904
 20
70.8661545529
 30
0.0
  0
SPLINE
  5
2C5
100
AcDbEntity
  8
0
100
AcDbSpline
 62
7
  6
BYLAYER
 70
0
 71
3
 72
9
 73
5
 74
0
 42
0.0000001
 43
0.0000001
 44
0.0000000001
 40
0.0
 40
0.0
 40
0.0
 40
0.0
 40
0.2558042588
 40
1.0
 40
1.0
 40
1.0
 40
1.0
 10
16.5981731059
 20
56.2365272123
 30
0.0
 10
16.5279849292
 20
56.1164319543
 30
0.0
 10
16.2557425792
 20
55.6457055015
 30
0.0
 10
15.9919889613
 20
55.1700535778
 30
0.0
 10
15.8012473951
 20
54.8131455111
 30
0.0
  0
SPLINE
  5
2C6
100
AcDbEntity
  8
0
100
AcDbSpline
 62
7
  6
BYLAYER
 70
0
 71
3
 72
11
 73
7
 74
0
 42
0.0000001
 43
0.0000001
 44
0.0000000001
 40
0.0
 40
0.0
 40
0.0
 40
0.0
 40
0.2514251033
 40
0.5014327466
 40
0.7506538262
 40
1.0
 40
1.0
 40
1.0
 40
1.0
 10
19.2815934224
 20
59.7167613245
 30
0.0
 10
18.9929670932
 20
59.4831697349
 30
0.0
 10
18.4428319333
 20
58.9846792868
 30
0.0
 10
17.7108457459
 20
58.1488297218
 30
0.0
 10
17.085748914
 20
57.2338177107
 30
0.0
 10
16.7477151563
 20
56.5771517756
 30
0.0
 10
16.6000875704
 20
56.2398007296
 30
0.0
  0
SPLINE
  5
2C7
100
AcDbEntity
  8
0
100
AcDbSpline
 62
7
  6
BYLAYER
 70
0
 71
3
 72
9
 73
5
 74
0
 42
0.0000001
 43
0.0000001
 44
0.0000000001
 40
0.0
 40
0.0
 40
0.0
 40
0.0
 40
0.2646929835
 40
1.0
 40
1.0
 40
1.0
 40
1.0
 10
19.5646821632
 20
59.9335845221
 30
0.0
 10
19.5391979935
 20
59.9151204969
 30
0.0
 10
19.4433338857
 20
59.8447989134
 30
0.0
 10
19.3491787758
 20
59.7721131341
 30
0.0
 10
19.2814380879
 20
59.7168510048
 30
0.0
  0
SPLINE
  5
2C8
100
AcDbEntity
  8
0
100
AcDbSpline
 62
7
  6
BYLAYER
 70
0
 71
3
 72
10
 73
6
 74
0
 42
0.0000001
 43
0.0000001
 44
0.0000000001
 40
0.0
 40
0.0
 40
0.0
 40
0.0
 40
0.2266056511
 40
0.5948175712
 40
1.0
 40
1.0
 40
1.0
 40
1.0
 10
37.2284045877
 20
73.2468036867
 30
0.0
 10
37.1641498036
 20
73.3530037781
 30
0.0
 10
36.9721298467
 20
73.6180150651
 30
0.0
 10
36.5737206736
 20
73.9990384109
 30
0.0
 10
36.2197792706
 20
74.2354308998
 30
0.0
 10
36.0271287421
 20
74.3456322118
 30
0.0
  0
SPLINE
  5
2C9
100
AcDbEntity
  8
0
100
AcDbSpline
 62
7
  6
BYLAYER
 70
0
 71
3
 72
11
 73
7
 74
0
 42
0.0000001
 43
0.0000001
 44
0.0000000001
 40
0.0
 40
0.0
 40
0.0
 40
0.0
 40
0.2645373744
 40
0.5268644663
 40
0.7753053905
 40
1.0
 40
1.0
 40
1.0
 40
1.0
 10
34.0000715616
 20
45.1763185543
 30
0.0
 10
34.0668257028
 20
45.1155576735
 30
0.0
 10
34.194110224
 20
44.9881787811
 30
0.0
 10
34.3639866431
 20
44.784937607
 30
0.0
 10
34.507133485
 20
44.5783819263
 30
0.0
 10
34.5848505749
 20
44.4363589967
 30
0.0
 10
34.616955406
 20
44.3667334124
 30
0.0
  0
SPLINE
  5
2CA
100
AcDbEntity
  8
0
100
AcDbSpline
 62
7
  6
BYLAYER
 70
0
 71
3
 72
9
 73
5
 74
0
 42
0.0000001
 43
0.0000001
 44
0.0000000001
 40
0.0
 40
0.0
 40
0.0
 40
0.0
 40
0.2448352022
 40
1.0
 40
1.0
 40
1.0
 40
1.0
 10
28.9042293826
 20
48.9821184605
 30
0.0
 10
29.3300755143
 20
48.6852433766
 30
0.0
 10
31.059222937
 20
47.4581527493
 30
0.0
 10
32.7479949709
 20
46.1743029109
 30
0.0
 10
34.0000715616
 20
45.1763185543
 30
0.0
  0
SPLINE
  5
2CB
100
AcDbEntity
  8
0
100
AcDbSpline
 62
7
  6
BYLAYER
 70
0
 71
3
 72
9
 73
5
 74
0
 42
0.0000001
 43
0.0000001
 44
0.0000000001
 40
0.0
 40
0.0
 40
0.0
 40
0.0
 40
0.2524299562
 40
1.0
 40
1.0
 40
1.0
 40
1.0
 10
28.1606565695
 20
49.6804431254
 30
0.0
 10
28.2205804352
 20
49.6189682916
 30
0.0
 10
28.4605509295
 20
49.3779741209
 30
0.0
 10
28.7110398435
 20
49.147394758
 30
0.0
 10
28.9042293826
 20
48.9821184605
 30
0.0
  0
SPLINE
  5
2CC
100
AcDbEntity
  8
0
100
AcDbSpline
 62
7
  6
BYLAYER
 70
0
 71
3
 72
9
 73
5
 74
0
 42
0.0000001
 43
0.0000001
 44
0.0000000001
 40
0.0
 40
0.0
 40
0.0
 40
0.0
 40
0.4871024506
 40
1.0
 40
1.0
 40
1.0
 40
1.0
 10
12.9555981778
 20
57.326133107
 30
0.0
 10
13.5366606077
 20
57.1459283186
 30
0.0
 10
14.7193376985
 20
56.7425234884
 30
0.0
 10
15.881072486
 20
56.2827581345
 30
0.0
 10
16.4716629643
 20
56.0346713067
 30
0.0
  0
SPLINE
  5
2CD
100
AcDbEntity
  8
0
100
AcDbSpline
 62
7
  6
BYLAYER
 70
0
 71
3
 72
14
 73
10
 74
0
 42
0.0000001
 43
0.0000001
 44
0.0000000001
 40
0.0
 40
0.0
 40
0.0
 40
0.0
 40
0.1080477524
 40
0.2181319815
 40
0.3321059396
 40
0.4515030802
 40
0.5774618606
 40
0.7107292015
 40
1.0
 40
1.0
 40
1.0
 40
1.0
 10
40.2580295775
 20
70.2537411505
 30
0.0
 10
40.2580165431
 20
70.4004550284
 30
0.0
 10
40.2325625759
 20
70.6972449878
 30
0.0
 10
40.1188211967
 20
71.1356055427
 30
0.0
 10
39.9311367368
 20
71.5645440299
 30
0.0
 10
39.6717877132
 20
71.9796495999
 30
0.0
 10
39.3437690051
 20
72.3773047075
 30
0.0
 10
38.8047621547
 20
72.8931262859
 30
0.0
 10
38.328385723
 20
73.2211435934
 30
0.0
 10
37.9882223175
 20
73.4175426277
 30
0.0
  0
SPLINE
  5
2CE
100
AcDbEntity
  8
0
100
AcDbSpline
 62
7
  6
BYLAYER
 70
0
 71
3
 72
11
 73
7
 74
0
 42
0.0000001
 43
0.0000001
 44
0.0000000001
 40
0.0
 40
0.0
 40
0.0
 40
0.0
 40
0.2176664589
 40
0.4508331335
 40
0.7105115758
 40
1.0
 40
1.0
 40
1.0
 40
1.0
 10
12.8333198126
 20
68.7320208297
 30
0.0
 10
12.8135380644
 20
68.7206020607
 30
0.0
 10
12.7765105144
 20
68.6894872318
 30
0.0
 10
12.7370532641
 20
68.625019123
 30
0.0
 10
12.7136984501
 20
68.5455547832
 30
0.0
 10
12.7090453475
 20
68.4877395151
 30
0.0
 10
12.7090453475
 20
68.4573619792
 30
0.0
  0
SPLINE
  5
2CF
100
AcDbEntity
  8
0
100
AcDbSpline
 62
7
  6
BYLAYER
 70
0
 71
3
 72
12
 73
8
 74
0
 42
0.0000001
 43
0.0000001
 44
0.0000000001
 40
0.0
 40
0.0
 40
0.0
 40
0.0
 40
0.2894847231
 40
0.5486751865
 40
0.7816263484
 40
0.8918293154
 40
1.0
 40
1.0
 40
1.0
 40
1.0
 10
32.9677389729
 20
50.8007967172
 30
0.0
 10
32.9677389729
 20
50.6918602067
 30
0.0
 10
32.951170141
 20
50.4846577156
 30
0.0
 10
32.8674756284
 20
50.200123936
 30
0.0
 10
32.7470310583
 20
50.003803501
 30
0.0
 10
32.6254456428
 20
49.8842585572
 30
0.0
 10
32.5576952922
 20
49.8369190821
 30
0.0
 10
32.5224428871
 20
49.8165662336
 30
0.0
  0
SPLINE
  5
2D0
100
AcDbEntity
  8
0
100
AcDbSpline
 62
7
  6
BYLAYER
 70
0
 71
3
 72
12
 73
8
 74
0
 42
0.0000001
 43
0.0000001
 44
0.0000000001
 40
0.0
 40
0.0
 40
0.0
 40
0.0
 40
0.2894847231
 40
0.5486751865
 40
0.7816263484
 40
0.8918293154
 40
1.0
 40
1.0
 40
1.0
 40
1.0
 10
18.1184347448
 20
59.3738525621
 30
0.0
 10
18.1184347448
 20
59.2649160516
 30
0.0
 10
18.1018659129
 20
59.0577135605
 30
0.0
 10
18.0181714003
 20
58.7731797809
 30
0.0
 10
17.8977268302
 20
58.5768593459
 30
0.0
 10
17.7761414147
 20
58.4573144021
 30
0.0
 10
17.7083910641
 20
58.409974927
 30
0.0
 10
17.6731386591
 20
58.3896220785
 30
0.0
  0
SPLINE
  5
2D1
100
AcDbEntity
  8
0
100
AcDbSpline
 62
7
  6
BYLAYER
 70
0
 71
3
 72
11
 73
7
 74
0
 42
0.0000001
 43
0.0000001
 44
0.0000000001
 40
0.0
 40
0.0
 40
0.0
 40
0.0
 40
0.2623101792
 40
0.5232787045
 40
0.7721956439
 40
1.0
 40
1.0
 40
1.0
 40
1.0
 10
17.4113250197
 20
61.265343616
 30
0.0
 10
17.520207202
 20
61.1228900762
 30
0.0
 10
17.7163141906
 20
60.8219884108
 30
0.0
 10
17.9393349899
 20
60.3415862322
 30
0.0
 10
18.0814529178
 20
59.8557838459
 30
0.0
 10
18.1184347448
 20
59.5295660242
 30
0.0
 10
18.1184347448
 20
59.3738525621
 30
0.0
  0
SPLINE
  5
2D2
100
AcDbEntity
  8
0
100
AcDbSpline
 62
7
  6
BYLAYER
 70
0
 71
3
 72
11
 73
7
 74
0
 42
0.0000001
 43
0.0000001
 44
0.0000000001
 40
0.0
 40
0.0
 40
0.0
 40
0.0
 40
0.2272375277
 40
0.4647290615
 40
0.720808097
 40
1.0
 40
1.0
 40
1.0
 40
1.0
 10
9.3891968754
 20
55.3384187983
 30
0.0
 10
9.3600118829
 20
55.3215643491
 30
0.0
 10
9.3047808965
 20
55.2787436302
 30
0.0
 10
9.2393122251
 20
55.1929485835
 30
0.0
 10
9.1916811528
 20
55.0878122847
 30
0.0
 10
9.1730377105
 20
55.0101740838
 30
0.0
 10
9.166455123
 20
54.969292996
 30
0.0
  0
SPLINE
  5
2D3
100
AcDbEntity
  8
0
100
AcDbSpline
 62
7
  6
BYLAYER
 70
0
 71
3
 72
14
 73
10
 74
0
 42
0.0000001
 43
0.0000001
 44
0.0000000001
 40
0.0
 40
0.0
 40
0.0
 40
0.0
 40
0.1122646435
 40
0.2253618136
 40
0.3415440594
 40
0.4619765615
 40
0.5880565282
 40
0.7202175489
 40
1.0
 40
1.0
 40
1.0
 40
1.0
 10
21.1007598517
 20
50.8068336622
 30
0.0
 10
21.004186992
 20
50.7640945324
 30
0.0
 10
20.7982667724
 20
50.7032888155
 30
0.0
 10
20.4746112707
 20
50.6895508924
 30
0.0
 10
20.1482384084
 20
50.7456258583
 30
0.0
 10
19.8267105294
 20
50.8644802764
 30
0.0
 10
19.5146794059
 20
51.0389112363
 30
0.0
 10
19.1085897787
 20
51.3427146019
 30
0.0
 10
18.8414066004
 20
51.6289433511
 30
0.0
 10
18.6809796592
 20
51.8375892726
 30
0.0
  0
SPLINE
  5
2D4
100
AcDbEntity
  8
0
100
AcDbSpline
 62
7
  6
BYLAYER
 70
0
 71
3
 72
14
 73
10
 74
0
 42
0.0000001
 43
0.0000001
 44
0.0000000001
 40
0.0
 40
0.0
 40
0.0
 40
0.0
 40
0.2797938119
 40
0.4119545329
 40
0.5380352458
 40
0.6584625789
 40
0.7746340264
 40
0.8877419687
 40
1.0
 40
1.0
 40
1.0
 40
1.0
 10
18.1309761172
 20
52.7902207565
 30
0.0
 10
18.0304893525
 20
53.0334901346
 30
0.0
 10
17.9161951647
 20
53.4080074578
 30
0.0
 10
17.8561339791
 20
53.9116119268
 30
0.0
 10
17.8611049169
 20
54.2690549308
 30
0.0
 10
17.9189299922
 20
54.6069235063
 30
0.0
 10
18.0335421894
 20
54.9176146501
 30
0.0
 10
18.2072896345
 20
55.191023591
 30
0.0
 10
18.3629057886
 20
55.3389643734
 30
0.0
 10
18.4482019385
 20
55.4012261626
 30
0.0
  0
SPLINE
  5
2D5
100
AcDbEntity
  8
0
100
AcDbSpline
 62
7
  6
BYLAYER
 70
0
 71
3
 72
11
 73
7
 74
0
 42
0.0000001
 43
0.0000001
 44
0.0000000001
 40
0.0
 40
0.0
 40
0.0
 40
0.0
 40
0.2502967885
 40
0.512831404
 40
0.7685531842
 40
1.0
 40
1.0
 40
1.0
 40
1.0
 10
51.9822136786
 20
66.6717943669
 30
0.0
 10
52.0302733599
 20
66.6306685695
 30
0.0
 10
52.1187164841
 20
66.5343667264
 30
0.0
 10
52.2208651557
 20
66.3679015595
 30
0.0
 10
52.2884386721
 20
66.1897330081
 30
0.0
 10
52.3070427574
 20
66.0664927147
 30
0.0
 10
52.3070427574
 20
66.0080024359
 30
0.0
  0
SPLINE
  5
2D6
100
AcDbEntity
  8
0
100
AcDbSpline
 62
7
  6
BYLAYER
 70
0
 71
3
 72
15
 73
11
 74
0
 42
0.0000001
 43
0.0000001
 44
0.0000000001
 40
0.0
 40
0.0
 40
0.0
 40
0.0
 40
0.1485422169
 40
0.2895065925
 40
0.4227365852
 40
0.5486414656
 40
0.6679983291
 40
0.7819398679
 40
0.8919885884
 40
1.0
 40
1.0
 40
1.0
 40
1.0
 10
27.0279436825
 20
73.4176069984
 30
0.0
 10
26.8532058463
 20
73.3167226639
 30
0.0
 10
26.52057526
 20
73.1058299516
 30
0.0
 10
26.0657223991
 20
72.7538755532
 30
0.0
 10
25.6723283804
 20
72.377287314
 30
0.0
 10
25.3443017191
 20
71.9796998425
 30
0.0
 10
25.0850054292
 20
71.5645538558
 30
0.0
 10
24.8972424897
 20
71.1356360125
 30
0.0
 10
24.7835484242
 20
70.6972483028
 30
0.0
 10
24.7580454927
 20
70.4004564535
 30
0.0
 10
24.7580585273
 20
70.2537411513
 30
0.0
  0
SPLINE
  5
2D7
100
AcDbEntity
  8
0
100
AcDbSpline
 62
7
  6
BYLAYER
 70
0
 71
3
 72
9
 73
5
 74
0
 42
0.0000001
 43
0.0000001
 44
0.0000000001
 40
0.0
 40
0.0
 40
0.0
 40
0.0
 40
0.2750533149
 40
1.0
 40
1.0
 40
1.0
 40
1.0
 10
28.9724954267
 20
74.3362009663
 30
0.0
 10
28.8439973179
 20
74.2620129915
 30
0.0
 10
28.390753379
 20
73.9713231357
 30
0.0
 10
27.9900352617
 20
73.5814465434
 30
0.0
 10
27.7876692582
 20
73.2468066715
 30
0.0
  0
SPLINE
  5
2D8
100
AcDbEntity
  8
0
100
AcDbSpline
 62
7
  6
BYLAYER
 70
0
 71
3
 72
9
 73
5
 74
0
 42
0.0000001
 43
0.0000001
 44
0.0000000001
 40
0.0
 40
0.0
 40
0.0
 40
0.0
 40
0.4806947141
 40
1.0
 40
1.0
 40
1.0
 40
1.0
 10
34.9829280904
 20
70.8661545529
 30
0.0
 10
34.8098857129
 20
70.766249086
 30
0.0
 10
34.4309179139
 20
70.5906213508
 30
0.0
 10
34.0314461064
 20
70.4710495834
 30
0.0
 10
33.8212487921
 20
70.4219257863
 30
0.0
  0
SPLINE
  5
2D9
100
AcDbEntity
  8
0
100
AcDbSpline
 62
7
  6
BYLAYER
 70
0
 71
3
 72
9
 73
5
 74
0
 42
0.0000001
 43
0.0000001
 44
0.0000000001
 40
0.0
 40
0.0
 40
0.0
 40
0.0
 40
0.4967476276
 40
1.0
 40
1.0
 40
1.0
 40
1.0
 10
33.5282064542
 20
70.3620532821
 30
0.0
 10
33.3066165111
 20
70.3230893032
 30
0.0
 10
32.8554910001
 20
70.2714727829
 30
0.0
 10
32.4014988831
 20
70.2709364551
 30
0.0
 10
32.1739115444
 20
70.2835336561
 30
0.0
  0
SPLINE
  5
2DA
100
AcDbEntity
  8
0
100
AcDbSpline
 62
7
  6
BYLAYER
 70
0
 71
3
 72
9
 73
5
 74
0
 42
0.0000001
 43
0.0000001
 44
0.0000000001
 40
0.0
 40
0.0
 40
0.0
 40
0.0
 40
0.509815867
 40
1.0
 40
1.0
 40
1.0
 40
1.0
 10
31.9887144308
 20
70.2966778167
 30
0.0
 10
31.7842068462
 20
70.3144051378
 30
0.0
 10
31.3845523048
 20
70.369882209
 30
0.0
 10
30.9932605118
 20
70.4691539924
 30
0.0
 10
30.8053575508
 20
70.5295472223
 30
0.0
  0
SPLINE
  5
2DB
100
AcDbEntity
  8
0
100
AcDbSpline
 62
7
  6
BYLAYER
 70
0
 71
3
 72
9
 73
5
 74
0
 42
0.0000001
 43
0.0000001
 44
0.0000000001
 40
0.0
 40
0.0
 40
0.0
 40
0.0
 40
0.5242943819
 40
1.0
 40
1.0
 40
1.0
 40
1.0
 10
30.5658393615
 20
70.6139767494
 30
0.0
 10
30.3840243455
 20
70.6840085474
 30
0.0
 10
30.0455970328
 20
70.8410822798
 30
0.0
 10
29.7370877746
 20
71.0527925403
 30
0.0
 10
29.6029928601
 20
71.1679865981
 30
0.0
  0
SPLINE
  5
2DC
100
AcDbEntity
  8
0
100
AcDbSpline
 62
7
  6
BYLAYER
 70
0
 71
3
 72
9
 73
5
 74
0
 42
0.0000001
 43
0.0000001
 44
0.0000000001
 40
0.0
 40
0.0
 40
0.0
 40
0.0
 40
0.25428168
 40
1.0
 40
1.0
 40
1.0
 40
1.0
 10
29.6029928601
 20
71.1679865981
 30
0.0
 10
29.590322412
 20
71.1788711296
 30
0.0
 10
29.5409411573
 20
71.2221927296
 30
0.0
 10
29.4933944342
 20
71.2676147598
 30
0.0
 10
29.4591748297
 20
71.3026668507
 30
0.0
  0
SPLINE
  5
2DD
100
AcDbEntity
  8
0
100
AcDbSpline
 62
7
  6
BYLAYER
 70
0
 71
3
 72
9
 73
5
 74
0
 42
0.0000001
 43
0.0000001
 44
0.0000000001
 40
0.0
 40
0.0
 40
0.0
 40
0.0
 40
0.5224664708
 40
1.0
 40
1.0
 40
1.0
 40
1.0
 10
29.4591711085
 20
71.3026706624
 30
0.0
 10
29.3621835306
 20
71.4020182283
 30
0.0
 10
29.1942719858
 20
71.6112315658
 30
0.0
 10
29.0843570105
 20
71.8575258007
 30
0.0
 10
29.0508695777
 20
71.9799270573
 30
0.0
  0
SPLINE
  5
2DE
100
AcDbEntity
  8
0
100
AcDbSpline
 62
7
  6
BYLAYER
 70
0
 71
3
 72
9
 73
5
 74
0
 42
0.0000001
 43
0.0000001
 44
0.0000000001
 40
0.0
 40
0.0
 40
0.0
 40
0.0
 40
0.5061354691
 40
1.0
 40
1.0
 40
1.0
 40
1.0
 10
25.825181054
 20
58.0852434752
 30
0.0
 10
26.1043460197
 20
57.4291999497
 30
0.0
 10
26.6125228086
 20
56.1140754294
 30
0.0
 10
27.0269097568
 20
54.7662731858
 30
0.0
 10
27.2059970334
 20
54.0940346714
 30
0.0
  0
SPLINE
  5
2DF
100
AcDbEntity
  8
0
100
AcDbSpline
 62
7
  6
BYLAYER
 70
0
 71
3
 72
16
 73
12
 74
0
 42
0.0000001
 43
0.0000001
 44
0.0000000001
 40
0.0
 40
0.0
 40
0.0
 40
0.0
 40
0.1512282057
 40
0.2971514564
 40
0.4360992084
 40
0.5667492664
 40
0.6882539261
 40
0.8003928203
 40
0.9037469425
 40
0.9526394641
 40
1.0
 40
1.0
 40
1.0
 40
1.0
 10
30.0008314624
 20
7.4122138164
 30
0.0
 10
29.5052923312
 20
7.4801517087
 30
0.0
 10
28.5366204548
 20
7.6547083303
 30
0.0
 10
27.143895822
 20
8.0375070479
 30
0.0
 10
25.85836078
 20
8.5303109812
 30
0.0
 10
24.7056133937
 20
9.1235313476
 30
0.0
 10
23.7083156989
 20
9.806191747
 30
0.0
 10
22.8864798394
 20
10.5656224898
 30
0.0
 10
22.3522497561
 20
11.265199087
 30
0.0
 10
22.0366244705
 20
11.8462390597
 30
0.0
 10
21.9156608655
 20
12.1415855874
 30
0.0
 10
21.8648361668
 20
12.289751873
 30
0.0
  0
SPLINE
  5
2E0
100
AcDbEntity
  8
0
100
AcDbSpline
 62
7
  6
BYLAYER
 70
0
 71
3
 72
9
 73
5
 74
0
 42
0.0000001
 43
0.0000001
 44
0.0000000001
 40
0.0
 40
0.0
 40
0.0
 40
0.0
 40
0.4830160048
 40
1.0
 40
1.0
 40
1.0
 40
1.0
 10
36.199832141
 20
7.5347881507
 30
0.0
 10
36.8626310949
 20
7.6727514885
 30
0.0
 10
38.2143969858
 20
8.0618824711
 30
0.0
 10
39.5048007672
 20
8.6179488612
 30
0.0
 10
40.1539797749
 20
8.9398719645
 30
0.0
  0
SPLINE
  5
2E1
100
AcDbEntity
  8
0
100
AcDbSpline
 62
7
  6
BYLAYER
 70
0
 71
3
 72
11
 73
7
 74
0
 42
0.0000001
 43
0.0000001
 44
0.0000000001
 40
0.0
 40
0.0
 40
0.0
 40
0.0
 40
0.2659731373
 40
0.5253507444
 40
0.7717433672
 40
1.0
 40
1.0
 40
1.0
 40
1.0
 10
45.3917414815
 20
11.9638770449
 30
0.0
 10
45.4279879006
 20
12.0266839943
 30
0.0
 10
45.4926546045
 20
12.1548887789
 30
0.0
 10
45.5654972652
 20
12.3528086874
 30
0.0
 10
45.6108746374
 20
12.5482649901
 30
0.0
 10
45.622305041
 20
12.6777894717
 30
0.0
 10
45.622305041
 20
12.740021968
 30
0.0
  0
SPLINE
  5
2E2
100
AcDbEntity
  8
0
100
AcDbSpline
 62
7
  6
BYLAYER
 70
0
 71
3
 72
9
 73
5
 74
0
 42
0.0000001
 43
0.0000001
 44
0.0000000001
 40
0.0
 40
0.0
 40
0.0
 40
0.0
 40
0.2719636547
 40
1.0
 40
1.0
 40
1.0
 40
1.0
 10
45.622305041
 20
12.740021968
 30
0.0
 10
45.622305041
 20
12.7693963784
 30
0.0
 10
45.6178187882
 20
12.8771904453
 30
0.0
 10
45.5937183929
 20
12.985400161
 30
0.0
 10
45.5608272367
 20
13.0568249872
 30
0.0
  0
SPLINE
  5
2E3
100
AcDbEntity
  8
0
100
AcDbSpline
 62
7
  6
BYLAYER
 70
0
 71
3
 72
11
 73
7
 74
0
 42
0.0000001
 43
0.0000001
 44
0.0000000001
 40
0.0
 40
0.0
 40
0.0
 40
0.0
 40
0.2650926458
 40
0.5201088183
 40
0.7650165088
 40
1.0
 40
1.0
 40
1.0
 40
1.0
 10
39.6371002798
 20
11.0909604816
 30
0.0
 10
39.5981605459
 20
14.0734509762
 30
0.0
 10
39.3404433971
 20
19.9247610988
 30
0.0
 10
38.3770757947
 20
28.4855091578
 30
0.0
 10
36.8489593555
 20
36.6198371574
 30
0.0
 10
35.4290738952
 20
41.8371562701
 30
0.0
 10
34.6223757886
 20
44.3550503752
 30
0.0
  0
SPLINE
  5
2E4
100
AcDbEntity
  8
0
100
AcDbSpline
 62
7
  6
BYLAYER
 70
0
 71
3
 72
9
 73
5
 74
0
 42
0.0000001
 43
0.0000001
 44
0.0000000001
 40
0.0
 40
0.0
 40
0.0
 40
0.0
 40
0.2485573473
 40
1.0
 40
1.0
 40
1.0
 40
1.0
 10
21.1855256217
 20
50.8498947332
 30
0.0
 10
21.2002502319
 20
50.858396234
 30
0.0
 10
21.258491301
 20
50.894308575
 30
0.0
 10
21.3125205467
 20
50.9369981536
 30
0.0
 10
21.350083233
 20
50.9720877124
 30
0.0
  0
SPLINE
  5
2E5
100
AcDbEntity
  8
0
100
AcDbSpline
 62
7
  6
BYLAYER
 70
0
 71
3
 72
15
 73
11
 74
0
 42
0.0000001
 43
0.0000001
 44
0.0000000001
 40
0.0
 40
0.0
 40
0.0
 40
0.0
 40
0.0948036772
 40
0.1965135387
 40
0.3073787849
 40
0.4283326053
 40
0.5592722445
 40
0.6992909573
 40
0.8468279423
 40
1.0
 40
1.0
 40
1.0
 40
1.0
 10
21.350083233
 20
50.9720877124
 30
0.0
 10
21.4097857193
 20
51.0278593868
 30
0.0
 10
21.5185101216
 20
51.1603387305
 30
0.0
 10
21.6359773296
 20
51.3998357628
 30
0.0
 10
21.7108618822
 20
51.678919381
 30
0.0
 10
21.7422339835
 20
51.9910990326
 30
0.0
 10
21.7298310421
 20
52.3295168632
 30
0.0
 10
21.6740808657
 20
52.6865850723
 30
0.0
 10
21.5764290355
 20
53.0542526867
 30
0.0
 10
21.4860456661
 20
53.2975969522
 30
0.0
 10
21.4345763646
 20
53.4191496135
 30
0.0
  0
SPLINE
  5
2E6
100
AcDbEntity
  8
0
100
AcDbSpline
 62
7
  6
BYLAYER
 70
0
 71
3
 72
10
 73
6
 74
0
 42
0.0000001
 43
0.0000001
 44
0.0000000001
 40
0.0
 40
0.0
 40
0.0
 40
0.0
 40
0.2773603333
 40
0.5375804775
 40
1.0
 40
1.0
 40
1.0
 40
1.0
 10
20.9134655378
 20
55.1104832872
 30
0.0
 10
20.8180682709
 20
55.2106590304
 30
0.0
 10
20.6207672306
 20
55.3939508133
 30
0.0
 10
20.2114887951
 20
55.6794843544
 30
0.0
 10
19.8652806797
 20
55.8153447265
 30
0.0
 10
19.6369023928
 20
55.8474918769
 30
0.0
  0
SPLINE
  5
2E7
100
AcDbEntity
  8
0
100
AcDbSpline
 62
7
  6
BYLAYER
 70
0
 71
3
 72
14
 73
10
 74
0
 42
0.0000001
 43
0.0000001
 44
0.0000000001
 40
0.0
 40
0.0
 40
0.0
 40
0.0
 40
0.1476258378
 40
0.2882568208
 40
0.5477644533
 40
0.6678373118
 40
0.7824156441
 40
0.892681094
 40
1.0
 40
1.0
 40
1.0
 40
1.0
 10
26.2357033648
 20
58.3116281559
 30
0.0
 10
26.403355296
 20
58.2122762456
 30
0.0
 10
26.7385002701
 20
58.0307929771
 30
0.0
 10
27.4020354157
 20
57.7423721496
 30
0.0
 10
28.0699942029
 20
57.5573423928
 30
0.0
 10
28.72131411
 20
57.4998024503
 30
0.0
 10
29.1777065495
 20
57.5196262934
 30
0.0
 10
29.6099975616
 20
57.6017271119
 30
0.0
 10
29.8819878302
 20
57.6983188389
 30
0.0
 10
30.0112312825
 20
57.7563420259
 30
0.0
  0
SPLINE
  5
2E8
100
AcDbEntity
  8
0
100
AcDbSpline
 62
7
  6
BYLAYER
 70
0
 71
3
 72
11
 73
7
 74
0
 42
0.0000001
 43
0.0000001
 44
0.0000000001
 40
0.0
 40
0.0
 40
0.0
 40
0.0
 40
0.2649043351
 40
0.5228921257
 40
0.7691918483
 40
1.0
 40
1.0
 40
1.0
 40
1.0
 10
18.0343647292
 20
64.6710327232
 30
0.0
 10
18.2719292893
 20
64.2900696091
 30
0.0
 10
18.7783146918
 20
63.5606619407
 30
0.0
 10
19.6287293915
 20
62.5694666516
 30
0.0
 10
20.5404887216
 20
61.7166685767
 30
0.0
 10
21.1965703387
 20
61.2391446605
 30
0.0
 10
21.5289700443
 20
61.0329143328
 30
0.0
  0
SPLINE
  5
2E9
100
AcDbEntity
  8
0
100
AcDbSpline
 62
7
  6
BYLAYER
 70
0
 71
3
 72
12
 73
8
 74
0
 42
0.0000001
 43
0.0000001
 44
0.0000000001
 40
0.0
 40
0.0
 40
0.0
 40
0.0
 40
0.1081711684
 40
0.2183745344
 40
0.4513260781
 40
0.710516265
 40
1.0
 40
1.0
 40
1.0
 40
1.0
 10
17.6731386591
 20
58.3896220785
 30
0.0
 10
17.63788704
 20
58.3692696838
 30
0.0
 10
17.563016288
 20
58.3342669447
 30
0.0
 10
17.3986986208
 20
58.2887443366
 30
0.0
 10
17.1684639617
 20
58.2825954959
 30
0.0
 10
16.8802107383
 20
58.352376503
 30
0.0
 10
16.6924883075
 20
58.4416243002
 30
0.0
 10
16.5981488358
 20
58.4960899875
 30
0.0
  0
SPLINE
  5
2EA
100
AcDbEntity
  8
0
100
AcDbSpline
 62
7
  6
BYLAYER
 70
0
 71
3
 72
9
 73
5
 74
0
 42
0.0000001
 43
0.0000001
 44
0.0000000001
 40
0.0
 40
0.0
 40
0.0
 40
0.0
 40
0.4936416985
 40
1.0
 40
1.0
 40
1.0
 40
1.0
 10
25.911555244
 20
47.2543643202
 30
0.0
 10
25.6855480167
 20
47.491296231
 30
0.0
 10
25.2643825236
 20
48.00712053
 30
0.0
 10
24.9179783495
 20
48.5754517156
 30
0.0
 10
24.7630751607
 20
48.8734719977
 30
0.0
  0
SPLINE
  5
2EB
100
AcDbEntity
  8
0
100
AcDbSpline
 62
7
  6
BYLAYER
 70
0
 71
3
 72
10
 73
6
 74
0
 42
0.0000001
 43
0.0000001
 44
0.0000000001
 40
0.0
 40
0.0
 40
0.0
 40
0.0
 40
0.4939165313
 40
0.7463283919
 40
1.0
 40
1.0
 40
1.0
 40
1.0
 10
23.7557499353
 20
52.1080896417
 30
0.0
 10
23.5468142834
 20
53.0952893786
 30
0.0
 10
23.1984370373
 20
54.5804591309
 30
0.0
 10
22.6576076302
 20
56.5507366273
 30
0.0
 10
22.3562753992
 20
57.5399749193
 30
0.0
 10
22.1974967173
 20
58.0333018571
 30
0.0
  0
SPLINE
  5
2EC
100
AcDbEntity
  8
0
100
AcDbSpline
 62
7
  6
BYLAYER
 70
0
 71
3
 72
9
 73
5
 74
0
 42
0.0000001
 43
0.0000001
 44
0.0000000001
 40
0.0
 40
0.0
 40
0.0
 40
0.0
 40
0.2546229755
 40
1.0
 40
1.0
 40
1.0
 40
1.0
 10
30.6488824534
 20
43.2413424167
 30
0.0
 10
30.2631378552
 20
43.6005029161
 30
0.0
 10
28.7321680284
 20
44.9937204651
 30
0.0
 10
27.1365600926
 20
46.3163152275
 30
0.0
 10
25.911555244
 20
47.2543643202
 30
0.0
  0
SPLINE
  5
2ED
100
AcDbEntity
  8
0
100
AcDbSpline
 62
7
  6
BYLAYER
 70
0
 71
3
 72
11
 73
7
 74
0
 42
0.0000001
 43
0.0000001
 44
0.0000000001
 40
0.0
 40
0.0
 40
0.0
 40
0.0
 40
0.2373210166
 40
0.4830357015
 40
0.7372643168
 40
1.0
 40
1.0
 40
1.0
 40
1.0
 10
36.2512276577
 20
45.2954628268
 30
0.0
 10
36.9997812853
 20
42.7339639297
 30
0.0
 10
38.3343695821
 20
37.4635263372
 30
0.0
 10
39.8313193093
 20
29.3038855868
 30
0.0
 10
40.8530241936
 20
20.7836909184
 30
0.0
 10
41.2091448813
 20
14.9778558435
 30
0.0
 10
41.3109656391
 20
12.0251930278
 30
0.0
  0
SPLINE
  5
2EE
100
AcDbEntity
  8
0
100
AcDbSpline
 62
7
  6
BYLAYER
 70
0
 71
3
 72
12
 73
8
 74
0
 42
0.0000001
 43
0.0000001
 44
0.0000000001
 40
0.0
 40
0.0
 40
0.0
 40
0.0
 40
0.259492349
 40
0.5150586439
 40
0.7633333852
 40
0.8834996317
 40
1.0
 40
1.0
 40
1.0
 40
1.0
 10
21.7578271388
 20
60.456448661
 30
0.0
 10
21.5792444882
 20
60.4662873956
 30
0.0
 10
21.223284819
 20
60.4656390198
 30
0.0
 10
20.6998130808
 20
60.4021571278
 30
0.0
 10
20.2816249553
 20
60.294446574
 30
0.0
 10
19.970194909
 20
60.1721420523
 30
0.0
 10
19.8242147355
 20
60.0985877295
 30
0.0
 10
19.754653447
 20
60.0584771465
 30
0.0
  0
LINE
  5
2EF
100
AcDbEntity
  8
0
100
AcDbLine
 62
7
  6
BYLAYER
 10
21.781081785
 20
60.4430228885
 11
21.7788561268
 21
60.4552119119
  0
SPLINE
  5
2F0
100
AcDbEntity
  8
0
100
AcDbSpline
 62
7
  6
BYLAYER
 70
0
 71
3
 72
11
 73
7
 74
0
 42
0.0000001
 43
0.0000001
 44
0.0000000001
 40
0.0
 40
0.0
 40
0.0
 40
0.0
 40
0.2958303565
 40
0.5646866044
 40
0.8005366712
 40
1.0
 40
1.0
 40
1.0
 40
1.0
 10
22.0800615531
 20
58.4811275031
 30
0.0
 10
22.0469537195
 20
58.6740088921
 30
0.0
 10
21.9899084645
 20
59.0432327393
 30
0.0
 10
21.9159847265
 20
59.5676247071
 30
0.0
 10
21.8497533964
 20
60.0287262947
 30
0.0
 10
21.8041622532
 20
60.3131051055
 30
0.0
 10
21.781081785
 20
60.4430228885
 30
0.0
  0
SPLINE
  5
2F1
100
AcDbEntity
  8
0
100
AcDbSpline
 62
7
  6
BYLAYER
 70
0
 71
3
 72
9
 73
5
 74
0
 42
0.0000001
 43
0.0000001
 44
0.0000000001
 40
0.0
 40
0.0
 40
0.0
 40
0.0
 40
0.2507375383
 40
1.0
 40
1.0
 40
1.0
 40
1.0
 10
22.1976520684
 20
58.0332121672
 30
0.0
 10
22.1851566881
 20
58.0698648245
 30
0.0
 10
22.1378654172
 20
58.21689549
 30
0.0
 10
22.101104875
 20
58.3673404604
 30
0.0
 10
22.0800615531
 20
58.4811275031
 30
0.0
  0
SPLINE
  5
2F2
100
AcDbEntity
  8
0
100
AcDbSpline
 62
7
  6
BYLAYER
 70
0
 71
3
 72
17
 73
13
 74
0
 42
0.0000001
 43
0.0000001
 44
0.0000000001
 40
0.0
 40
0.0
 40
0.0
 40
0.0
 40
0.1187951129
 40
0.2318851628
 40
0.2876182786
 40
0.3434635923
 40
0.3999599549
 40
0.4576172403
 40
0.5780054531
 40
0.7076166103
 40
0.8481569387
 40
1.0
 40
1.0
 40
1.0
 40
1.0
 10
38.1088711297
 20
71.7913349627
 30
0.0
 10
38.1971604131
 20
71.6453619995
 30
0.0
 10
38.3426774036
 20
71.3426293712
 30
0.0
 10
38.4333463957
 20
70.9354489103
 30
0.0
 10
38.4449177654
 20
70.6123130919
 30
0.0
 10
38.4241212836
 20
70.3712378335
 30
0.0
 10
38.3740610695
 20
70.1317070864
 30
0.0
 10
38.2671646625
 20
69.8116109245
 30
0.0
 10
38.0571887184
 20
69.4188478477
 30
0.0
 10
37.7005876776
 20
68.9822662608
 30
0.0
 10
37.2438417095
 20
68.5805440151
 30
0.0
 10
36.8918954803
 20
68.3490840131
 30
0.0
 10
36.7030540381
 20
68.2400570065
 30
0.0
  0
SPLINE
  5
2F3
100
AcDbEntity
  8
0
100
AcDbSpline
 62
7
  6
BYLAYER
 70
0
 71
3
 72
11
 73
7
 74
0
 42
0.0000001
 43
0.0000001
 44
0.0000000001
 40
0.0
 40
0.0
 40
0.0
 40
0.0
 40
0.2371853584
 40
0.4889214489
 40
0.746361604
 40
1.0
 40
1.0
 40
1.0
 40
1.0
 10
31.0868566026
 20
42.3138296059
 30
0.0
 10
31.0757038997
 20
42.3951803854
 30
0.0
 10
31.0375295168
 20
42.5609745806
 30
0.0
 10
30.9428614816
 20
42.802243519
 30
0.0
 10
30.8135679303
 20
43.0333905482
 30
0.0
 10
30.7067404209
 20
43.1752921839
 30
0.0
 10
30.6488824534
 20
43.2413424167
 30
0.0
  0
SPLINE
  5
2F4
100
AcDbEntity
  8
0
100
AcDbSpline
 62
7
  6
BYLAYER
 70
0
 71
3
 72
14
 73
10
 74
0
 42
0.0000001
 43
0.0000001
 44
0.0000000001
 40
0.0
 40
0.0
 40
0.0
 40
0.0
 40
0.2785273047
 40
0.409164175
 40
0.534476132
 40
0.6552155726
 40
0.7722951793
 40
0.8868109169
 40
1.0
 40
1.0
 40
1.0
 40
1.0
 10
37.9881444223
 20
65.8211149259
 30
0.0
 10
38.3315988319
 20
66.0194072381
 30
0.0
 10
38.8118495246
 20
66.3595230174
 30
0.0
 10
39.3475439565
 20
66.9021291956
 30
0.0
 10
39.6751982267
 20
67.3287247808
 30
0.0
 10
39.933516789
 20
67.778484215
 30
0.0
 10
40.12012751
 20
68.2461030401
 30
0.0
 10
40.2328180412
 20
68.7257555206
 30
0.0
 10
40.2580456429
 20
69.0505191458
 30
0.0
 10
40.2580356002
 20
69.2116855742
 30
0.0
  0
SPLINE
  5
2F5
100
AcDbEntity
  8
0
100
AcDbSpline
 62
7
  6
BYLAYER
 70
0
 71
3
 72
26
 73
22
 74
0
 42
0.0000001
 43
0.0000001
 44
0.0000000001
 40
0.0
 40
0.0
 40
0.0
 40
0.0
 40
0.0468649706
 40
0.0693284916
 40
0.0914851152
 40
0.1136435515
 40
0.1361133934
 40
0.1591806254
 40
0.1830968628
 40
0.2341515878
 40
0.2903736499
 40
0.352009596
 40
0.4187111384
 40
0.4896927435
 40
0.5638608383
 40
0.6399176399
 40
0.7164519043
 40
0.792031359
 40
0.8652632938
 40
0.9349359841
 40
1.0
 40
1.0
 40
1.0
 40
1.0
 10
27.7876692582
 20
73.2468066715
 30
0.0
 10
27.6989382043
 20
73.1000777347
 30
0.0
 10
27.5919650842
 20
72.865880885
 30
0.0
 10
27.5198737116
 20
72.5380829821
 30
0.0
 10
27.5020977004
 20
72.2934884684
 30
0.0
 10
27.5202735358
 20
72.0489441257
 30
0.0
 10
27.5742169807
 20
71.8063531359
 30
0.0
 10
27.6632803758
 20
71.5675244479
 30
0.0
 10
27.8315844883
 20
71.2497685266
 30
0.0
 10
28.1323268142
 20
70.870143809
 30
0.0
 10
28.6060440518
 20
70.4684455746
 30
0.0
 10
29.1868537183
 20
70.1190971411
 30
0.0
 10
29.8588756878
 20
69.8309160779
 30
0.0
 10
30.6039191265
 20
69.6112543226
 30
0.0
 10
31.4015913235
 20
69.466043408
 30
0.0
 10
32.2299005691
 20
69.3992576268
 30
0.0
 10
33.0659345908
 20
69.4127463699
 30
0.0
 10
33.8864714349
 20
69.5061685263
 30
0.0
 10
34.6689883602
 20
69.6768544378
 30
0.0
 10
35.3915950502
 20
69.9202357032
 30
0.0
 10
35.8374269261
 20
70.1347642792
 30
0.0
 10
36.0435926781
 20
70.2537934211
 30
0.0
  0
SPLINE
  5
2F6
100
AcDbEntity
  8
0
100
AcDbSpline
 62
7
  6
BYLAYER
 70
0
 71
3
 72
12
 73
8
 74
0
 42
0.0000001
 43
0.0000001
 44
0.0000000001
 40
0.0
 40
0.0
 40
0.0
 40
0.0
 40
0.1081711684
 40
0.2183745344
 40
0.4513260781
 40
0.710516265
 40
1.0
 40
1.0
 40
1.0
 40
1.0
 10
32.5224428871
 20
49.8165662336
 30
0.0
 10
32.4871912681
 20
49.7962138389
 30
0.0
 10
32.4123205161
 20
49.7612110998
 30
0.0
 10
32.2480028489
 20
49.7156884916
 30
0.0
 10
32.0177681898
 20
49.7095396509
 30
0.0
 10
31.7295149664
 20
49.7793206581
 30
0.0
 10
31.5417925356
 20
49.8685684553
 30
0.0
 10
31.4474530639
 20
49.9230341425
 30
0.0
  0
SPLINE
  5
2F7
100
AcDbEntity
  8
0
100
AcDbSpline
 62
7
  6
BYLAYER
 70
0
 71
3
 72
15
 73
11
 74
0
 42
0.0000001
 43
0.0000001
 44
0.0000000001
 40
0.0
 40
0.0
 40
0.0
 40
0.0
 40
0.1485422169
 40
0.2895065925
 40
0.4227365852
 40
0.5486414656
 40
0.6679983291
 40
0.7819398679
 40
0.8919885884
 40
1.0
 40
1.0
 40
1.0
 40
1.0
 10
37.9881444223
 20
67.0898753034
 30
0.0
 10
38.1628822585
 20
67.1907596379
 30
0.0
 10
38.4955128448
 20
67.4016523502
 30
0.0
 10
38.9503657057
 20
67.7536067486
 30
0.0
 10
39.3437597244
 20
68.1301949879
 30
0.0
 10
39.6717863857
 20
68.5277824593
 30
0.0
 10
39.9310826757
 20
68.9429284461
 30
0.0
 10
40.1188456151
 20
69.3718462894
 30
0.0
 10
40.2325396806
 20
69.8102339991
 30
0.0
 10
40.2580426121
 20
70.1070258483
 30
0.0
 10
40.2580295775
 20
70.2537411505
 30
0.0
  0
SPLINE
  5
2F8
100
AcDbEntity
  8
0
100
AcDbSpline
 62
7
  6
BYLAYER
 70
0
 71
3
 72
31
 73
27
 74
0
 42
0.0000001
 43
0.0000001
 44
0.0000000001
 40
0.0
 40
0.0
 40
0.0
 40
0.0
 40
0.0298067163
 40
0.0580374839
 40
0.1099532602
 40
0.1340787976
 40
0.1572917638
 40
0.1799399519
 40
0.2024185044
 40
0.2251375686
 40
0.2484848603
 40
0.2727972326
 40
0.2983399
 40
0.3253011445
 40
0.353791985
 40
0.3838566636
 40
0.415477401
 40
0.4830327805
 40
0.5555080852
 40
0.6314328652
 40
0.7090540958
 40
0.7864890544
 40
0.8618718237
 40
0.9334933344
 40
0.9674762698
 40
1.0
 40
1.0
 40
1.0
 40
1.0
 10
27.0125511987
 20
73.3921103653
 30
0.0
 10
26.8653748965
 20
73.2933443435
 30
0.0
 10
26.5868451297
 20
73.088358884
 30
0.0
 10
26.1008618355
 20
72.6502077998
 30
0.0
 10
25.7084877275
 20
72.1601802521
 30
0.0
 10
25.4434127534
 20
71.6307617014
 30
0.0
 10
25.3145668141
 20
71.2332166529
 30
0.0
 10
25.2526256722
 20
70.8297349407
 30
0.0
 10
25.2585076181
 20
70.4244510454
 30
0.0
 10
25.332040725
 20
70.0216923791
 30
0.0
 10
25.4722723897
 20
69.6256131041
 30
0.0
 10
25.6773961358
 20
69.2400200998
 30
0.0
 10
25.9451185491
 20
68.8683683258
 30
0.0
 10
26.2727167501
 20
68.5138643533
 30
0.0
 10
26.6570421827
 20
68.1795024839
 30
0.0
 10
27.0945818957
 20
67.8681589507
 30
0.0
 10
27.7581313004
 20
67.4788141325
 30
0.0
 10
28.6983404526
 20
67.0710591806
 30
0.0
 10
29.9372546131
 20
66.7212269976
 30
0.0
 10
31.2679967958
 20
66.5122874889
 30
0.0
 10
32.6429304953
 20
66.4516970964
 30
0.0
 10
34.0131236445
 20
66.5416105254
 30
0.0
 10
35.3294049639
 20
66.7787894085
 30
0.0
 10
36.3608742867
 20
67.0977686555
 30
0.0
 10
37.1160668756
 20
67.4223008358
 30
0.0
 10
37.4670990854
 20
67.605546796
 30
0.0
 10
37.6345895597
 20
67.7022468892
 30
0.0
  0
SPLINE
  5
2F9
100
AcDbEntity
  8
0
100
AcDbSpline
 62
7
  6
BYLAYER
 70
0
 71
3
 72
22
 73
18
 74
0
 42
0.0000001
 43
0.0000001
 44
0.0000000001
 40
0.0
 40
0.0
 40
0.0
 40
0.0
 40
0.0750977692
 40
0.1465722344
 40
0.2143217384
 40
0.2785014949
 40
0.3394435292
 40
0.3976377163
 40
0.453729502
 40
0.5085297319
 40
0.5629516358
 40
0.6179406145
 40
0.6743913491
 40
0.73308617
 40
0.7946462884
 40
0.8595225535
 40
1.0
 40
1.0
 40
1.0
 40
1.0
 10
37.6345895597
 20
67.7022468892
 30
0.0
 10
37.7904363761
 20
67.7922245535
 30
0.0
 10
38.0878334069
 20
67.980002535
 30
0.0
 10
38.4967218283
 20
68.291953404
 30
0.0
 10
38.8537633314
 20
68.6250623693
 30
0.0
 10
39.1557335692
 20
68.9763195857
 30
0.0
 10
39.3998048614
 20
69.3430147523
 30
0.0
 10
39.5838000619
 20
69.7220185737
 30
0.0
 10
39.7054998594
 20
70.1101512589
 30
0.0
 10
39.763556619
 20
70.5037392767
 30
0.0
 10
39.7570900282
 20
70.8989309933
 30
0.0
 10
39.686293209
 20
71.2917406096
 30
0.0
 10
39.5520254828
 20
71.6783361419
 30
0.0
 10
39.3559036002
 20
72.055151882
 30
0.0
 10
39.1000111959
 20
72.4190355883
 30
0.0
 10
38.6712776
 20
72.8952200973
 30
0.0
 10
38.2831367952
 20
73.2045075309
 30
0.0
 10
38.0036104865
 20
73.3920744754
 30
0.0
  0
SPLINE
  5
2FA
100
AcDbEntity
  8
0
100
AcDbSpline
 62
7
  6
BYLAYER
 70
0
 71
3
 72
27
 73
23
 74
0
 42
0.0000001
 43
0.0000001
 44
0.0000000001
 40
0.0
 40
0.0
 40
0.0
 40
0.0
 40
0.0650606319
 40
0.1347189641
 40
0.207945247
 40
0.2835155608
 40
0.3600421118
 40
0.4360925059
 40
0.5102550506
 40
0.5812312444
 40
0.6479263944
 40
0.709555535
 40
0.7657717264
 40
0.8168215885
 40
0.8407349165
 40
0.8638002819
 40
0.8862675584
 40
0.9084243719
 40
0.9305789231
 40
0.9530402726
 40
0.9760976305
 40
1.0
 40
1.0
 40
1.0
 40
1.0
 10
36.7030540381
 20
68.2400570065
 30
0.0
 10
36.4584221181
 20
68.0988195447
 30
0.0
 10
35.9294577501
 20
67.8442660684
 30
0.0
 10
35.0720710271
 20
67.555518333
 30
0.0
 10
34.1436346349
 20
67.352977854
 30
0.0
 10
33.1700467614
 20
67.2421452213
 30
0.0
 10
32.1780772199
 20
67.2261410752
 30
0.0
 10
31.1952553511
 20
67.305360059
 30
0.0
 10
30.248776116
 20
67.4776433662
 30
0.0
 10
29.3647484081
 20
67.7382804496
 30
0.0
 10
28.5673814026
 20
68.0802314353
 30
0.0
 10
27.8782461637
 20
68.4947539601
 30
0.0
 10
27.3161844856
 20
68.9713758405
 30
0.0
 10
26.9592875612
 20
69.4217729913
 30
0.0
 10
26.7596601239
 20
69.7988290296
 30
0.0
 10
26.6538953298
 20
70.0821728173
 30
0.0
 10
26.5899795023
 20
70.3700329503
 30
0.0
 10
26.5683488582
 20
70.660196238
 30
0.0
 10
26.5894430297
 20
70.9503699495
 30
0.0
 10
26.6528423789
 20
71.2382860187
 30
0.0
 10
26.7580878625
 20
71.5216588181
 30
0.0
 10
26.8535141066
 20
71.7025338041
 30
0.0
 10
26.9072195191
 20
71.7913345
 30
0.0
  0
SPLINE
  5
2FB
100
AcDbEntity
  8
0
100
AcDbSpline
 62
7
  6
BYLAYER
 70
0
 71
3
 72
15
 73
11
 74
0
 42
0.0000001
 43
0.0000001
 44
0.0000000001
 40
0.0
 40
0.0
 40
0.0
 40
0.0
 40
0.1518885886
 40
0.2924996411
 40
0.4221617742
 40
0.5425921604
 40
0.6566018329
 40
0.7680196447
 40
0.8811568933
 40
1.0
 40
1.0
 40
1.0
 40
1.0
 10
36.0435926781
 20
70.2537934211
 30
0.0
 10
36.2027323486
 20
70.3456722042
 30
0.0
 10
36.4993429301
 20
70.5407692248
 30
0.0
 10
36.884298703
 20
70.8792829715
 30
0.0
 10
37.1848766251
 20
71.2473494037
 30
0.0
 10
37.3941447935
 20
71.6385786708
 30
0.0
 10
37.506223045
 20
72.0456885476
 30
0.0
 10
37.5167853808
 20
72.4593517993
 30
0.0
 10
37.4253935936
 20
72.868532688
 30
0.0
 10
37.3028333034
 20
73.1237881554
 30
0.0
 10
37.2284045877
 20
73.2468036867
 30
0.0
  0
SPLINE
  5
2FC
100
AcDbEntity
  8
0
100
AcDbSpline
 62
7
  6
BYLAYER
 70
0
 71
3
 72
9
 73
5
 74
0
 42
0.0000001
 43
0.0000001
 44
0.0000000001
 40
0.0
 40
0.0
 40
0.0
 40
0.0
 40
0.2574269668
 40
1.0
 40
1.0
 40
1.0
 40
1.0
 10
14.3420157199
 20
53.9340120225
 30
0.0
 10
13.9453805667
 20
54.0882811818
 30
0.0
 10
12.3944784385
 20
54.6608667564
 30
0.0
 10
10.8020860784
 20
55.1234407586
 30
0.0
 10
9.6040406723
 20
55.3913126151
 30
0.0
  0
SPLINE
  5
2FD
100
AcDbEntity
  8
0
100
AcDbSpline
 62
7
  6
BYLAYER
 70
0
 71
3
 72
11
 73
7
 74
0
 42
0.0000001
 43
0.0000001
 44
0.0000000001
 40
0.0
 40
0.0
 40
0.0
 40
0.0
 40
0.2190562343
 40
0.4527372034
 40
0.7117090763
 40
1.0
 40
1.0
 40
1.0
 40
1.0
 10
44.7245839611
 20
14.4129699741
 30
0.0
 10
44.7011838715
 20
14.4264732271
 30
0.0
 10
44.6477056641
 20
14.4462399433
 30
0.0
 10
44.5588433556
 20
14.4497379226
 30
0.0
 10
44.4640036277
 20
14.4286726912
 30
0.0
 10
44.4020758133
 20
14.4007460289
 30
0.0
 10
44.370922951
 20
14.3836084184
 30
0.0
  0
SPLINE
  5
2FE
100
AcDbEntity
  8
0
100
AcDbSpline
 62
7
  6
BYLAYER
 70
0
 71
3
 72
25
 73
21
 74
0
 42
0.0000001
 43
0.0000001
 44
0.0000000001
 40
0.0
 40
0.0
 40
0.0
 40
0.0
 40
0.0213319025
 40
0.0428919457
 40
0.0648973843
 40
0.0875416961
 40
0.1353167895
 40
0.1872174294
 40
0.2436545993
 40
0.304602289
 40
0.3696905114
 40
0.4382882868
 40
0.5095749344
 40
0.5825994469
 40
0.6563313808
 40
0.7297086177
 40
0.8016865587
 40
0.8712739706
 40
0.9376235182
 40
1.0
 40
1.0
 40
1.0
 40
1.0
 10
24.7580585273
 20
70.2537411513
 30
0.0
 10
24.7580682949
 20
70.143798446
 30
0.0
 10
24.7722632666
 20
69.9224849916
 30
0.0
 10
24.8358027784
 20
69.5932584655
 30
0.0
 10
24.9413382143
 20
69.2678612194
 30
0.0
 10
25.1402693027
 20
68.8340231811
 30
0.0
 10
25.4973800304
 20
68.3086117977
 30
0.0
 10
26.0677749703
 20
67.7359194337
 30
0.0
 10
26.7746685699
 20
67.2193384517
 30
0.0
 10
27.6029040973
 20
66.7688690992
 30
0.0
 10
28.535179519
 20
66.3932956099
 30
0.0
 10
29.5518857003
 20
66.1002959496
 30
0.0
 10
30.6315277544
 20
65.8959616009
 30
0.0
 10
31.7511720443
 20
65.7846135177
 30
0.0
 10
32.8869616691
 20
65.7686254739
 30
0.0
 10
34.0146803833
 20
65.8483465387
 30
0.0
 10
35.1102220743
 20
66.0221010329
 30
0.0
 10
36.1504587668
 20
66.2861278005
 30
0.0
 10
37.1129966121
 20
66.6349471584
 30
0.0
 10
37.7097317583
 20
66.9291346364
 30
0.0
 10
37.9881444223
 20
67.0898753034
 30
0.0
  0
SPLINE
  5
2FF
100
AcDbEntity
  8
0
100
AcDbSpline
 62
7
  6
BYLAYER
 70
0
 71
3
 72
25
 73
21
 74
0
 42
0.0000001
 43
0.0000001
 44
0.0000000001
 40
0.0
 40
0.0
 40
0.0
 40
0.0
 40
0.0193977237
 40
0.0391136847
 40
0.0594436082
 40
0.0806396436
 40
0.1263461583
 40
0.1773318837
 40
0.2338862273
 40
0.2957431004
 40
0.3622471388
 40
0.4324684547
 40
0.5053276625
 40
0.5796804536
 40
0.6543911385
 40
0.7283921141
 40
0.8007073552
 40
0.8704851326
 40
0.9370775656
 40
1.0
 40
1.0
 40
1.0
 40
1.0
 10
24.7580525046
 20
69.2116855716
 30
0.0
 10
24.758060044
 20
69.1129032533
 30
0.0
 10
24.7723138507
 20
68.9134407731
 30
0.0
 10
24.8360255745
 20
68.6165855122
 30
0.0
 10
24.9417317308
 20
68.3222392224
 30
0.0
 10
25.1423909544
 20
67.9248422373
 30
0.0
 10
25.5029870459
 20
67.4391956717
 30
0.0
 10
26.0731583629
 20
66.9020591664
 30
0.0
 10
26.7792214733
 20
66.4024051296
 30
0.0
 10
27.6065250486
 20
65.9490407123
 30
0.0
 10
28.5378265147
 20
65.5512589231
 30
0.0
 10
29.553362324
 20
65.2188388264
 30
0.0
 10
30.6314877134
 20
64.9612488472
 30
0.0
 10
31.7493795318
 20
64.7872251352
 30
0.0
 10
32.8836224065
 20
64.7044109514
 30
0.0
 10
34.0105860885
 20
64.7188214121
 30
0.0
 10
35.1066408674
 20
64.8346080067
 30
0.0
 10
36.1487478839
 20
65.0533363836
 30
0.0
 10
37.1141182951
 20
65.373779553
 30
0.0
 10
37.7106429817
 20
65.6609003508
 30
0.0
 10
37.9881444223
 20
65.8211149259
 30
0.0
  0
SPLINE
  5
300
100
AcDbEntity
  8
0
100
AcDbSpline
 62
7
  6
BYLAYER
 70
0
 71
3
 72
9
 73
5
 74
0
 42
0.0000001
 43
0.0000001
 44
0.0000000001
 40
0.0
 40
0.0
 40
0.0
 40
0.0
 40
0.2540032457
 40
1.0
 40
1.0
 40
1.0
 40
1.0
 10
18.7980288057
 20
51.6998135545
 30
0.0
 10
18.8194506674
 20
51.6746612515
 30
0.0
 10
18.9050782776
 20
51.5767480615
 30
0.0
 10
18.9958805669
 20
51.4833299046
 30
0.0
 10
19.0665123547
 20
51.4167985488
 30
0.0
  0
SPLINE
  5
301
100
AcDbEntity
  8
0
100
AcDbSpline
 62
7
  6
BYLAYER
 70
0
 71
3
 72
9
 73
5
 74
0
 42
0.0000001
 43
0.0000001
 44
0.0000000001
 40
0.0
 40
0.0
 40
0.0
 40
0.0
 40
0.2613458641
 40
1.0
 40
1.0
 40
1.0
 40
1.0
 10
19.0665123547
 20
51.4167985488
 30
0.0
 10
19.1059755758
 20
51.3796263111
 30
0.0
 10
19.2604331767
 20
51.2411798617
 30
0.0
 10
19.4291430824
 20
51.1180803093
 30
0.0
 10
19.5612176295
 20
51.0403968929
 30
0.0
  0
SPLINE
  5
302
100
AcDbEntity
  8
0
100
AcDbSpline
 62
7
  6
BYLAYER
 70
0
 71
3
 72
9
 73
5
 74
0
 42
0.0000001
 43
0.0000001
 44
0.0000000001
 40
0.0
 40
0.0
 40
0.0
 40
0.0
 40
0.2611251515
 40
1.0
 40
1.0
 40
1.0
 40
1.0
 10
19.5612176295
 20
51.0403968929
 30
0.0
 10
19.5914083149
 20
51.0226393791
 30
0.0
 10
19.7085411068
 20
50.9572976159
 30
0.0
 10
19.8320380935
 20
50.9029532874
 30
0.0
 10
19.9260209925
 20
50.8714940997
 30
0.0
  0
SPLINE
  5
303
100
AcDbEntity
  8
0
100
AcDbSpline
 62
7
  6
BYLAYER
 70
0
 71
3
 72
11
 73
7
 74
0
 42
0.0000001
 43
0.0000001
 44
0.0000000001
 40
0.0
 40
0.0
 40
0.0
 40
0.0
 40
0.2785611962
 40
0.5315934581
 40
0.7678086545
 40
1.0
 40
1.0
 40
1.0
 40
1.0
 10
19.9260209925
 20
50.8714940997
 30
0.0
 10
20.0185349619
 20
50.8405266114
 30
0.0
 10
20.2011732369
 20
50.7970185455
 30
0.0
 10
20.472999122
 20
50.7968914664
 30
0.0
 10
20.7193556255
 20
50.8676245204
 30
0.0
 10
20.8581035521
 20
50.9607494974
 30
0.0
 10
20.9181931838
 20
51.0155407421
 30
0.0
  0
SPLINE
  5
304
100
AcDbEntity
  8
0
100
AcDbSpline
 62
7
  6
BYLAYER
 70
0
 71
3
 72
15
 73
11
 74
0
 42
0.0000001
 43
0.0000001
 44
0.0000000001
 40
0.0
 40
0.0
 40
0.0
 40
0.0
 40
0.0950252983
 40
0.196808051
 40
0.3075873897
 40
0.4283790555
 40
0.5591291659
 40
0.6990105193
 40
0.8466771146
 40
1.0
 40
1.0
 40
1.0
 40
1.0
 10
20.9181931838
 20
51.0155407421
 30
0.0
 10
20.9719589858
 20
51.064565759
 30
0.0
 10
21.0701863333
 20
51.1811977708
 30
0.0
 10
21.1775727492
 20
51.3926636681
 30
0.0
 10
21.2473768274
 20
51.6396105399
 30
0.0
 10
21.2786470263
 20
51.9162945331
 30
0.0
 10
21.2712876039
 20
52.2167227325
 30
0.0
 10
21.2255070656
 20
52.5344003291
 30
0.0
 10
21.1424281603
 20
52.8621494097
 30
0.0
 10
21.0646146057
 20
53.079497417
 30
0.0
 10
21.0201464942
 20
53.1881499422
 30
0.0
  0
SPLINE
  5
305
100
AcDbEntity
  8
0
100
AcDbSpline
 62
7
  6
BYLAYER
 70
0
 71
3
 72
11
 73
7
 74
0
 42
0.0000001
 43
0.0000001
 44
0.0000000001
 40
0.0
 40
0.0
 40
0.0
 40
0.0
 40
0.2618537795
 40
0.5135218011
 40
0.7583174461
 40
1.0
 40
1.0
 40
1.0
 40
1.0
 10
19.6368675495
 20
55.847466538
 30
0.0
 10
19.5688626561
 20
55.8567427505
 30
0.0
 10
19.4339222587
 20
55.8653767971
 30
0.0
 10
19.2351959358
 20
55.8461842233
 30
0.0
 10
19.0476359282
 20
55.7950682652
 30
0.0
 10
18.9316594847
 20
55.7401723389
 30
0.0
 10
18.8770925084
 20
55.7079953767
 30
0.0
  0
SPLINE
  5
306
100
AcDbEntity
  8
0
100
AcDbSpline
 62
7
  6
BYLAYER
 70
0
 71
3
 72
15
 73
11
 74
0
 42
0.0000001
 43
0.0000001
 44
0.0000000001
 40
0.0
 40
0.0
 40
0.0
 40
0.0
 40
0.139335102
 40
0.2750380305
 40
0.4067822032
 40
0.5343374235
 40
0.6575126239
 40
0.7761881945
 40
0.8903401313
 40
1.0
 40
1.0
 40
1.0
 40
1.0
 10
34.3046177482
 20
56.4656905201
 30
0.0
 10
33.4521478644
 20
57.2405125387
 30
0.0
 10
31.7329883679
 20
58.7305094106
 30
0.0
 10
29.0831016527
 20
60.8037838004
 30
0.0
 10
26.4064958368
 20
62.67772867
 30
0.0
 10
23.7163237563
 20
64.3431711145
 30
0.0
 10
21.0254494061
 20
65.7919710305
 30
0.0
 10
18.3467428058
 20
67.0171394673
 30
0.0
 10
15.6933415254
 20
68.0124216338
 30
0.0
 10
13.9143088749
 20
68.5297063602
 30
0.0
 10
13.0338744263
 20
68.7460820833
 30
0.0
  0
SPLINE
  5
307
100
AcDbEntity
  8
0
100
AcDbSpline
 62
7
  6
BYLAYER
 70
0
 71
3
 72
11
 73
7
 74
0
 42
0.0000001
 43
0.0000001
 44
0.0000000001
 40
0.0
 40
0.0
 40
0.0
 40
0.0
 40
0.2314468158
 40
0.487168596
 40
0.7497032115
 40
1.0
 40
1.0
 40
1.0
 40
1.0
 10
34.629446827
 20
55.8018985891
 30
0.0
 10
34.629446827
 20
55.860388868
 30
0.0
 10
34.6108427417
 20
55.9836291613
 30
0.0
 10
34.5432692253
 20
56.1617977127
 30
0.0
 10
34.4411205537
 20
56.3282628796
 30
0.0
 10
34.3526774296
 20
56.4245647227
 30
0.0
 10
34.3046177482
 20
56.4656905201
 30
0.0
  0
SPLINE
  5
308
100
AcDbEntity
  8
0
100
AcDbSpline
 62
7
  6
BYLAYER
 70
0
 71
3
 72
12
 73
8
 74
0
 42
0.0000001
 43
0.0000001
 44
0.0000000001
 40
0.0
 40
0.0
 40
0.0
 40
0.0
 40
0.2894941049
 40
0.5486496671
 40
0.781581992
 40
0.8917812395
 40
1.0
 40
1.0
 40
1.0
 40
1.0
 10
29.2200574296
 20
52.9644727161
 30
0.0
 10
29.2200574296
 20
53.0734135305
 30
0.0
 10
29.2366033854
 20
53.2806115905
 30
0.0
 10
29.3203333867
 20
53.5651211818
 30
0.0
 10
29.4407409174
 20
53.7614284505
 30
0.0
 10
29.5622937696
 20
53.8810260267
 30
0.0
 10
29.6300798859
 20
53.9283503504
 30
0.0
 10
29.6653571203
 20
53.9486969465
 30
0.0
  0
SPLINE
  5
309
100
AcDbEntity
  8
0
100
AcDbSpline
 62
7
  6
BYLAYER
 70
0
 71
3
 72
15
 73
11
 74
0
 42
0.0000001
 43
0.0000001
 44
0.0000000001
 40
0.0
 40
0.0
 40
0.0
 40
0.0
 40
0.1141232787
 40
0.2373467935
 40
0.3669716251
 40
0.4999988493
 40
0.6330262331
 40
0.7626515288
 40
0.885875802
 40
1.0
 40
1.0
 40
1.0
 40
1.0
 10
30.7403433387
 20
50.3312748971
 30
0.0
 10
30.6362966543
 20
50.3913449193
 30
0.0
 10
30.4307396884
 20
50.5354933602
 30
0.0
 10
30.1478454241
 20
50.8000649765
 30
0.0
 10
29.8872013912
 20
51.1129309685
 30
0.0
 10
29.6585213855
 20
51.462147073
 30
0.0
 10
29.4704293406
 20
51.8347973387
 30
0.0
 10
29.3297989082
 20
52.2169552913
 30
0.0
 10
29.2421174026
 20
52.5942363443
 30
0.0
 10
29.2200574296
 20
52.8443296654
 30
0.0
 10
29.2200574296
 20
52.9644727161
 30
0.0
  0
SPLINE
  5
30A
100
AcDbEntity
  8
0
100
AcDbSpline
 62
7
  6
BYLAYER
 70
0
 71
3
 72
11
 73
7
 74
0
 42
0.0000001
 43
0.0000001
 44
0.0000000001
 40
0.0
 40
0.0
 40
0.0
 40
0.0
 40
0.2799442851
 40
0.5414944602
 40
0.7817216338
 40
1.0
 40
1.0
 40
1.0
 40
1.0
 10
20.9134655378
 20
55.1104832872
 30
0.0
 10
20.8141691597
 20
55.2084187692
 30
0.0
 10
20.6114666398
 20
55.3875180099
 30
0.0
 10
20.2889289611
 20
55.6078484033
 30
0.0
 10
19.9653518496
 20
55.7658356162
 30
0.0
 10
19.7441303155
 20
55.8293875274
 30
0.0
 10
19.6369023928
 20
55.8474918769
 30
0.0
  0
SPLINE
  5
30B
100
AcDbEntity
  8
0
100
AcDbSpline
 62
7
  6
BYLAYER
 70
0
 71
3
 72
12
 73
8
 74
0
 42
0.0000001
 43
0.0000001
 44
0.0000000001
 40
0.0
 40
0.0
 40
0.0
 40
0.0
 40
0.2894832083
 40
0.5486755374
 40
0.7816290778
 40
0.8918324007
 40
1.0
 40
1.0
 40
1.0
 40
1.0
 10
29.9271671548
 20
54.1892367959
 30
0.0
 10
29.9271671548
 20
54.2981729226
 30
0.0
 10
29.9437357105
 20
54.5053757438
 30
0.0
 10
30.0274263707
 20
54.7899120944
 30
0.0
 10
30.1478730943
 20
54.9862350179
 30
0.0
 10
30.2694635996
 20
55.1057749514
 30
0.0
 10
30.3372116291
 20
55.1531152478
 30
0.0
 10
30.3724615442
 20
55.1734702259
 30
0.0
  0
SPLINE
  5
30C
100
AcDbEntity
  8
0
100
AcDbSpline
 62
7
  6
BYLAYER
 70
0
 71
3
 72
12
 73
8
 74
0
 42
0.0000001
 43
0.0000001
 44
0.0000000001
 40
0.0
 40
0.0
 40
0.0
 40
0.0
 40
0.2894832083
 40
0.5486755374
 40
0.7816290778
 40
0.8918324007
 40
1.0
 40
1.0
 40
1.0
 40
1.0
 10
14.3707532016
 20
63.1705333953
 30
0.0
 10
14.3707532016
 20
63.2794695221
 30
0.0
 10
14.3873217573
 20
63.4866723433
 30
0.0
 10
14.4710124175
 20
63.7712086939
 30
0.0
 10
14.591459141
 20
63.9675316173
 30
0.0
 10
14.7130496464
 20
64.0870715509
 30
0.0
 10
14.7807976759
 20
64.1344118473
 30
0.0
 10
14.816047591
 20
64.1547668254
 30
0.0
  0
SPLINE
  5
30D
100
AcDbEntity
  8
0
100
AcDbSpline
 62
7
  6
BYLAYER
 70
0
 71
3
 72
15
 73
11
 74
0
 42
0.0000001
 43
0.0000001
 44
0.0000000001
 40
0.0
 40
0.0
 40
0.0
 40
0.0
 40
0.1141232787
 40
0.2373467935
 40
0.3669716251
 40
0.4999988493
 40
0.6330262331
 40
0.7626515288
 40
0.885875802
 40
1.0
 40
1.0
 40
1.0
 40
1.0
 10
15.8910391106
 20
58.904330742
 30
0.0
 10
15.7869924262
 20
58.9644007643
 30
0.0
 10
15.5814354603
 20
59.1085492052
 30
0.0
 10
15.298541196
 20
59.3731208214
 30
0.0
 10
15.0378971631
 20
59.6859868135
 30
0.0
 10
14.8092171575
 20
60.035202918
 30
0.0
 10
14.6211251125
 20
60.4078531836
 30
0.0
 10
14.4804946801
 20
60.7900111362
 30
0.0
 10
14.3928131745
 20
61.1672921892
 30
0.0
 10
14.3707532016
 20
61.4173855103
 30
0.0
 10
14.3707532016
 20
61.537528561
 30
0.0
  0
SPLINE
  5
30E
100
AcDbEntity
  8
0
100
AcDbSpline
 62
7
  6
BYLAYER
 70
0
 71
3
 72
16
 73
12
 74
0
 42
0.0000001
 43
0.0000001
 44
0.0000000001
 40
0.0
 40
0.0
 40
0.0
 40
0.0
 40
0.0940667408
 40
0.1460500005
 40
0.2013182789
 40
0.3210627492
 40
0.4511432346
 40
0.5880780413
 40
0.7278422932
 40
0.8664267627
 40
1.0
 40
1.0
 40
1.0
 40
1.0
 10
21.824184395
 20
51.3358798792
 30
0.0
 10
21.8890036035
 20
51.4467019157
 30
0.0
 10
21.9626271325
 20
51.6351206922
 30
0.0
 10
22.0196026875
 20
51.904060532
 30
0.0
 10
22.0534958772
 20
52.2125411213
 30
0.0
 10
22.0432027699
 20
52.6307292954
 30
0.0
 10
21.9551986038
 20
53.1527073951
 30
0.0
 10
21.7936815609
 20
53.6853845762
 30
0.0
 10
21.5637419053
 20
54.2050387394
 30
0.0
 10
21.2728531443
 20
54.6878627705
 30
0.0
 10
21.0387061395
 20
54.9782658964
 30
0.0
 10
20.9133042437
 20
55.1105913666
 30
0.0
  0
SPLINE
  5
30F
100
AcDbEntity
  8
0
100
AcDbSpline
 62
7
  6
BYLAYER
 70
0
 71
3
 72
9
 73
5
 74
0
 42
0.0000001
 43
0.0000001
 44
0.0000000001
 40
0.0
 40
0.0
 40
0.0
 40
0.0
 40
0.2440521163
 40
1.0
 40
1.0
 40
1.0
 40
1.0
 10
21.6951596037
 20
51.157755101
 30
0.0
 10
21.7071276614
 20
51.1710796744
 30
0.0
 10
21.7546831287
 20
51.2270023298
 30
0.0
 10
21.7961736717
 20
51.2879937157
 30
0.0
 10
21.8241826264
 20
51.3358809003
 30
0.0
  0
SPLINE
  5
310
100
AcDbEntity
  8
0
100
AcDbSpline
 62
7
  6
BYLAYER
 70
0
 71
3
 72
11
 73
7
 74
0
 42
0.0000001
 43
0.0000001
 44
0.0000000001
 40
0.0
 40
0.0
 40
0.0
 40
0.0
 40
0.2308081517
 40
0.4771078743
 40
0.7350956649
 40
1.0
 40
1.0
 40
1.0
 40
1.0
 10
21.1754181257
 20
60.8287922559
 30
0.0
 10
20.8430184201
 20
61.0350225836
 30
0.0
 10
20.1869368029
 20
61.5125464998
 30
0.0
 10
19.2751774729
 20
62.3653445747
 30
0.0
 10
18.4247627732
 20
63.3565398638
 30
0.0
 10
17.9183773707
 20
64.0859475321
 30
0.0
 10
17.6808128106
 20
64.4669106463
 30
0.0
  0
SPLINE
  5
311
100
AcDbEntity
  8
0
100
AcDbSpline
 62
7
  6
BYLAYER
 70
0
 71
3
 72
14
 73
10
 74
0
 42
0.0000001
 43
0.0000001
 44
0.0000000001
 40
0.0
 40
0.0
 40
0.0
 40
0.0
 40
0.107318906
 40
0.2175843559
 40
0.3321626882
 40
0.4522355467
 40
0.7117431792
 40
0.8523741622
 40
1.0
 40
1.0
 40
1.0
 40
1.0
 10
29.6576793638
 20
57.5522199489
 30
0.0
 10
29.5284359116
 20
57.494196762
 30
0.0
 10
29.2564456429
 20
57.397605035
 30
0.0
 10
28.8241546309
 20
57.3155042164
 30
0.0
 10
28.3677621914
 20
57.2956803734
 30
0.0
 10
27.7164422843
 20
57.3532203159
 30
0.0
 10
27.0484834971
 20
57.5382500727
 30
0.0
 10
26.3849483515
 20
57.8266709002
 30
0.0
 10
26.0498033774
 20
58.0081541686
 30
0.0
 10
25.8821514462
 20
58.107506079
 30
0.0
  0
SPLINE
  5
312
100
AcDbEntity
  8
0
100
AcDbSpline
 62
7
  6
BYLAYER
 70
0
 71
3
 72
9
 73
5
 74
0
 42
0.0000001
 43
0.0000001
 44
0.0000000001
 40
0.0
 40
0.0
 40
0.0
 40
0.0
 40
0.5040958853
 40
1.0
 40
1.0
 40
1.0
 40
1.0
 10
21.6951609558
 20
51.1577543204
 30
0.0
 10
21.662666909
 20
51.1218896862
 30
0.0
 10
21.5928446321
 20
51.0553851783
 30
0.0
 10
21.5134233355
 20
51.0006365491
 30
0.0
 10
21.4721928874
 20
50.9768314582
 30
0.0
  0
SPLINE
  5
313
100
AcDbEntity
  8
0
100
AcDbSpline
 62
7
  6
BYLAYER
 70
0
 71
3
 72
11
 73
7
 74
0
 42
0.0000001
 43
0.0000001
 44
0.0000000001
 40
0.0
 40
0.0
 40
0.0
 40
0.0
 40
0.2390693736
 40
0.4827001994
 40
0.7352562033
 40
1.0
 40
1.0
 40
1.0
 40
1.0
 10
15.3301576863
 20
54.1210418178
 30
0.0
 10
15.2596396522
 20
54.0803321328
 30
0.0
 10
15.1098011207
 20
54.0103721361
 30
0.0
 10
14.8671107594
 20
53.9442618104
 30
0.0
 10
14.6083717049
 20
53.9169800249
 30
0.0
 10
14.4316731808
 20
53.9244137433
 30
0.0
 10
14.3420157199
 20
53.9340120225
 30
0.0
  0
SPLINE
  5
314
100
AcDbEntity
  8
0
100
AcDbSpline
 62
7
  6
BYLAYER
 70
0
 71
3
 72
21
 73
17
 74
0
 42
0.0000001
 43
0.0000001
 44
0.0000000001
 40
0.0
 40
0.0
 40
0.0
 40
0.0
 40
0.1644041739
 40
0.3169796475
 40
0.3875681377
 40
0.4539016047
 40
0.5159002901
 40
0.573779432
 40
0.6280412842
 40
0.6795398408
 40
0.7294219045
 40
0.7790528871
 40
0.8298284449
 40
0.8829914816
 40
0.9395060357
 40
1.0
 40
1.0
 40
1.0
 40
1.0
 10
20.4701442044
 20
54.1407765643
 30
0.0
 10
20.357818543
 20
54.2858862457
 30
0.0
 10
20.1215166876
 20
54.5511022702
 30
0.0
 10
19.7849101981
 20
54.8266286356
 30
0.0
 10
19.5072189653
 20
54.9928708383
 30
0.0
 10
19.3051060315
 20
55.0859817127
 30
0.0
 10
19.1064738877
 20
55.1491772558
 30
0.0
 10
18.9140696137
 20
55.1816090758
 30
0.0
 10
18.730508309
 20
55.182296136
 30
0.0
 10
18.5585069551
 20
55.1510830044
 30
0.0
 10
18.4009696906
 20
55.0878275847
 30
0.0
 10
18.2606577602
 20
54.9936727696
 30
0.0
 10
18.1401326503
 20
54.8701949171
 30
0.0
 10
18.0410229028
 20
54.7198490187
 30
0.0
 10
17.9646200709
 20
54.5450995189
 30
0.0
 10
17.9304819491
 20
54.4185347116
 30
0.0
 10
17.9169933858
 20
54.3523736311
 30
0.0
  0
SPLINE
  5
315
100
AcDbEntity
  8
0
100
AcDbSpline
 62
7
  6
BYLAYER
 70
0
 71
3
 72
9
 73
5
 74
0
 42
0.0000001
 43
0.0000001
 44
0.0000000001
 40
0.0
 40
0.0
 40
0.0
 40
0.0
 40
0.2392807513
 40
1.0
 40
1.0
 40
1.0
 40
1.0
 10
17.9169933858
 20
54.3523736311
 30
0.0
 10
17.9106887484
 20
54.3214495355
 30
0.0
 10
17.8881423368
 20
54.1914433538
 30
0.0
 10
17.8801682382
 20
54.0590974469
 30
0.0
 10
17.8806462348
 20
53.9587625802
 30
0.0
  0
SPLINE
  5
316
100
AcDbEntity
  8
0
100
AcDbSpline
 62
7
  6
BYLAYER
 70
0
 71
3
 72
9
 73
5
 74
0
 42
0.0000001
 43
0.0000001
 44
0.0000000001
 40
0.0
 40
0.0
 40
0.0
 40
0.0
 40
0.2383511807
 40
1.0
 40
1.0
 40
1.0
 40
1.0
 10
17.8806462348
 20
53.9587625802
 30
0.0
 10
17.8808834836
 20
53.9089623733
 30
0.0
 10
17.8887137892
 20
53.7000725067
 30
0.0
 10
17.9221660214
 20
53.4924980835
 30
0.0
 10
17.9585939875
 20
53.3375856407
 30
0.0
  0
SPLINE
  5
317
100
AcDbEntity
  8
0
100
AcDbSpline
 62
7
  6
BYLAYER
 70
0
 71
3
 72
9
 73
5
 74
0
 42
0.0000001
 43
0.0000001
 44
0.0000000001
 40
0.0
 40
0.0
 40
0.0
 40
0.0
 40
0.2456125877
 40
1.0
 40
1.0
 40
1.0
 40
1.0
 10
17.9585939875
 20
53.3375856407
 30
0.0
 10
17.9661354182
 20
53.3055151854
 30
0.0
 10
17.998807765
 20
53.1754095487
 30
0.0
 10
18.0390776307
 20
53.0472352108
 30
0.0
 10
18.0732149217
 20
52.9519776938
 30
0.0
  0
SPLINE
  5
318
100
AcDbEntity
  8
0
100
AcDbSpline
 62
7
  6
BYLAYER
 70
0
 71
3
 72
11
 73
7
 74
0
 42
0.0000001
 43
0.0000001
 44
0.0000000001
 40
0.0
 40
0.0
 40
0.0
 40
0.0
 40
0.2274688269
 40
0.4754924874
 40
0.736192029
 40
1.0
 40
1.0
 40
1.0
 40
1.0
 10
43.847777641
 20
14.0815721357
 30
0.0
 10
43.8061873028
 20
14.0576981139
 30
0.0
 10
43.7245023259
 20
13.9984397311
 30
0.0
 10
43.6148972392
 20
13.8877898356
 30
0.0
 10
43.5177635052
 20
13.7564257721
 30
0.0
 10
43.4642848881
 20
13.6591894448
 30
0.0
 10
43.4409211958
 20
13.608718287
 30
0.0
  0
SPLINE
  5
319
100
AcDbEntity
  8
0
100
AcDbSpline
 62
7
  6
BYLAYER
 70
0
 71
3
 72
14
 73
10
 74
0
 42
0.0000001
 43
0.0000001
 44
0.0000000001
 40
0.0
 40
0.0
 40
0.0
 40
0.0
 40
0.2953958043
 40
0.4340768081
 40
0.564788509
 40
0.6866642733
 40
0.7993962368
 40
0.903394165
 40
1.0
 40
1.0
 40
1.0
 40
1.0
 10
20.8565151614
 20
54.4116364652
 30
0.0
 10
20.7122666912
 20
54.5996047484
 30
0.0
 10
20.4772733014
 20
54.8598451949
 30
0.0
 10
20.1279880844
 20
55.149266217
 30
0.0
 10
19.865915337
 20
55.3231841509
 30
0.0
 10
19.6033622563
 20
55.4550930755
 30
0.0
 10
19.3450158306
 20
55.5422754794
 30
0.0
 10
19.0957282935
 20
55.5828199067
 30
0.0
 10
18.9335129612
 20
55.5774847281
 30
0.0
 10
18.8568645703
 20
55.5661091546
 30
0.0
  0
SPLINE
  5
31A
100
AcDbEntity
  8
0
100
AcDbSpline
 62
7
  6
BYLAYER
 70
0
 71
3
 72
9
 73
5
 74
0
 42
0.0000001
 43
0.0000001
 44
0.0000000001
 40
0.0
 40
0.0
 40
0.0
 40
0.0
 40
0.5051771292
 40
1.0
 40
1.0
 40
1.0
 40
1.0
 10
18.8184172264
 20
55.5596402713
 30
0.0
 10
18.7670197155
 20
55.5499578291
 30
0.0
 10
18.6666037316
 20
55.5226636178
 30
0.0
 10
18.5722199089
 20
55.4787066059
 30
0.0
 10
18.5278541101
 20
55.4530912677
 30
0.0
  0
ELLIPSE
  5
31B
100
AcDbEntity
  8
0
100
AcDbEllipse
 62
7
  6
BYLAYER
 10
39.6101557459
 20
68.5591431041
 30
0.0
 11
25.4331273566
 21
24.0595574677
 31
0.0
 40
0.2821882068
 41
-3.8431290138
 42
-3.8338977385
  0
ELLIPSE
  5
31C
100
AcDbEntity
  8
0
100
AcDbEllipse
 62
7
  6
BYLAYER
 10
48.25786409
 20
63.5664993125
 30
0.0
 11
-3.0218355144
 21
36.5850515415
 31
0.0
 40
0.7147285717
 41
-4.3868786138
 42
-4.3776473385
  0
ENDSEC
  0
SECTION
  2
OBJECTS
  0
DICTIONARY
  5
C
100
AcDbDictionary
280
0
281
1
  3
ACAD_GROUP
350
D
  3
ACAD_MLINESTYLE
350
17
  3
ACAD_LAYOUT
350
1A
  3
ACAD_PLOTSETTINGS
350
19
  3
ACAD_PLOTSTYLENAME
350
E
  0
DICTIONARY
  5
D
102
{ACAD_REACTORS
330
C
102
}
100
AcDbDictionary
280
0
281
1
  0
ACDBDICTIONARYWDFLT
  5
E
102
{ACAD_REACTORS
330
C
102
}
100
AcDbDictionary
281
1
  3
Normal
350
F
100
AcDbDictionaryWithDefault
340
F
  0
DICTIONARY
  5
17
102
{ACAD_REACTORS
330
C
102
}
100
AcDbDictionary
280
0
281
1
  3
Standard
350
18
  0
DICTIONARY
  5
19
102
{ACAD_REACTORS
330
C
102
}
100
AcDbDictionary
281
1
  0
DICTIONARY
  5
1A
102
{ACAD_REACTORS
330
C
102
}
100
AcDbDictionary
281
1
  3
Model
350
31D
  3
Layout1
350
31E
  0
ACDBPLACEHOLDER
  5
F
102
{ACAD_REACTORS
330
E
102
}
  0
MLINESTYLE
  5
18
102
{ACAD_REACTORS
330
17
102
}
100
AcDbMlineStyle
  2
STANDARD
 70
0
  3

 62
256
 51
90.0
 52
90.0
 71
2
 49
0.5
 62
256
  6
BYLAYER
 49
-0.5
 62
256
  6
BYLAYER
  0
LAYOUT
  5
31D
102
{ACAD_REACTORS
330
1A
102
}
100
AcDbPlotSettings
  1

  2
none_device
  4

  6

 40
0.0
 41
0.0
 42
0.0
 43
0.0
 44
210.0
 45
297.0
 46
0.0
 47
0.0
 48
0.0
 49
0.0
140
0.0
141
0.0
142
1.0
143
1.0
 70
1024
 72
1
 73
0
 74
0
  7

 75
0
147
1.0
148
0.0
149
0.0
100
AcDbLayout
  1
Model
 70
0
 71
0
 10
0.0
 20
0.0
 11
210.0
 21
297.0
 12
0.0
 22
0.0
 32
0.0
 14
0.0
 24
0.0
 34
0.0
 15
0.0
 25
0.0
 35
0.0
146
0.0
 13
0.0
 23
0.0
 33
0.0
 16
1.0
 26
0.0
 36
0.0
 17
0.0
 27
1.0
 37
0.0
 76
0
330
210
345
0
346
0
  0
LAYOUT
  5
31E
102
{ACAD_REACTORS
330
1A
102
}
100
AcDbPlotSettings
  1

  2
none_device
  4

  6

 40
0.0
 41
0.0
 42
0.0
 43
0.0
 44
210.0
 45
297.0
 46
0.0
 47
0.0
 48
0.0
 49
0.0
140
0.0
141
0.0
142
1.0
143
1.0
 70
0
 72
1
 73
0
 74
0
  7

 75
0
147
1.0
148
0.0
149
0.0
100
AcDbLayout
  1
Layout1
 70
0
 71
1
 10
0.0
 20
0.0
 11
210.0
 21
297.0
 12
0.0
 22
0.0
 32
0.0
 14
0.0
 24
0.0
 34
0.0
 15
0.0
 25
0.0
 35
0.0
146
0.0
 13
0.0
 23
0.0
 33
0.0
 16
1.0
 26
0.0
 36
0.0
 17
0.0
 27
1.0
 37
0.0
 76
0
330
211
345
0
346
0
  0
ENDSEC
  0
EOF
