  0
SECTION
  2
HEADER
  9
$ACADVER
  1
AC1006
  9
$EXTMIN
 10
-2.435000
 20
-4.129528
  9
$EXTMAX
 10
2.432000
 20
4.131000
  9
$LTSCALE
 40
0.000394
  9
$PDMODE
 70
    35
  9
$PDSIZE
 40
0.000315
  0
ENDSEC
  0
SECTION
  2
TABLES
  0
TABLE
  2
LTYPE
 70
     9
  0
LTYPE
  2
CONTINUOUS
 70
    64
  3
Solid line
 72
    65
 73
     0
 40
0.000000
  0
LTYPE
  2
DASHED
 70
    64
  3
__ __ __ __ __ __ __ __ __ __ __ __ __ __ __
 72
    65
 73
     2
 40
0.000003
 49
0.000002
 49
-0.000001
  0
LTYPE
  2
HIDDEN
 70
    64
  3
 _ _ _ _ _ _ _ _ _ _ _ _ _ _ _ _ _ _ _ _ _ _
 72
    65
 73
     2
 40
0.000001
 49
0.000001
 49
-0.000000
  0
LTYPE
  2
CENTER
 70
    64
  3
____ _ ____ _ ____ _ ____ _ ____ _ ____ _ ____
 72
    65
 73
     4
 40
0.000008
 49
0.000005
 49
-0.000001
 49
0.000001
 49
-0.000001
  0
LTYPE
  2
PHANTOM
 70
    64
  3
_____ _ _ _____ _ _ _____ _ _ _____ _ _ ____
 72
    65
 73
     6
 40
0.000010
 49
0.000005
 49
-0.000001
 49
0.000001
 49
-0.000001
 49
0.000001
 49
-0.000001
  0
LTYPE
  2
DOT
 70
    64
  3
...............................................
 72
    65
 73
     2
 40
0.000001
 49
0.000000
 49
-0.000001
  0
LTYPE
  2
DASHDOT
 70
    64
  3
__ . __ . __ . __ . __ . __ . __ . __ . __ . __
 72
    65
 73
     4
 40
0.000004
 49
0.000002
 49
-0.000001
 49
0.000000
 49
-0.000001
  0
LTYPE
  2
BORDER
 70
    64
  3
__ __ . __ __ . __ __ . __ __ . __ __ . __ __
 72
    65
 73
     6
 40
0.000007
 49
0.000002
 49
-0.000001
 49
0.000002
 49
-0.000001
 49
0.000000
 49
-0.000001
  0
LTYPE
  2
DIVIDE
 70
    64
  3
__ . . __ . . __ . . __ . . __ . . __ . . __
 72
    65
 73
     6
 40
0.000005
 49
0.000002
 49
-0.000001
 49
0.000000
 49
-0.000001
 49
0.000000
 49
-0.000001
  0
LTYPE
  2
DOTDOT
 70
    64
  3
 . .  . .  . .  . .  . .  . . 
 72
    65
 73
     5
 40
0.000002
 49
-0.000001
 49
0.000000
 49
-0.000001
 49
0.000000
 49
-0.000001
  0
ENDTAB
  0
TABLE
  2
STYLE
 70
     0
  0
ENDTAB
  0
TABLE
  2
LAYER
 70
     3
  0
LAYER
  2
FOREGROUND
 70
    64
 62
     7
  6
CONTINUOUS
  0
LAYER
  2
BACKGROUND
 70
    65
 62
    -7
  6
CONTINUOUS
  0
LAYER
  2
PLAN_1
 70
    64
 62
     7
  6
CONTINUOUS
  0
ENDTAB
  0
ENDSEC
  0
SECTION
  2
ENTITIES
  0
POLYLINE
  8
PLAN_1
  6
CONTINUOUS
 66
     1
 40
0.003000
 41
0.003000
  0
VERTEX
  8
PLAN_1
  6
CONTINUOUS
 10
0.367902
 20
-4.124366
  0
VERTEX
  8
PLAN_1
  6
CONTINUOUS
 10
0.334858
 20
-4.124366
  0
VERTEX
  8
PLAN_1
  6
CONTINUOUS
 10
0.281165
 20
-4.042276
  0
VERTEX
  8
PLAN_1
  6
CONTINUOUS
 10
0.225921
 20
-4.124366
  0
VERTEX
  8
PLAN_1
  6
CONTINUOUS
 10
0.193398
 20
-4.124366
  0
VERTEX
  8
PLAN_1
  6
CONTINUOUS
 10
0.264646
 20
-4.022142
  0
VERTEX
  8
PLAN_1
  6
CONTINUOUS
 10
0.198043
 20
-3.925079
  0
VERTEX
  8
PLAN_1
  6
CONTINUOUS
 10
0.231602
 20
-3.925079
  0
VERTEX
  8
PLAN_1
  6
CONTINUOUS
 10
0.282197
 20
-4.001488
  0
VERTEX
  8
PLAN_1
  6
CONTINUOUS
 10
0.332791
 20
-3.925079
  0
VERTEX
  8
PLAN_1
  6
CONTINUOUS
 10
0.364803
 20
-3.925079
  0
VERTEX
  8
PLAN_1
  6
CONTINUOUS
 10
0.298201
 20
-4.022142
  0
VERTEX
  8
PLAN_1
  6
CONTINUOUS
 10
0.367902
 20
-4.124366
  0
SEQEND
  8
0
  0
POLYLINE
  8
PLAN_1
  6
CONTINUOUS
 66
     1
 40
0.003000
 41
0.003000
  0
VERTEX
  8
PLAN_1
  6
CONTINUOUS
 10
0.534142
 20
-3.984969
  0
VERTEX
  8
PLAN_1
  6
CONTINUOUS
 10
0.532594
 20
-3.978776
  0
VERTEX
  8
PLAN_1
  6
CONTINUOUS
 10
0.530531
 20
-3.973094
  0
VERTEX
  8
PLAN_1
  6
CONTINUOUS
 10
0.527949
 20
-3.967933
  0
VERTEX
  8
PLAN_1
  6
CONTINUOUS
 10
0.525366
 20
-3.963803
  0
VERTEX
  8
PLAN_1
  6
CONTINUOUS
 10
0.521752
 20
-3.959669
  0
VERTEX
  8
PLAN_1
  6
CONTINUOUS
 10
0.518654
 20
-3.956575
  0
VERTEX
  8
PLAN_1
  6
CONTINUOUS
 10
0.514524
 20
-3.953476
  0
VERTEX
  8
PLAN_1
  6
CONTINUOUS
 10
0.510909
 20
-3.950894
  0
VERTEX
  8
PLAN_1
  6
CONTINUOUS
 10
0.506780
 20
-3.949346
  0
VERTEX
  8
PLAN_1
  6
CONTINUOUS
 10
0.502650
 20
-3.947280
  0
VERTEX
  8
PLAN_1
  6
CONTINUOUS
 10
0.498520
 20
-3.946248
  0
VERTEX
  8
PLAN_1
  6
CONTINUOUS
 10
0.494390
 20
-3.945217
  0
VERTEX
  8
PLAN_1
  6
CONTINUOUS
 10
0.486130
 20
-3.943665
  0
VERTEX
  8
PLAN_1
  6
CONTINUOUS
 10
0.478386
 20
-3.943665
  0
VERTEX
  8
PLAN_1
  6
CONTINUOUS
 10
0.471673
 20
-3.943665
  0
VERTEX
  8
PLAN_1
  6
CONTINUOUS
 10
0.465476
 20
-3.944701
  0
VERTEX
  8
PLAN_1
  6
CONTINUOUS
 10
0.459283
 20
-3.946248
  0
VERTEX
  8
PLAN_1
  6
CONTINUOUS
 10
0.453087
 20
-3.948311
  0
VERTEX
  8
PLAN_1
  6
CONTINUOUS
 10
0.447409
 20
-3.951409
  0
VERTEX
  8
PLAN_1
  6
CONTINUOUS
 10
0.442244
 20
-3.954508
  0
VERTEX
  8
PLAN_1
  6
CONTINUOUS
 10
0.437083
 20
-3.958638
  0
VERTEX
  8
PLAN_1
  6
CONTINUOUS
 10
0.432437
 20
-3.963283
  0
VERTEX
  8
PLAN_1
  6
CONTINUOUS
 10
0.428307
 20
-3.968449
  0
VERTEX
  8
PLAN_1
  6
CONTINUOUS
 10
0.424693
 20
-3.974642
  0
VERTEX
  8
PLAN_1
  6
CONTINUOUS
 10
0.421079
 20
-3.980839
  0
VERTEX
  8
PLAN_1
  6
CONTINUOUS
 10
0.418496
 20
-3.988067
  0
VERTEX
  8
PLAN_1
  6
CONTINUOUS
 10
0.416429
 20
-3.995811
  0
VERTEX
  8
PLAN_1
  6
CONTINUOUS
 10
0.414882
 20
-4.004071
  0
VERTEX
  8
PLAN_1
  6
CONTINUOUS
 10
0.413850
 20
-4.013366
  0
VERTEX
  8
PLAN_1
  6
CONTINUOUS
 10
0.413335
 20
-4.022657
  0
VERTEX
  8
PLAN_1
  6
CONTINUOUS
 10
0.413335
 20
-4.031433
  0
VERTEX
  8
PLAN_1
  6
CONTINUOUS
 10
0.414366
 20
-4.039697
  0
VERTEX
  8
PLAN_1
  6
CONTINUOUS
 10
0.415398
 20
-4.047957
  0
VERTEX
  8
PLAN_1
  6
CONTINUOUS
 10
0.416949
 20
-4.055185
  0
VERTEX
  8
PLAN_1
  6
CONTINUOUS
 10
0.418496
 20
-4.062929
  0
VERTEX
  8
PLAN_1
  6
CONTINUOUS
 10
0.421079
 20
-4.069638
  0
VERTEX
  8
PLAN_1
  6
CONTINUOUS
 10
0.424177
 20
-4.075835
  0
VERTEX
  8
PLAN_1
  6
CONTINUOUS
 10
0.427787
 20
-4.081516
  0
VERTEX
  8
PLAN_1
  6
CONTINUOUS
 10
0.431921
 20
-4.087193
  0
VERTEX
  8
PLAN_1
  6
CONTINUOUS
 10
0.436567
 20
-4.091839
  0
VERTEX
  8
PLAN_1
  6
CONTINUOUS
 10
0.442244
 20
-4.095969
  0
VERTEX
  8
PLAN_1
  6
CONTINUOUS
 10
0.448441
 20
-4.099067
  0
VERTEX
  8
PLAN_1
  6
CONTINUOUS
 10
0.455154
 20
-4.102165
  0
VERTEX
  8
PLAN_1
  6
CONTINUOUS
 10
0.462382
 20
-4.104232
  0
VERTEX
  8
PLAN_1
  6
CONTINUOUS
 10
0.470642
 20
-4.105264
  0
VERTEX
  8
PLAN_1
  6
CONTINUOUS
 10
0.479417
 20
-4.105780
  0
VERTEX
  8
PLAN_1
  6
CONTINUOUS
 10
0.486646
 20
-4.105264
  0
VERTEX
  8
PLAN_1
  6
CONTINUOUS
 10
0.494390
 20
-4.103713
  0
VERTEX
  8
PLAN_1
  6
CONTINUOUS
 10
0.498520
 20
-4.102165
  0
VERTEX
  8
PLAN_1
  6
CONTINUOUS
 10
0.502650
 20
-4.100618
  0
VERTEX
  8
PLAN_1
  6
CONTINUOUS
 10
0.506780
 20
-4.098551
  0
VERTEX
  8
PLAN_1
  6
CONTINUOUS
 10
0.510909
 20
-4.095453
  0
VERTEX
  8
PLAN_1
  6
CONTINUOUS
 10
0.515039
 20
-4.092354
  0
VERTEX
  8
PLAN_1
  6
CONTINUOUS
 10
0.518654
 20
-4.088740
  0
VERTEX
  8
PLAN_1
  6
CONTINUOUS
 10
0.522783
 20
-4.084094
  0
VERTEX
  8
PLAN_1
  6
CONTINUOUS
 10
0.525882
 20
-4.078933
  0
VERTEX
  8
PLAN_1
  6
CONTINUOUS
 10
0.528980
 20
-4.073252
  0
VERTEX
  8
PLAN_1
  6
CONTINUOUS
 10
0.532079
 20
-4.066543
  0
VERTEX
  8
PLAN_1
  6
CONTINUOUS
 10
0.534142
 20
-4.059315
  0
VERTEX
  8
PLAN_1
  6
CONTINUOUS
 10
0.536209
 20
-4.051055
  0
VERTEX
  8
PLAN_1
  6
CONTINUOUS
 10
0.562539
 20
-4.051055
  0
VERTEX
  8
PLAN_1
  6
CONTINUOUS
 10
0.560992
 20
-4.057764
  0
VERTEX
  8
PLAN_1
  6
CONTINUOUS
 10
0.559957
 20
-4.064476
  0
VERTEX
  8
PLAN_1
  6
CONTINUOUS
 10
0.557894
 20
-4.070157
  0
VERTEX
  8
PLAN_1
  6
CONTINUOUS
 10
0.555827
 20
-4.075835
  0
VERTEX
  8
PLAN_1
  6
CONTINUOUS
 10
0.553764
 20
-4.080996
  0
VERTEX
  8
PLAN_1
  6
CONTINUOUS
 10
0.551697
 20
-4.086161
  0
VERTEX
  8
PLAN_1
  6
CONTINUOUS
 10
0.549114
 20
-4.090807
  0
VERTEX
  8
PLAN_1
  6
CONTINUOUS
 10
0.546020
 20
-4.094937
  0
VERTEX
  8
PLAN_1
  6
CONTINUOUS
 10
0.543437
 20
-4.099067
  0
VERTEX
  8
PLAN_1
  6
CONTINUOUS
 10
0.540339
 20
-4.102681
  0
VERTEX
  8
PLAN_1
  6
CONTINUOUS
 10
0.537240
 20
-4.105780
  0
VERTEX
  8
PLAN_1
  6
CONTINUOUS
 10
0.533626
 20
-4.108878
  0
VERTEX
  8
PLAN_1
  6
CONTINUOUS
 10
0.526917
 20
-4.114039
  0
VERTEX
  8
PLAN_1
  6
CONTINUOUS
 10
0.520205
 20
-4.118685
  0
VERTEX
  8
PLAN_1
  6
CONTINUOUS
 10
0.513492
 20
-4.121783
  0
VERTEX
  8
PLAN_1
  6
CONTINUOUS
 10
0.506264
 20
-4.124366
  0
VERTEX
  8
PLAN_1
  6
CONTINUOUS
 10
0.500071
 20
-4.126429
  0
VERTEX
  8
PLAN_1
  6
CONTINUOUS
 10
0.493358
 20
-4.127980
  0
VERTEX
  8
PLAN_1
  6
CONTINUOUS
 10
0.483031
 20
-4.129012
  0
VERTEX
  8
PLAN_1
  6
CONTINUOUS
 10
0.475287
 20
-4.129528
  0
VERTEX
  8
PLAN_1
  6
CONTINUOUS
 10
0.466512
 20
-4.129012
  0
VERTEX
  8
PLAN_1
  6
CONTINUOUS
 10
0.458252
 20
-4.127980
  0
VERTEX
  8
PLAN_1
  6
CONTINUOUS
 10
0.449988
 20
-4.126429
  0
VERTEX
  8
PLAN_1
  6
CONTINUOUS
 10
0.442244
 20
-4.123850
  0
VERTEX
  8
PLAN_1
  6
CONTINUOUS
 10
0.434500
 20
-4.120236
  0
VERTEX
  8
PLAN_1
  6
CONTINUOUS
 10
0.426756
 20
-4.116106
  0
VERTEX
  8
PLAN_1
  6
CONTINUOUS
 10
0.420043
 20
-4.110941
  0
VERTEX
  8
PLAN_1
  6
CONTINUOUS
 10
0.413335
 20
-4.105264
  0
VERTEX
  8
PLAN_1
  6
CONTINUOUS
 10
0.410236
 20
-4.102165
  0
VERTEX
  8
PLAN_1
  6
CONTINUOUS
 10
0.407654
 20
-4.098551
  0
VERTEX
  8
PLAN_1
  6
CONTINUOUS
 10
0.404555
 20
-4.094937
  0
VERTEX
  8
PLAN_1
  6
CONTINUOUS
 10
0.401976
 20
-4.090807
  0
VERTEX
  8
PLAN_1
  6
CONTINUOUS
 10
0.399394
 20
-4.086677
  0
VERTEX
  8
PLAN_1
  6
CONTINUOUS
 10
0.397327
 20
-4.082031
  0
VERTEX
  8
PLAN_1
  6
CONTINUOUS
 10
0.395264
 20
-4.077382
  0
VERTEX
  8
PLAN_1
  6
CONTINUOUS
 10
0.393197
 20
-4.072220
  0
VERTEX
  8
PLAN_1
  6
CONTINUOUS
 10
0.391650
 20
-4.067059
  0
VERTEX
  8
PLAN_1
  6
CONTINUOUS
 10
0.390102
 20
-4.061894
  0
VERTEX
  8
PLAN_1
  6
CONTINUOUS
 10
0.388551
 20
-4.056217
  0
VERTEX
  8
PLAN_1
  6
CONTINUOUS
 10
0.387520
 20
-4.050020
  0
VERTEX
  8
PLAN_1
  6
CONTINUOUS
 10
0.386488
 20
-4.043827
  0
VERTEX
  8
PLAN_1
  6
CONTINUOUS
 10
0.385969
 20
-4.037114
  0
VERTEX
  8
PLAN_1
  6
CONTINUOUS
 10
0.385453
 20
-4.030402
  0
VERTEX
  8
PLAN_1
  6
CONTINUOUS
 10
0.385453
 20
-4.023689
  0
VERTEX
  8
PLAN_1
  6
CONTINUOUS
 10
0.385969
 20
-4.012331
  0
VERTEX
  8
PLAN_1
  6
CONTINUOUS
 10
0.387004
 20
-4.001488
  0
VERTEX
  8
PLAN_1
  6
CONTINUOUS
 10
0.389067
 20
-3.991165
  0
VERTEX
  8
PLAN_1
  6
CONTINUOUS
 10
0.392165
 20
-3.981354
  0
VERTEX
  8
PLAN_1
  6
CONTINUOUS
 10
0.395264
 20
-3.972063
  0
VERTEX
  8
PLAN_1
  6
CONTINUOUS
 10
0.399909
 20
-3.963803
  0
VERTEX
  8
PLAN_1
  6
CONTINUOUS
 10
0.404555
 20
-3.956059
  0
VERTEX
  8
PLAN_1
  6
CONTINUOUS
 10
0.410236
 20
-3.948831
  0
VERTEX
  8
PLAN_1
  6
CONTINUOUS
 10
0.416429
 20
-3.942118
  0
VERTEX
  8
PLAN_1
  6
CONTINUOUS
 10
0.423657
 20
-3.936437
  0
VERTEX
  8
PLAN_1
  6
CONTINUOUS
 10
0.431402
 20
-3.931276
  0
VERTEX
  8
PLAN_1
  6
CONTINUOUS
 10
0.439665
 20
-3.927146
  0
VERTEX
  8
PLAN_1
  6
CONTINUOUS
 10
0.448441
 20
-3.924047
  0
VERTEX
  8
PLAN_1
  6
CONTINUOUS
 10
0.457732
 20
-3.921465
  0
VERTEX
  8
PLAN_1
  6
CONTINUOUS
 10
0.468059
 20
-3.920433
  0
VERTEX
  8
PLAN_1
  6
CONTINUOUS
 10
0.478386
 20
-3.919917
  0
VERTEX
  8
PLAN_1
  6
CONTINUOUS
 10
0.487677
 20
-3.919917
  0
VERTEX
  8
PLAN_1
  6
CONTINUOUS
 10
0.496457
 20
-3.920949
  0
VERTEX
  8
PLAN_1
  6
CONTINUOUS
 10
0.504717
 20
-3.923016
  0
VERTEX
  8
PLAN_1
  6
CONTINUOUS
 10
0.512461
 20
-3.925079
  0
VERTEX
  8
PLAN_1
  6
CONTINUOUS
 10
0.519689
 20
-3.928177
  0
VERTEX
  8
PLAN_1
  6
CONTINUOUS
 10
0.525882
 20
-3.931791
  0
VERTEX
  8
PLAN_1
  6
CONTINUOUS
 10
0.532079
 20
-3.935406
  0
VERTEX
  8
PLAN_1
  6
CONTINUOUS
 10
0.537240
 20
-3.940051
  0
VERTEX
  8
PLAN_1
  6
CONTINUOUS
 10
0.541890
 20
-3.944701
  0
VERTEX
  8
PLAN_1
  6
CONTINUOUS
 10
0.546535
 20
-3.949862
  0
VERTEX
  8
PLAN_1
  6
CONTINUOUS
 10
0.550150
 20
-3.955024
  0
VERTEX
  8
PLAN_1
  6
CONTINUOUS
 10
0.553248
 20
-3.960705
  0
VERTEX
  8
PLAN_1
  6
CONTINUOUS
 10
0.555827
 20
-3.966382
  0
VERTEX
  8
PLAN_1
  6
CONTINUOUS
 10
0.557894
 20
-3.972579
  0
VERTEX
  8
PLAN_1
  6
CONTINUOUS
 10
0.559441
 20
-3.978776
  0
VERTEX
  8
PLAN_1
  6
CONTINUOUS
 10
0.560472
 20
-3.984969
  0
VERTEX
  8
PLAN_1
  6
CONTINUOUS
 10
0.534142
 20
-3.984969
  0
SEQEND
  8
0
  0
POLYLINE
  8
PLAN_1
  6
CONTINUOUS
 66
     1
 40
0.003000
 41
0.003000
  0
VERTEX
  8
PLAN_1
  6
CONTINUOUS
 10
0.621913
 20
-4.124366
  0
VERTEX
  8
PLAN_1
  6
CONTINUOUS
 10
0.595067
 20
-4.124366
  0
VERTEX
  8
PLAN_1
  6
CONTINUOUS
 10
0.595067
 20
-3.925079
  0
VERTEX
  8
PLAN_1
  6
CONTINUOUS
 10
0.621913
 20
-3.925079
  0
VERTEX
  8
PLAN_1
  6
CONTINUOUS
 10
0.621913
 20
-4.021626
  0
VERTEX
  8
PLAN_1
  6
CONTINUOUS
 10
0.718457
 20
-3.925079
  0
VERTEX
  8
PLAN_1
  6
CONTINUOUS
 10
0.755630
 20
-3.925079
  0
VERTEX
  8
PLAN_1
  6
CONTINUOUS
 10
0.672508
 20
-4.005622
  0
VERTEX
  8
PLAN_1
  6
CONTINUOUS
 10
0.757693
 20
-4.124366
  0
VERTEX
  8
PLAN_1
  6
CONTINUOUS
 10
0.723102
 20
-4.124366
  0
VERTEX
  8
PLAN_1
  6
CONTINUOUS
 10
0.653406
 20
-4.024205
  0
VERTEX
  8
PLAN_1
  6
CONTINUOUS
 10
0.621913
 20
-4.054150
  0
VERTEX
  8
PLAN_1
  6
CONTINUOUS
 10
0.621913
 20
-4.124366
  0
SEQEND
  8
0
  0
POLYLINE
  8
PLAN_1
  6
CONTINUOUS
 66
     1
 40
0.003000
 41
0.003000
  0
VERTEX
  8
PLAN_1
  6
CONTINUOUS
 10
0.944071
 20
-4.124366
  0
VERTEX
  8
PLAN_1
  6
CONTINUOUS
 10
0.944071
 20
-4.006654
  0
VERTEX
  8
PLAN_1
  6
CONTINUOUS
 10
0.944071
 20
-4.003555
  0
VERTEX
  8
PLAN_1
  6
CONTINUOUS
 10
0.944071
 20
-3.998909
  0
VERTEX
  8
PLAN_1
  6
CONTINUOUS
 10
0.944591
 20
-3.993228
  0
VERTEX
  8
PLAN_1
  6
CONTINUOUS
 10
0.944591
 20
-3.986520
  0
VERTEX
  8
PLAN_1
  6
CONTINUOUS
 10
0.944591
 20
-3.979291
  0
VERTEX
  8
PLAN_1
  6
CONTINUOUS
 10
0.944591
 20
-3.971547
  0
VERTEX
  8
PLAN_1
  6
CONTINUOUS
 10
0.944591
 20
-3.964319
  0
VERTEX
  8
PLAN_1
  6
CONTINUOUS
 10
0.944591
 20
-3.957091
  0
VERTEX
  8
PLAN_1
  6
CONTINUOUS
 10
0.944071
 20
-3.957091
  0
VERTEX
  8
PLAN_1
  6
CONTINUOUS
 10
0.888315
 20
-4.124366
  0
VERTEX
  8
PLAN_1
  6
CONTINUOUS
 10
0.861469
 20
-4.124366
  0
VERTEX
  8
PLAN_1
  6
CONTINUOUS
 10
0.805193
 20
-3.957091
  0
VERTEX
  8
PLAN_1
  6
CONTINUOUS
 10
0.804677
 20
-3.957091
  0
VERTEX
  8
PLAN_1
  6
CONTINUOUS
 10
0.804677
 20
-3.964319
  0
VERTEX
  8
PLAN_1
  6
CONTINUOUS
 10
0.805193
 20
-3.971547
  0
VERTEX
  8
PLAN_1
  6
CONTINUOUS
 10
0.805193
 20
-3.979291
  0
VERTEX
  8
PLAN_1
  6
CONTINUOUS
 10
0.805193
 20
-3.986520
  0
VERTEX
  8
PLAN_1
  6
CONTINUOUS
 10
0.805193
 20
-3.993228
  0
VERTEX
  8
PLAN_1
  6
CONTINUOUS
 10
0.805193
 20
-3.998909
  0
VERTEX
  8
PLAN_1
  6
CONTINUOUS
 10
0.805193
 20
-4.003555
  0
VERTEX
  8
PLAN_1
  6
CONTINUOUS
 10
0.805193
 20
-4.006654
  0
VERTEX
  8
PLAN_1
  6
CONTINUOUS
 10
0.805193
 20
-4.124366
  0
VERTEX
  8
PLAN_1
  6
CONTINUOUS
 10
0.779378
 20
-4.124366
  0
VERTEX
  8
PLAN_1
  6
CONTINUOUS
 10
0.779378
 20
-3.925079
  0
VERTEX
  8
PLAN_1
  6
CONTINUOUS
 10
0.818098
 20
-3.925079
  0
VERTEX
  8
PLAN_1
  6
CONTINUOUS
 10
0.874890
 20
-4.093390
  0
VERTEX
  8
PLAN_1
  6
CONTINUOUS
 10
0.875406
 20
-4.093390
  0
VERTEX
  8
PLAN_1
  6
CONTINUOUS
 10
0.932197
 20
-3.925079
  0
VERTEX
  8
PLAN_1
  6
CONTINUOUS
 10
0.970402
 20
-3.925079
  0
VERTEX
  8
PLAN_1
  6
CONTINUOUS
 10
0.970402
 20
-4.124366
  0
VERTEX
  8
PLAN_1
  6
CONTINUOUS
 10
0.944071
 20
-4.124366
  0
SEQEND
  8
0
  0
POLYLINE
  8
PLAN_1
  6
CONTINUOUS
 66
     1
 40
0.003000
 41
0.003000
  0
VERTEX
  8
PLAN_1
  6
CONTINUOUS
 10
1.174335
 20
-3.969996
  0
VERTEX
  8
PLAN_1
  6
CONTINUOUS
 10
1.192921
 20
-3.969996
  0
VERTEX
  8
PLAN_1
  6
CONTINUOUS
 10
1.188791
 20
-3.984453
  0
VERTEX
  8
PLAN_1
  6
CONTINUOUS
 10
1.184661
 20
-3.999425
  0
VERTEX
  8
PLAN_1
  6
CONTINUOUS
 10
1.180531
 20
-4.013882
  0
VERTEX
  8
PLAN_1
  6
CONTINUOUS
 10
1.176402
 20
-4.026787
  0
VERTEX
  8
PLAN_1
  6
CONTINUOUS
 10
1.173303
 20
-4.038661
  0
VERTEX
  8
PLAN_1
  6
CONTINUOUS
 10
1.170205
 20
-4.048472
  0
VERTEX
  8
PLAN_1
  6
CONTINUOUS
 10
1.168654
 20
-4.056217
  0
VERTEX
  8
PLAN_1
  6
CONTINUOUS
 10
1.168138
 20
-4.060346
  0
VERTEX
  8
PLAN_1
  6
CONTINUOUS
 10
1.168138
 20
-4.062413
  0
VERTEX
  8
PLAN_1
  6
CONTINUOUS
 10
1.168138
 20
-4.063961
  0
VERTEX
  8
PLAN_1
  6
CONTINUOUS
 10
1.168654
 20
-4.065508
  0
VERTEX
  8
PLAN_1
  6
CONTINUOUS
 10
1.169173
 20
-4.066543
  0
VERTEX
  8
PLAN_1
  6
CONTINUOUS
 10
1.170205
 20
-4.067059
  0
VERTEX
  8
PLAN_1
  6
CONTINUOUS
 10
1.171236
 20
-4.068091
  0
VERTEX
  8
PLAN_1
  6
CONTINUOUS
 10
1.172268
 20
-4.068091
  0
VERTEX
  8
PLAN_1
  6
CONTINUOUS
 10
1.173819
 20
-4.068606
  0
VERTEX
  8
PLAN_1
  6
CONTINUOUS
 10
1.177433
 20
-4.068091
  0
VERTEX
  8
PLAN_1
  6
CONTINUOUS
 10
1.181047
 20
-4.067059
  0
VERTEX
  8
PLAN_1
  6
CONTINUOUS
 10
1.184661
 20
-4.065508
  0
VERTEX
  8
PLAN_1
  6
CONTINUOUS
 10
1.187760
 20
-4.063445
  0
VERTEX
  8
PLAN_1
  6
CONTINUOUS
 10
1.191370
 20
-4.060346
  0
VERTEX
  8
PLAN_1
  6
CONTINUOUS
 10
1.194469
 20
-4.057248
  0
VERTEX
  8
PLAN_1
  6
CONTINUOUS
 10
1.197567
 20
-4.053634
  0
VERTEX
  8
PLAN_1
  6
CONTINUOUS
 10
1.200665
 20
-4.049504
  0
VERTEX
  8
PLAN_1
  6
CONTINUOUS
 10
1.203248
 20
-4.045374
  0
VERTEX
  8
PLAN_1
  6
CONTINUOUS
 10
1.205827
 20
-4.040728
  0
VERTEX
  8
PLAN_1
  6
CONTINUOUS
 10
1.207894
 20
-4.035563
  0
VERTEX
  8
PLAN_1
  6
CONTINUOUS
 10
1.209957
 20
-4.030402
  0
VERTEX
  8
PLAN_1
  6
CONTINUOUS
 10
1.210992
 20
-4.025240
  0
VERTEX
  8
PLAN_1
  6
CONTINUOUS
 10
1.212539
 20
-4.019559
  0
VERTEX
  8
PLAN_1
  6
CONTINUOUS
 10
1.213055
 20
-4.013882
  0
VERTEX
  8
PLAN_1
  6
CONTINUOUS
 10
1.213055
 20
-4.008717
  0
VERTEX
  8
PLAN_1
  6
CONTINUOUS
 10
1.213055
 20
-4.000457
  0
VERTEX
  8
PLAN_1
  6
CONTINUOUS
 10
1.211508
 20
-3.992713
  0
VERTEX
  8
PLAN_1
  6
CONTINUOUS
 10
1.209441
 20
-3.985484
  0
VERTEX
  8
PLAN_1
  6
CONTINUOUS
 10
1.206862
 20
-3.978776
  0
VERTEX
  8
PLAN_1
  6
CONTINUOUS
 10
1.203764
 20
-3.972063
  0
VERTEX
  8
PLAN_1
  6
CONTINUOUS
 10
1.199634
 20
-3.966382
  0
VERTEX
  8
PLAN_1
  6
CONTINUOUS
 10
1.195504
 20
-3.960705
  0
VERTEX
  8
PLAN_1
  6
CONTINUOUS
 10
1.190339
 20
-3.956059
  0
VERTEX
  8
PLAN_1
  6
CONTINUOUS
 10
1.184661
 20
-3.951925
  0
VERTEX
  8
PLAN_1
  6
CONTINUOUS
 10
1.178465
 20
-3.947795
  0
VERTEX
  8
PLAN_1
  6
CONTINUOUS
 10
1.172268
 20
-3.944701
  0
VERTEX
  8
PLAN_1
  6
CONTINUOUS
 10
1.165559
 20
-3.941602
  0
VERTEX
  8
PLAN_1
  6
CONTINUOUS
 10
1.158331
 20
-3.939535
  0
VERTEX
  8
PLAN_1
  6
CONTINUOUS
 10
1.151102
 20
-3.937988
  0
VERTEX
  8
PLAN_1
  6
CONTINUOUS
 10
1.143358
 20
-3.936953
  0
VERTEX
  8
PLAN_1
  6
CONTINUOUS
 10
1.135614
 20
-3.936953
  0
VERTEX
  8
PLAN_1
  6
CONTINUOUS
 10
1.126835
 20
-3.937472
  0
VERTEX
  8
PLAN_1
  6
CONTINUOUS
 10
1.118059
 20
-3.938504
  0
VERTEX
  8
PLAN_1
  6
CONTINUOUS
 10
1.109799
 20
-3.941087
  0
VERTEX
  8
PLAN_1
  6
CONTINUOUS
 10
1.101539
 20
-3.943665
  0
VERTEX
  8
PLAN_1
  6
CONTINUOUS
 10
1.094311
 20
-3.947795
  0
VERTEX
  8
PLAN_1
  6
CONTINUOUS
 10
1.087598
 20
-3.951925
  0
VERTEX
  8
PLAN_1
  6
CONTINUOUS
 10
1.080886
 20
-3.957091
  0
VERTEX
  8
PLAN_1
  6
CONTINUOUS
 10
1.075209
 20
-3.962768
  0
VERTEX
  8
PLAN_1
  6
CONTINUOUS
 10
1.069528
 20
-3.968965
  0
VERTEX
  8
PLAN_1
  6
CONTINUOUS
 10
1.064882
 20
-3.976193
  0
VERTEX
  8
PLAN_1
  6
CONTINUOUS
 10
1.061268
 20
-3.983421
  0
VERTEX
  8
PLAN_1
  6
CONTINUOUS
 10
1.057654
 20
-3.991165
  0
VERTEX
  8
PLAN_1
  6
CONTINUOUS
 10
1.055075
 20
-3.999425
  0
VERTEX
  8
PLAN_1
  6
CONTINUOUS
 10
1.053008
 20
-4.007685
  0
VERTEX
  8
PLAN_1
  6
CONTINUOUS
 10
1.051976
 20
-4.016461
  0
VERTEX
  8
PLAN_1
  6
CONTINUOUS
 10
1.051461
 20
-4.025756
  0
VERTEX
  8
PLAN_1
  6
CONTINUOUS
 10
1.051976
 20
-4.035047
  0
VERTEX
  8
PLAN_1
  6
CONTINUOUS
 10
1.053008
 20
-4.043307
  0
VERTEX
  8
PLAN_1
  6
CONTINUOUS
 10
1.055075
 20
-4.052087
  0
VERTEX
  8
PLAN_1
  6
CONTINUOUS
 10
1.058169
 20
-4.059831
  0
VERTEX
  8
PLAN_1
  6
CONTINUOUS
 10
1.061783
 20
-4.067575
  0
VERTEX
  8
PLAN_1
  6
CONTINUOUS
 10
1.065913
 20
-4.074803
  0
VERTEX
  8
PLAN_1
  6
CONTINUOUS
 10
1.070563
 20
-4.081516
  0
VERTEX
  8
PLAN_1
  6
CONTINUOUS
 10
1.076240
 20
-4.087193
  0
VERTEX
  8
PLAN_1
  6
CONTINUOUS
 10
1.082437
 20
-4.092874
  0
VERTEX
  8
PLAN_1
  6
CONTINUOUS
 10
1.089150
 20
-4.098035
  0
VERTEX
  8
PLAN_1
  6
CONTINUOUS
 10
1.096374
 20
-4.102165
  0
VERTEX
  8
PLAN_1
  6
CONTINUOUS
 10
1.103602
 20
-4.105780
  0
VERTEX
  8
PLAN_1
  6
CONTINUOUS
 10
1.111866
 20
-4.108362
  0
VERTEX
  8
PLAN_1
  6
CONTINUOUS
 10
1.120126
 20
-4.110425
  0
VERTEX
  8
PLAN_1
  6
CONTINUOUS
 10
1.128902
 20
-4.111976
  0
VERTEX
  8
PLAN_1
  6
CONTINUOUS
 10
1.137677
 20
-4.112492
  0
VERTEX
  8
PLAN_1
  6
CONTINUOUS
 10
1.142327
 20
-4.111976
  0
VERTEX
  8
PLAN_1
  6
CONTINUOUS
 10
1.147488
 20
-4.111976
  0
VERTEX
  8
PLAN_1
  6
CONTINUOUS
 10
1.152134
 20
-4.110941
  0
VERTEX
  8
PLAN_1
  6
CONTINUOUS
 10
1.156780
 20
-4.109909
  0
VERTEX
  8
PLAN_1
  6
CONTINUOUS
 10
1.161429
 20
-4.108878
  0
VERTEX
  8
PLAN_1
  6
CONTINUOUS
 10
1.166075
 20
-4.107327
  0
VERTEX
  8
PLAN_1
  6
CONTINUOUS
 10
1.170720
 20
-4.105780
  0
VERTEX
  8
PLAN_1
  6
CONTINUOUS
 10
1.175366
 20
-4.103713
  0
VERTEX
  8
PLAN_1
  6
CONTINUOUS
 10
1.179496
 20
-4.101650
  0
VERTEX
  8
PLAN_1
  6
CONTINUOUS
 10
1.183626
 20
-4.099067
  0
VERTEX
  8
PLAN_1
  6
CONTINUOUS
 10
1.187760
 20
-4.096484
  0
VERTEX
  8
PLAN_1
  6
CONTINUOUS
 10
1.191370
 20
-4.093906
  0
VERTEX
  8
PLAN_1
  6
CONTINUOUS
 10
1.195504
 20
-4.090807
  0
VERTEX
  8
PLAN_1
  6
CONTINUOUS
 10
1.198598
 20
-4.087709
  0
VERTEX
  8
PLAN_1
  6
CONTINUOUS
 10
1.202213
 20
-4.084094
  0
VERTEX
  8
PLAN_1
  6
CONTINUOUS
 10
1.205311
 20
-4.080480
  0
VERTEX
  8
PLAN_1
  6
CONTINUOUS
 10
1.223898
 20
-4.080480
  0
VERTEX
  8
PLAN_1
  6
CONTINUOUS
 10
1.220283
 20
-4.086161
  0
VERTEX
  8
PLAN_1
  6
CONTINUOUS
 10
1.216154
 20
-4.091323
  0
VERTEX
  8
PLAN_1
  6
CONTINUOUS
 10
1.212024
 20
-4.096484
  0
VERTEX
  8
PLAN_1
  6
CONTINUOUS
 10
1.207378
 20
-4.101134
  0
VERTEX
  8
PLAN_1
  6
CONTINUOUS
 10
1.202728
 20
-4.105264
  0
VERTEX
  8
PLAN_1
  6
CONTINUOUS
 10
1.197567
 20
-4.109394
  0
VERTEX
  8
PLAN_1
  6
CONTINUOUS
 10
1.192406
 20
-4.113008
  0
VERTEX
  8
PLAN_1
  6
CONTINUOUS
 10
1.187240
 20
-4.116622
  0
VERTEX
  8
PLAN_1
  6
CONTINUOUS
 10
1.181563
 20
-4.119201
  0
VERTEX
  8
PLAN_1
  6
CONTINUOUS
 10
1.175366
 20
-4.122299
  0
VERTEX
  8
PLAN_1
  6
CONTINUOUS
 10
1.169173
 20
-4.124366
  0
VERTEX
  8
PLAN_1
  6
CONTINUOUS
 10
1.162976
 20
-4.125913
  0
VERTEX
  8
PLAN_1
  6
CONTINUOUS
 10
1.156780
 20
-4.127465
  0
VERTEX
  8
PLAN_1
  6
CONTINUOUS
 10
1.150587
 20
-4.128496
  0
VERTEX
  8
PLAN_1
  6
CONTINUOUS
 10
1.143874
 20
-4.129528
  0
VERTEX
  8
PLAN_1
  6
CONTINUOUS
 10
1.137161
 20
-4.129528
  0
VERTEX
  8
PLAN_1
  6
CONTINUOUS
 10
1.131484
 20
-4.129528
  0
VERTEX
  8
PLAN_1
  6
CONTINUOUS
 10
1.126319
 20
-4.129012
  0
VERTEX
  8
PLAN_1
  6
CONTINUOUS
 10
1.120642
 20
-4.128496
  0
VERTEX
  8
PLAN_1
  6
CONTINUOUS
 10
1.115476
 20
-4.127465
  0
VERTEX
  8
PLAN_1
  6
CONTINUOUS
 10
1.110315
 20
-4.126429
  0
VERTEX
  8
PLAN_1
  6
CONTINUOUS
 10
1.105154
 20
-4.124882
  0
VERTEX
  8
PLAN_1
  6
CONTINUOUS
 10
1.100508
 20
-4.123335
  0
VERTEX
  8
PLAN_1
  6
CONTINUOUS
 10
1.095343
 20
-4.121268
  0
VERTEX
  8
PLAN_1
  6
CONTINUOUS
 10
1.086051
 20
-4.117138
  0
VERTEX
  8
PLAN_1
  6
CONTINUOUS
 10
1.077272
 20
-4.111976
  0
VERTEX
  8
PLAN_1
  6
CONTINUOUS
 10
1.069528
 20
-4.105780
  0
VERTEX
  8
PLAN_1
  6
CONTINUOUS
 10
1.061783
 20
-4.099067
  0
VERTEX
  8
PLAN_1
  6
CONTINUOUS
 10
1.055075
 20
-4.091323
  0
VERTEX
  8
PLAN_1
  6
CONTINUOUS
 10
1.048878
 20
-4.083579
  0
VERTEX
  8
PLAN_1
  6
CONTINUOUS
 10
1.043717
 20
-4.074803
  0
VERTEX
  8
PLAN_1
  6
CONTINUOUS
 10
1.039587
 20
-4.065508
  0
VERTEX
  8
PLAN_1
  6
CONTINUOUS
 10
1.037520
 20
-4.060862
  0
VERTEX
  8
PLAN_1
  6
CONTINUOUS
 10
1.035972
 20
-4.055701
  0
VERTEX
  8
PLAN_1
  6
CONTINUOUS
 10
1.034421
 20
-4.050535
  0
VERTEX
  8
PLAN_1
  6
CONTINUOUS
 10
1.033390
 20
-4.045374
  0
VERTEX
  8
PLAN_1
  6
CONTINUOUS
 10
1.032358
 20
-4.040213
  0
VERTEX
  8
PLAN_1
  6
CONTINUOUS
 10
1.031839
 20
-4.035047
  0
VERTEX
  8
PLAN_1
  6
CONTINUOUS
 10
1.031323
 20
-4.029370
  0
VERTEX
  8
PLAN_1
  6
CONTINUOUS
 10
1.031323
 20
-4.024205
  0
VERTEX
  8
PLAN_1
  6
CONTINUOUS
 10
1.031323
 20
-4.018528
  0
VERTEX
  8
PLAN_1
  6
CONTINUOUS
 10
1.031839
 20
-4.013366
  0
VERTEX
  8
PLAN_1
  6
CONTINUOUS
 10
1.032358
 20
-4.008201
  0
VERTEX
  8
PLAN_1
  6
CONTINUOUS
 10
1.033390
 20
-4.003039
  0
VERTEX
  8
PLAN_1
  6
CONTINUOUS
 10
1.034421
 20
-3.997878
  0
VERTEX
  8
PLAN_1
  6
CONTINUOUS
 10
1.035972
 20
-3.992713
  0
VERTEX
  8
PLAN_1
  6
CONTINUOUS
 10
1.037520
 20
-3.988067
  0
VERTEX
  8
PLAN_1
  6
CONTINUOUS
 10
1.039587
 20
-3.983421
  0
VERTEX
  8
PLAN_1
  6
CONTINUOUS
 10
1.043717
 20
-3.974126
  0
VERTEX
  8
PLAN_1
  6
CONTINUOUS
 10
1.049394
 20
-3.965350
  0
VERTEX
  8
PLAN_1
  6
CONTINUOUS
 10
1.055075
 20
-3.957606
  0
VERTEX
  8
PLAN_1
  6
CONTINUOUS
 10
1.061783
 20
-3.949862
  0
VERTEX
  8
PLAN_1
  6
CONTINUOUS
 10
1.069528
 20
-3.943150
  0
VERTEX
  8
PLAN_1
  6
CONTINUOUS
 10
1.077791
 20
-3.937472
  0
VERTEX
  8
PLAN_1
  6
CONTINUOUS
 10
1.086051
 20
-3.932307
  0
VERTEX
  8
PLAN_1
  6
CONTINUOUS
 10
1.095343
 20
-3.927661
  0
VERTEX
  8
PLAN_1
  6
CONTINUOUS
 10
1.104638
 20
-3.924563
  0
VERTEX
  8
PLAN_1
  6
CONTINUOUS
 10
1.114961
 20
-3.921984
  0
VERTEX
  8
PLAN_1
  6
CONTINUOUS
 10
1.120126
 20
-3.920949
  0
VERTEX
  8
PLAN_1
  6
CONTINUOUS
 10
1.125287
 20
-3.920433
  0
VERTEX
  8
PLAN_1
  6
CONTINUOUS
 10
1.130449
 20
-3.919917
  0
VERTEX
  8
PLAN_1
  6
CONTINUOUS
 10
1.135614
 20
-3.919917
  0
VERTEX
  8
PLAN_1
  6
CONTINUOUS
 10
1.145421
 20
-3.919917
  0
VERTEX
  8
PLAN_1
  6
CONTINUOUS
 10
1.154717
 20
-3.921465
  0
VERTEX
  8
PLAN_1
  6
CONTINUOUS
 10
1.163492
 20
-3.923531
  0
VERTEX
  8
PLAN_1
  6
CONTINUOUS
 10
1.172268
 20
-3.926114
  0
VERTEX
  8
PLAN_1
  6
CONTINUOUS
 10
1.180531
 20
-3.929728
  0
VERTEX
  8
PLAN_1
  6
CONTINUOUS
 10
1.188791
 20
-3.933858
  0
VERTEX
  8
PLAN_1
  6
CONTINUOUS
 10
1.196020
 20
-3.938504
  0
VERTEX
  8
PLAN_1
  6
CONTINUOUS
 10
1.202728
 20
-3.944181
  0
VERTEX
  8
PLAN_1
  6
CONTINUOUS
 10
1.208925
 20
-3.949862
  0
VERTEX
  8
PLAN_1
  6
CONTINUOUS
 10
1.214606
 20
-3.956575
  0
VERTEX
  8
PLAN_1
  6
CONTINUOUS
 10
1.219252
 20
-3.963803
  0
VERTEX
  8
PLAN_1
  6
CONTINUOUS
 10
1.223382
 20
-3.971547
  0
VERTEX
  8
PLAN_1
  6
CONTINUOUS
 10
1.226996
 20
-3.979291
  0
VERTEX
  8
PLAN_1
  6
CONTINUOUS
 10
1.229059
 20
-3.988067
  0
VERTEX
  8
PLAN_1
  6
CONTINUOUS
 10
1.230610
 20
-3.996843
  0
VERTEX
  8
PLAN_1
  6
CONTINUOUS
 10
1.231126
 20
-4.006138
  0
VERTEX
  8
PLAN_1
  6
CONTINUOUS
 10
1.230610
 20
-4.015429
  0
VERTEX
  8
PLAN_1
  6
CONTINUOUS
 10
1.229579
 20
-4.024205
  0
VERTEX
  8
PLAN_1
  6
CONTINUOUS
 10
1.227512
 20
-4.032469
  0
VERTEX
  8
PLAN_1
  6
CONTINUOUS
 10
1.224413
 20
-4.040213
  0
VERTEX
  8
PLAN_1
  6
CONTINUOUS
 10
1.220799
 20
-4.046921
  0
VERTEX
  8
PLAN_1
  6
CONTINUOUS
 10
1.216669
 20
-4.053634
  0
VERTEX
  8
PLAN_1
  6
CONTINUOUS
 10
1.212024
 20
-4.059831
  0
VERTEX
  8
PLAN_1
  6
CONTINUOUS
 10
1.207378
 20
-4.064992
  0
VERTEX
  8
PLAN_1
  6
CONTINUOUS
 10
1.202213
 20
-4.070157
  0
VERTEX
  8
PLAN_1
  6
CONTINUOUS
 10
1.196535
 20
-4.074287
  0
VERTEX
  8
PLAN_1
  6
CONTINUOUS
 10
1.191370
 20
-4.077902
  0
VERTEX
  8
PLAN_1
  6
CONTINUOUS
 10
1.185693
 20
-4.080996
  0
VERTEX
  8
PLAN_1
  6
CONTINUOUS
 10
1.180012
 20
-4.083579
  0
VERTEX
  8
PLAN_1
  6
CONTINUOUS
 10
1.174850
 20
-4.085126
  0
VERTEX
  8
PLAN_1
  6
CONTINUOUS
 10
1.169689
 20
-4.086161
  0
VERTEX
  8
PLAN_1
  6
CONTINUOUS
 10
1.165043
 20
-4.086677
  0
VERTEX
  8
PLAN_1
  6
CONTINUOUS
 10
1.161429
 20
-4.086161
  0
VERTEX
  8
PLAN_1
  6
CONTINUOUS
 10
1.158331
 20
-4.085646
  0
VERTEX
  8
PLAN_1
  6
CONTINUOUS
 10
1.155232
 20
-4.084094
  0
VERTEX
  8
PLAN_1
  6
CONTINUOUS
 10
1.152650
 20
-4.082031
  0
VERTEX
  8
PLAN_1
  6
CONTINUOUS
 10
1.150587
 20
-4.079965
  0
VERTEX
  8
PLAN_1
  6
CONTINUOUS
 10
1.149035
 20
-4.076866
  0
VERTEX
  8
PLAN_1
  6
CONTINUOUS
 10
1.147488
 20
-4.073252
  0
VERTEX
  8
PLAN_1
  6
CONTINUOUS
 10
1.146972
 20
-4.069122
  0
VERTEX
  8
PLAN_1
  6
CONTINUOUS
 10
1.146457
 20
-4.069122
  0
VERTEX
  8
PLAN_1
  6
CONTINUOUS
 10
1.143358
 20
-4.072736
  0
VERTEX
  8
PLAN_1
  6
CONTINUOUS
 10
1.139744
 20
-4.075835
  0
VERTEX
  8
PLAN_1
  6
CONTINUOUS
 10
1.136130
 20
-4.078417
  0
VERTEX
  8
PLAN_1
  6
CONTINUOUS
 10
1.132000
 20
-4.080996
  0
VERTEX
  8
PLAN_1
  6
CONTINUOUS
 10
1.127354
 20
-4.083579
  0
VERTEX
  8
PLAN_1
  6
CONTINUOUS
 10
1.122705
 20
-4.085126
  0
VERTEX
  8
PLAN_1
  6
CONTINUOUS
 10
1.118059
 20
-4.086161
  0
VERTEX
  8
PLAN_1
  6
CONTINUOUS
 10
1.113413
 20
-4.086677
  0
VERTEX
  8
PLAN_1
  6
CONTINUOUS
 10
1.108768
 20
-4.086161
  0
VERTEX
  8
PLAN_1
  6
CONTINUOUS
 10
1.104638
 20
-4.085646
  0
VERTEX
  8
PLAN_1
  6
CONTINUOUS
 10
1.100508
 20
-4.084610
  0
VERTEX
  8
PLAN_1
  6
CONTINUOUS
 10
1.096894
 20
-4.083063
  0
VERTEX
  8
PLAN_1
  6
CONTINUOUS
 10
1.093280
 20
-4.080996
  0
VERTEX
  8
PLAN_1
  6
CONTINUOUS
 10
1.089665
 20
-4.078933
  0
VERTEX
  8
PLAN_1
  6
CONTINUOUS
 10
1.086567
 20
-4.076350
  0
VERTEX
  8
PLAN_1
  6
CONTINUOUS
 10
1.083984
 20
-4.073252
  0
VERTEX
  8
PLAN_1
  6
CONTINUOUS
 10
1.081406
 20
-4.070157
  0
VERTEX
  8
PLAN_1
  6
CONTINUOUS
 10
1.079339
 20
-4.066543
  0
VERTEX
  8
PLAN_1
  6
CONTINUOUS
 10
1.077272
 20
-4.062929
  0
VERTEX
  8
PLAN_1
  6
CONTINUOUS
 10
1.075724
 20
-4.059315
  0
VERTEX
  8
PLAN_1
  6
CONTINUOUS
 10
1.074177
 20
-4.055185
  0
VERTEX
  8
PLAN_1
  6
CONTINUOUS
 10
1.073142
 20
-4.051055
  0
VERTEX
  8
PLAN_1
  6
CONTINUOUS
 10
1.072626
 20
-4.046406
  0
VERTEX
  8
PLAN_1
  6
CONTINUOUS
 10
1.072626
 20
-4.042276
  0
VERTEX
  8
PLAN_1
  6
CONTINUOUS
 10
1.072626
 20
-4.035047
  0
VERTEX
  8
PLAN_1
  6
CONTINUOUS
 10
1.073657
 20
-4.027819
  0
VERTEX
  8
PLAN_1
  6
CONTINUOUS
 10
1.075209
 20
-4.021110
  0
VERTEX
  8
PLAN_1
  6
CONTINUOUS
 10
1.077272
 20
-4.014398
  0
VERTEX
  8
PLAN_1
  6
CONTINUOUS
 10
1.079339
 20
-4.007685
  0
VERTEX
  8
PLAN_1
  6
CONTINUOUS
 10
1.082437
 20
-4.001488
  0
VERTEX
  8
PLAN_1
  6
CONTINUOUS
 10
1.086051
 20
-3.995295
  0
VERTEX
  8
PLAN_1
  6
CONTINUOUS
 10
1.090181
 20
-3.989614
  0
VERTEX
  8
PLAN_1
  6
CONTINUOUS
 10
1.094311
 20
-3.984453
  0
VERTEX
  8
PLAN_1
  6
CONTINUOUS
 10
1.099472
 20
-3.979807
  0
VERTEX
  8
PLAN_1
  6
CONTINUOUS
 10
1.104638
 20
-3.975677
  0
VERTEX
  8
PLAN_1
  6
CONTINUOUS
 10
1.110315
 20
-3.972063
  0
VERTEX
  8
PLAN_1
  6
CONTINUOUS
 10
1.116512
 20
-3.969480
  0
VERTEX
  8
PLAN_1
  6
CONTINUOUS
 10
1.122705
 20
-3.967417
  0
VERTEX
  8
PLAN_1
  6
CONTINUOUS
 10
1.129417
 20
-3.965866
  0
VERTEX
  8
PLAN_1
  6
CONTINUOUS
 10
1.136646
 20
-3.965350
  0
VERTEX
  8
PLAN_1
  6
CONTINUOUS
 10
1.141291
 20
-3.965866
  0
VERTEX
  8
PLAN_1
  6
CONTINUOUS
 10
1.146457
 20
-3.966898
  0
VERTEX
  8
PLAN_1
  6
CONTINUOUS
 10
1.150587
 20
-3.968449
  0
VERTEX
  8
PLAN_1
  6
CONTINUOUS
 10
1.154717
 20
-3.970512
  0
VERTEX
  8
PLAN_1
  6
CONTINUOUS
 10
1.158846
 20
-3.973610
  0
VERTEX
  8
PLAN_1
  6
CONTINUOUS
 10
1.162461
 20
-3.977224
  0
VERTEX
  8
PLAN_1
  6
CONTINUOUS
 10
1.165559
 20
-3.981870
  0
VERTEX
  8
PLAN_1
  6
CONTINUOUS
 10
1.168654
 20
-3.987035
  0
VERTEX
  8
PLAN_1
  6
CONTINUOUS
 10
1.174335
 20
-3.969996
  0
SEQEND
  8
0
  0
POLYLINE
  8
PLAN_1
  6
CONTINUOUS
 66
     1
 40
0.003000
 41
0.003000
  0
VERTEX
  8
PLAN_1
  6
CONTINUOUS
 10
1.137161
 20
-3.985484
  0
VERTEX
  8
PLAN_1
  6
CONTINUOUS
 10
1.132516
 20
-3.986000
  0
VERTEX
  8
PLAN_1
  6
CONTINUOUS
 10
1.128386
 20
-3.987035
  0
VERTEX
  8
PLAN_1
  6
CONTINUOUS
 10
1.124256
 20
-3.988583
  0
VERTEX
  8
PLAN_1
  6
CONTINUOUS
 10
1.120126
 20
-3.990650
  0
VERTEX
  8
PLAN_1
  6
CONTINUOUS
 10
1.116512
 20
-3.993228
  0
VERTEX
  8
PLAN_1
  6
CONTINUOUS
 10
1.112898
 20
-3.996327
  0
VERTEX
  8
PLAN_1
  6
CONTINUOUS
 10
1.109799
 20
-3.999941
  0
VERTEX
  8
PLAN_1
  6
CONTINUOUS
 10
1.106701
 20
-4.004071
  0
VERTEX
  8
PLAN_1
  6
CONTINUOUS
 10
1.104122
 20
-4.008201
  0
VERTEX
  8
PLAN_1
  6
CONTINUOUS
 10
1.102055
 20
-4.012331
  0
VERTEX
  8
PLAN_1
  6
CONTINUOUS
 10
1.099988
 20
-4.016980
  0
VERTEX
  8
PLAN_1
  6
CONTINUOUS
 10
1.098441
 20
-4.021626
  0
VERTEX
  8
PLAN_1
  6
CONTINUOUS
 10
1.096894
 20
-4.026272
  0
VERTEX
  8
PLAN_1
  6
CONTINUOUS
 10
1.095858
 20
-4.030402
  0
VERTEX
  8
PLAN_1
  6
CONTINUOUS
 10
1.095343
 20
-4.035047
  0
VERTEX
  8
PLAN_1
  6
CONTINUOUS
 10
1.095343
 20
-4.039697
  0
VERTEX
  8
PLAN_1
  6
CONTINUOUS
 10
1.095858
 20
-4.045374
  0
VERTEX
  8
PLAN_1
  6
CONTINUOUS
 10
1.096894
 20
-4.050535
  0
VERTEX
  8
PLAN_1
  6
CONTINUOUS
 10
1.098957
 20
-4.055185
  0
VERTEX
  8
PLAN_1
  6
CONTINUOUS
 10
1.101539
 20
-4.058799
  0
VERTEX
  8
PLAN_1
  6
CONTINUOUS
 10
1.105154
 20
-4.062413
  0
VERTEX
  8
PLAN_1
  6
CONTINUOUS
 10
1.109283
 20
-4.064476
  0
VERTEX
  8
PLAN_1
  6
CONTINUOUS
 10
1.111346
 20
-4.065508
  0
VERTEX
  8
PLAN_1
  6
CONTINUOUS
 10
1.113413
 20
-4.066024
  0
VERTEX
  8
PLAN_1
  6
CONTINUOUS
 10
1.115996
 20
-4.066543
  0
VERTEX
  8
PLAN_1
  6
CONTINUOUS
 10
1.118575
 20
-4.066543
  0
VERTEX
  8
PLAN_1
  6
CONTINUOUS
 10
1.122705
 20
-4.066024
  0
VERTEX
  8
PLAN_1
  6
CONTINUOUS
 10
1.127354
 20
-4.064992
  0
VERTEX
  8
PLAN_1
  6
CONTINUOUS
 10
1.130969
 20
-4.063445
  0
VERTEX
  8
PLAN_1
  6
CONTINUOUS
 10
1.135098
 20
-4.060862
  0
VERTEX
  8
PLAN_1
  6
CONTINUOUS
 10
1.138713
 20
-4.058280
  0
VERTEX
  8
PLAN_1
  6
CONTINUOUS
 10
1.141807
 20
-4.054665
  0
VERTEX
  8
PLAN_1
  6
CONTINUOUS
 10
1.145421
 20
-4.051055
  0
VERTEX
  8
PLAN_1
  6
CONTINUOUS
 10
1.148004
 20
-4.046921
  0
VERTEX
  8
PLAN_1
  6
CONTINUOUS
 10
1.150587
 20
-4.042791
  0
VERTEX
  8
PLAN_1
  6
CONTINUOUS
 10
1.153165
 20
-4.038146
  0
VERTEX
  8
PLAN_1
  6
CONTINUOUS
 10
1.155232
 20
-4.033500
  0
VERTEX
  8
PLAN_1
  6
CONTINUOUS
 10
1.156780
 20
-4.028854
  0
VERTEX
  8
PLAN_1
  6
CONTINUOUS
 10
1.158331
 20
-4.024205
  0
VERTEX
  8
PLAN_1
  6
CONTINUOUS
 10
1.159362
 20
-4.019559
  0
VERTEX
  8
PLAN_1
  6
CONTINUOUS
 10
1.159878
 20
-4.015429
  0
VERTEX
  8
PLAN_1
  6
CONTINUOUS
 10
1.159878
 20
-4.010783
  0
VERTEX
  8
PLAN_1
  6
CONTINUOUS
 10
1.159362
 20
-4.006138
  0
VERTEX
  8
PLAN_1
  6
CONTINUOUS
 10
1.158331
 20
-4.001488
  0
VERTEX
  8
PLAN_1
  6
CONTINUOUS
 10
1.155748
 20
-3.996843
  0
VERTEX
  8
PLAN_1
  6
CONTINUOUS
 10
1.153165
 20
-3.993228
  0
VERTEX
  8
PLAN_1
  6
CONTINUOUS
 10
1.149551
 20
-3.990130
  0
VERTEX
  8
PLAN_1
  6
CONTINUOUS
 10
1.145941
 20
-3.987551
  0
VERTEX
  8
PLAN_1
  6
CONTINUOUS
 10
1.141807
 20
-3.986000
  0
VERTEX
  8
PLAN_1
  6
CONTINUOUS
 10
1.137161
 20
-3.985484
  0
SEQEND
  8
0
  0
POLYLINE
  8
PLAN_1
  6
CONTINUOUS
 66
     1
 40
0.003000
 41
0.003000
  0
VERTEX
  8
PLAN_1
  6
CONTINUOUS
 10
1.292563
 20
-3.925079
  0
VERTEX
  8
PLAN_1
  6
CONTINUOUS
 10
1.380331
 20
-3.925079
  0
VERTEX
  8
PLAN_1
  6
CONTINUOUS
 10
1.387043
 20
-3.925079
  0
VERTEX
  8
PLAN_1
  6
CONTINUOUS
 10
1.393756
 20
-3.926114
  0
VERTEX
  8
PLAN_1
  6
CONTINUOUS
 10
1.399433
 20
-3.927146
  0
VERTEX
  8
PLAN_1
  6
CONTINUOUS
 10
1.405114
 20
-3.929209
  0
VERTEX
  8
PLAN_1
  6
CONTINUOUS
 10
1.409760
 20
-3.931276
  0
VERTEX
  8
PLAN_1
  6
CONTINUOUS
 10
1.414406
 20
-3.933858
  0
VERTEX
  8
PLAN_1
  6
CONTINUOUS
 10
1.418535
 20
-3.936437
  0
VERTEX
  8
PLAN_1
  6
CONTINUOUS
 10
1.422665
 20
-3.940051
  0
VERTEX
  8
PLAN_1
  6
CONTINUOUS
 10
1.425764
 20
-3.943665
  0
VERTEX
  8
PLAN_1
  6
CONTINUOUS
 10
1.428862
 20
-3.947280
  0
VERTEX
  8
PLAN_1
  6
CONTINUOUS
 10
1.431445
 20
-3.951409
  0
VERTEX
  8
PLAN_1
  6
CONTINUOUS
 10
1.432992
 20
-3.956059
  0
VERTEX
  8
PLAN_1
  6
CONTINUOUS
 10
1.434539
 20
-3.960705
  0
VERTEX
  8
PLAN_1
  6
CONTINUOUS
 10
1.436091
 20
-3.965350
  0
VERTEX
  8
PLAN_1
  6
CONTINUOUS
 10
1.436606
 20
-3.969996
  0
VERTEX
  8
PLAN_1
  6
CONTINUOUS
 10
1.436606
 20
-3.975161
  0
VERTEX
  8
PLAN_1
  6
CONTINUOUS
 10
1.436606
 20
-3.980323
  0
VERTEX
  8
PLAN_1
  6
CONTINUOUS
 10
1.435575
 20
-3.986000
  0
VERTEX
  8
PLAN_1
  6
CONTINUOUS
 10
1.434024
 20
-3.991165
  0
VERTEX
  8
PLAN_1
  6
CONTINUOUS
 10
1.431445
 20
-3.996843
  0
VERTEX
  8
PLAN_1
  6
CONTINUOUS
 10
1.429894
 20
-3.999941
  0
VERTEX
  8
PLAN_1
  6
CONTINUOUS
 10
1.428346
 20
-4.002524
  0
VERTEX
  8
PLAN_1
  6
CONTINUOUS
 10
1.426280
 20
-4.005102
  0
VERTEX
  8
PLAN_1
  6
CONTINUOUS
 10
1.423701
 20
-4.007685
  0
VERTEX
  8
PLAN_1
  6
CONTINUOUS
 10
1.420602
 20
-4.010268
  0
VERTEX
  8
PLAN_1
  6
CONTINUOUS
 10
1.417504
 20
-4.012846
  0
VERTEX
  8
PLAN_1
  6
CONTINUOUS
 10
1.413890
 20
-4.014913
  0
VERTEX
  8
PLAN_1
  6
CONTINUOUS
 10
1.410276
 20
-4.016980
  0
VERTEX
  8
PLAN_1
  6
CONTINUOUS
 10
1.415437
 20
-4.019043
  0
VERTEX
  8
PLAN_1
  6
CONTINUOUS
 10
1.421118
 20
-4.021626
  0
VERTEX
  8
PLAN_1
  6
CONTINUOUS
 10
1.427315
 20
-4.025756
  0
VERTEX
  8
PLAN_1
  6
CONTINUOUS
 10
1.432992
 20
-4.030402
  0
VERTEX
  8
PLAN_1
  6
CONTINUOUS
 10
1.435575
 20
-4.032984
  0
VERTEX
  8
PLAN_1
  6
CONTINUOUS
 10
1.438154
 20
-4.036598
  0
VERTEX
  8
PLAN_1
  6
CONTINUOUS
 10
1.440220
 20
-4.040213
  0
VERTEX
  8
PLAN_1
  6
CONTINUOUS
 10
1.442287
 20
-4.044343
  0
VERTEX
  8
PLAN_1
  6
CONTINUOUS
 10
1.443835
 20
-4.048472
  0
VERTEX
  8
PLAN_1
  6
CONTINUOUS
 10
1.445382
 20
-4.053634
  0
VERTEX
  8
PLAN_1
  6
CONTINUOUS
 10
1.445898
 20
-4.059315
  0
VERTEX
  8
PLAN_1
  6
CONTINUOUS
 10
1.446417
 20
-4.065508
  0
VERTEX
  8
PLAN_1
  6
CONTINUOUS
 10
1.445898
 20
-4.071189
  0
VERTEX
  8
PLAN_1
  6
CONTINUOUS
 10
1.444866
 20
-4.076866
  0
VERTEX
  8
PLAN_1
  6
CONTINUOUS
 10
1.443835
 20
-4.082547
  0
VERTEX
  8
PLAN_1
  6
CONTINUOUS
 10
1.441768
 20
-4.088224
  0
VERTEX
  8
PLAN_1
  6
CONTINUOUS
 10
1.439189
 20
-4.093390
  0
VERTEX
  8
PLAN_1
  6
CONTINUOUS
 10
1.436606
 20
-4.098035
  0
VERTEX
  8
PLAN_1
  6
CONTINUOUS
 10
1.432992
 20
-4.102681
  0
VERTEX
  8
PLAN_1
  6
CONTINUOUS
 10
1.428862
 20
-4.106811
  0
VERTEX
  8
PLAN_1
  6
CONTINUOUS
 10
1.424217
 20
-4.110425
  0
VERTEX
  8
PLAN_1
  6
CONTINUOUS
 10
1.419571
 20
-4.114039
  0
VERTEX
  8
PLAN_1
  6
CONTINUOUS
 10
1.413890
 20
-4.117138
  0
VERTEX
  8
PLAN_1
  6
CONTINUOUS
 10
1.407693
 20
-4.119720
  0
VERTEX
  8
PLAN_1
  6
CONTINUOUS
 10
1.400984
 20
-4.121783
  0
VERTEX
  8
PLAN_1
  6
CONTINUOUS
 10
1.394272
 20
-4.122815
  0
VERTEX
  8
PLAN_1
  6
CONTINUOUS
 10
1.386528
 20
-4.123850
  0
VERTEX
  8
PLAN_1
  6
CONTINUOUS
 10
1.378268
 20
-4.124366
  0
VERTEX
  8
PLAN_1
  6
CONTINUOUS
 10
1.292563
 20
-4.124366
  0
VERTEX
  8
PLAN_1
  6
CONTINUOUS
 10
1.292563
 20
-3.925079
  0
SEQEND
  8
0
  0
POLYLINE
  8
PLAN_1
  6
CONTINUOUS
 66
     1
 40
0.003000
 41
0.003000
  0
VERTEX
  8
PLAN_1
  6
CONTINUOUS
 10
1.319409
 20
-4.009236
  0
VERTEX
  8
PLAN_1
  6
CONTINUOUS
 10
1.368457
 20
-4.009236
  0
VERTEX
  8
PLAN_1
  6
CONTINUOUS
 10
1.377232
 20
-4.008717
  0
VERTEX
  8
PLAN_1
  6
CONTINUOUS
 10
1.385496
 20
-4.007685
  0
VERTEX
  8
PLAN_1
  6
CONTINUOUS
 10
1.389110
 20
-4.006654
  0
VERTEX
  8
PLAN_1
  6
CONTINUOUS
 10
1.392720
 20
-4.005622
  0
VERTEX
  8
PLAN_1
  6
CONTINUOUS
 10
1.395819
 20
-4.004071
  0
VERTEX
  8
PLAN_1
  6
CONTINUOUS
 10
1.398917
 20
-4.002524
  0
VERTEX
  8
PLAN_1
  6
CONTINUOUS
 10
1.401500
 20
-4.000457
  0
VERTEX
  8
PLAN_1
  6
CONTINUOUS
 10
1.403563
 20
-3.997878
  0
VERTEX
  8
PLAN_1
  6
CONTINUOUS
 10
1.405630
 20
-3.995295
  0
VERTEX
  8
PLAN_1
  6
CONTINUOUS
 10
1.407177
 20
-3.992713
  0
VERTEX
  8
PLAN_1
  6
CONTINUOUS
 10
1.408213
 20
-3.989098
  0
VERTEX
  8
PLAN_1
  6
CONTINUOUS
 10
1.409244
 20
-3.985484
  0
VERTEX
  8
PLAN_1
  6
CONTINUOUS
 10
1.409760
 20
-3.981354
  0
VERTEX
  8
PLAN_1
  6
CONTINUOUS
 10
1.409760
 20
-3.977224
  0
VERTEX
  8
PLAN_1
  6
CONTINUOUS
 10
1.409760
 20
-3.973610
  0
VERTEX
  8
PLAN_1
  6
CONTINUOUS
 10
1.409244
 20
-3.970512
  0
VERTEX
  8
PLAN_1
  6
CONTINUOUS
 10
1.408728
 20
-3.967417
  0
VERTEX
  8
PLAN_1
  6
CONTINUOUS
 10
1.407693
 20
-3.964835
  0
VERTEX
  8
PLAN_1
  6
CONTINUOUS
 10
1.406146
 20
-3.962252
  0
VERTEX
  8
PLAN_1
  6
CONTINUOUS
 10
1.404598
 20
-3.959669
  0
VERTEX
  8
PLAN_1
  6
CONTINUOUS
 10
1.402531
 20
-3.957606
  0
VERTEX
  8
PLAN_1
  6
CONTINUOUS
 10
1.400465
 20
-3.955539
  0
VERTEX
  8
PLAN_1
  6
CONTINUOUS
 10
1.397886
 20
-3.953992
  0
VERTEX
  8
PLAN_1
  6
CONTINUOUS
 10
1.394787
 20
-3.952445
  0
VERTEX
  8
PLAN_1
  6
CONTINUOUS
 10
1.391173
 20
-3.950894
  0
VERTEX
  8
PLAN_1
  6
CONTINUOUS
 10
1.387559
 20
-3.949862
  0
VERTEX
  8
PLAN_1
  6
CONTINUOUS
 10
1.383429
 20
-3.949346
  0
VERTEX
  8
PLAN_1
  6
CONTINUOUS
 10
1.378783
 20
-3.948311
  0
VERTEX
  8
PLAN_1
  6
CONTINUOUS
 10
1.374138
 20
-3.948311
  0
VERTEX
  8
PLAN_1
  6
CONTINUOUS
 10
1.368457
 20
-3.947795
  0
VERTEX
  8
PLAN_1
  6
CONTINUOUS
 10
1.319409
 20
-3.947795
  0
VERTEX
  8
PLAN_1
  6
CONTINUOUS
 10
1.319409
 20
-4.009236
  0
SEQEND
  8
0
  0
POLYLINE
  8
PLAN_1
  6
CONTINUOUS
 66
     1
 40
0.003000
 41
0.003000
  0
VERTEX
  8
PLAN_1
  6
CONTINUOUS
 10
1.319409
 20
-4.101134
  0
VERTEX
  8
PLAN_1
  6
CONTINUOUS
 10
1.377232
 20
-4.101134
  0
VERTEX
  8
PLAN_1
  6
CONTINUOUS
 10
1.382398
 20
-4.101134
  0
VERTEX
  8
PLAN_1
  6
CONTINUOUS
 10
1.387043
 20
-4.100618
  0
VERTEX
  8
PLAN_1
  6
CONTINUOUS
 10
1.391173
 20
-4.099583
  0
VERTEX
  8
PLAN_1
  6
CONTINUOUS
 10
1.395303
 20
-4.098551
  0
VERTEX
  8
PLAN_1
  6
CONTINUOUS
 10
1.399433
 20
-4.097004
  0
VERTEX
  8
PLAN_1
  6
CONTINUOUS
 10
1.402531
 20
-4.095453
  0
VERTEX
  8
PLAN_1
  6
CONTINUOUS
 10
1.406146
 20
-4.093390
  0
VERTEX
  8
PLAN_1
  6
CONTINUOUS
 10
1.408728
 20
-4.091323
  0
VERTEX
  8
PLAN_1
  6
CONTINUOUS
 10
1.411307
 20
-4.088740
  0
VERTEX
  8
PLAN_1
  6
CONTINUOUS
 10
1.413374
 20
-4.086161
  0
VERTEX
  8
PLAN_1
  6
CONTINUOUS
 10
1.414921
 20
-4.083063
  0
VERTEX
  8
PLAN_1
  6
CONTINUOUS
 10
1.416472
 20
-4.079965
  0
VERTEX
  8
PLAN_1
  6
CONTINUOUS
 10
1.418020
 20
-4.076350
  0
VERTEX
  8
PLAN_1
  6
CONTINUOUS
 10
1.418535
 20
-4.072736
  0
VERTEX
  8
PLAN_1
  6
CONTINUOUS
 10
1.419051
 20
-4.069122
  0
VERTEX
  8
PLAN_1
  6
CONTINUOUS
 10
1.419051
 20
-4.064992
  0
VERTEX
  8
PLAN_1
  6
CONTINUOUS
 10
1.419051
 20
-4.059831
  0
VERTEX
  8
PLAN_1
  6
CONTINUOUS
 10
1.418020
 20
-4.055185
  0
VERTEX
  8
PLAN_1
  6
CONTINUOUS
 10
1.416988
 20
-4.051571
  0
VERTEX
  8
PLAN_1
  6
CONTINUOUS
 10
1.414921
 20
-4.047957
  0
VERTEX
  8
PLAN_1
  6
CONTINUOUS
 10
1.412858
 20
-4.044858
  0
VERTEX
  8
PLAN_1
  6
CONTINUOUS
 10
1.410276
 20
-4.041760
  0
VERTEX
  8
PLAN_1
  6
CONTINUOUS
 10
1.407177
 20
-4.039697
  0
VERTEX
  8
PLAN_1
  6
CONTINUOUS
 10
1.404079
 20
-4.037630
  0
VERTEX
  8
PLAN_1
  6
CONTINUOUS
 10
1.400984
 20
-4.036083
  0
VERTEX
  8
PLAN_1
  6
CONTINUOUS
 10
1.396854
 20
-4.034531
  0
VERTEX
  8
PLAN_1
  6
CONTINUOUS
 10
1.393240
 20
-4.033500
  0
VERTEX
  8
PLAN_1
  6
CONTINUOUS
 10
1.389110
 20
-4.032469
  0
VERTEX
  8
PLAN_1
  6
CONTINUOUS
 10
1.380846
 20
-4.031433
  0
VERTEX
  8
PLAN_1
  6
CONTINUOUS
 10
1.372587
 20
-4.031433
  0
VERTEX
  8
PLAN_1
  6
CONTINUOUS
 10
1.319409
 20
-4.031433
  0
VERTEX
  8
PLAN_1
  6
CONTINUOUS
 10
1.319409
 20
-4.101134
  0
SEQEND
  8
0
  0
POLYLINE
  8
PLAN_1
  6
CONTINUOUS
 66
     1
 40
0.003000
 41
0.003000
  0
VERTEX
  8
PLAN_1
  6
CONTINUOUS
 10
1.556902
 20
-4.124366
  0
VERTEX
  8
PLAN_1
  6
CONTINUOUS
 10
1.531087
 20
-4.124366
  0
VERTEX
  8
PLAN_1
  6
CONTINUOUS
 10
1.531087
 20
-3.985484
  0
VERTEX
  8
PLAN_1
  6
CONTINUOUS
 10
1.485654
 20
-3.985484
  0
VERTEX
  8
PLAN_1
  6
CONTINUOUS
 10
1.485654
 20
-3.966382
  0
VERTEX
  8
PLAN_1
  6
CONTINUOUS
 10
1.496496
 20
-3.965350
  0
VERTEX
  8
PLAN_1
  6
CONTINUOUS
 10
1.505787
 20
-3.964319
  0
VERTEX
  8
PLAN_1
  6
CONTINUOUS
 10
1.509917
 20
-3.963283
  0
VERTEX
  8
PLAN_1
  6
CONTINUOUS
 10
1.514047
 20
-3.961736
  0
VERTEX
  8
PLAN_1
  6
CONTINUOUS
 10
1.517661
 20
-3.960705
  0
VERTEX
  8
PLAN_1
  6
CONTINUOUS
 10
1.520760
 20
-3.958638
  0
VERTEX
  8
PLAN_1
  6
CONTINUOUS
 10
1.523343
 20
-3.956575
  0
VERTEX
  8
PLAN_1
  6
CONTINUOUS
 10
1.526441
 20
-3.954508
  0
VERTEX
  8
PLAN_1
  6
CONTINUOUS
 10
1.528504
 20
-3.951409
  0
VERTEX
  8
PLAN_1
  6
CONTINUOUS
 10
1.531087
 20
-3.948311
  0
VERTEX
  8
PLAN_1
  6
CONTINUOUS
 10
1.533150
 20
-3.944181
  0
VERTEX
  8
PLAN_1
  6
CONTINUOUS
 10
1.534701
 20
-3.940051
  0
VERTEX
  8
PLAN_1
  6
CONTINUOUS
 10
1.536248
 20
-3.934890
  0
VERTEX
  8
PLAN_1
  6
CONTINUOUS
 10
1.537799
 20
-3.929209
  0
VERTEX
  8
PLAN_1
  6
CONTINUOUS
 10
1.556902
 20
-3.929209
  0
VERTEX
  8
PLAN_1
  6
CONTINUOUS
 10
1.556902
 20
-4.124366
  0
SEQEND
  8
0
  0
POLYLINE
  8
PLAN_1
  6
CONTINUOUS
 66
     1
 40
0.003000
 41
0.003000
  0
VERTEX
  8
PLAN_1
  6
CONTINUOUS
 10
1.663256
 20
-4.124366
  0
VERTEX
  8
PLAN_1
  6
CONTINUOUS
 10
1.636409
 20
-4.124366
  0
VERTEX
  8
PLAN_1
  6
CONTINUOUS
 10
1.636409
 20
-3.925079
  0
VERTEX
  8
PLAN_1
  6
CONTINUOUS
 10
1.728307
 20
-3.925079
  0
VERTEX
  8
PLAN_1
  6
CONTINUOUS
 10
1.734500
 20
-3.925079
  0
VERTEX
  8
PLAN_1
  6
CONTINUOUS
 10
1.740697
 20
-3.925598
  0
VERTEX
  8
PLAN_1
  6
CONTINUOUS
 10
1.746378
 20
-3.926114
  0
VERTEX
  8
PLAN_1
  6
CONTINUOUS
 10
1.752571
 20
-3.927146
  0
VERTEX
  8
PLAN_1
  6
CONTINUOUS
 10
1.758252
 20
-3.928693
  0
VERTEX
  8
PLAN_1
  6
CONTINUOUS
 10
1.763413
 20
-3.930760
  0
VERTEX
  8
PLAN_1
  6
CONTINUOUS
 10
1.768575
 20
-3.933343
  0
VERTEX
  8
PLAN_1
  6
CONTINUOUS
 10
1.773224
 20
-3.935921
  0
VERTEX
  8
PLAN_1
  6
CONTINUOUS
 10
1.777870
 20
-3.939020
  0
VERTEX
  8
PLAN_1
  6
CONTINUOUS
 10
1.782000
 20
-3.943150
  0
VERTEX
  8
PLAN_1
  6
CONTINUOUS
 10
1.785098
 20
-3.947280
  0
VERTEX
  8
PLAN_1
  6
CONTINUOUS
 10
1.788197
 20
-3.952445
  0
VERTEX
  8
PLAN_1
  6
CONTINUOUS
 10
1.790776
 20
-3.958122
  0
VERTEX
  8
PLAN_1
  6
CONTINUOUS
 10
1.792327
 20
-3.964319
  0
VERTEX
  8
PLAN_1
  6
CONTINUOUS
 10
1.793358
 20
-3.971028
  0
VERTEX
  8
PLAN_1
  6
CONTINUOUS
 10
1.793874
 20
-3.978776
  0
VERTEX
  8
PLAN_1
  6
CONTINUOUS
 10
1.793874
 20
-3.983937
  0
VERTEX
  8
PLAN_1
  6
CONTINUOUS
 10
1.793358
 20
-3.988583
  0
VERTEX
  8
PLAN_1
  6
CONTINUOUS
 10
1.792327
 20
-3.993228
  0
VERTEX
  8
PLAN_1
  6
CONTINUOUS
 10
1.791291
 20
-3.997358
  0
VERTEX
  8
PLAN_1
  6
CONTINUOUS
 10
1.790260
 20
-4.000972
  0
VERTEX
  8
PLAN_1
  6
CONTINUOUS
 10
1.788713
 20
-4.004587
  0
VERTEX
  8
PLAN_1
  6
CONTINUOUS
 10
1.786646
 20
-4.007685
  0
VERTEX
  8
PLAN_1
  6
CONTINUOUS
 10
1.784583
 20
-4.010783
  0
VERTEX
  8
PLAN_1
  6
CONTINUOUS
 10
1.780453
 20
-4.015429
  0
VERTEX
  8
PLAN_1
  6
CONTINUOUS
 10
1.775803
 20
-4.019559
  0
VERTEX
  8
PLAN_1
  6
CONTINUOUS
 10
1.771157
 20
-4.023173
  0
VERTEX
  8
PLAN_1
  6
CONTINUOUS
 10
1.765996
 20
-4.026272
  0
VERTEX
  8
PLAN_1
  6
CONTINUOUS
 10
1.770126
 20
-4.028339
  0
VERTEX
  8
PLAN_1
  6
CONTINUOUS
 10
1.774256
 20
-4.030402
  0
VERTEX
  8
PLAN_1
  6
CONTINUOUS
 10
1.778386
 20
-4.032984
  0
VERTEX
  8
PLAN_1
  6
CONTINUOUS
 10
1.782000
 20
-4.036598
  0
VERTEX
  8
PLAN_1
  6
CONTINUOUS
 10
1.783547
 20
-4.038661
  0
VERTEX
  8
PLAN_1
  6
CONTINUOUS
 10
1.785098
 20
-4.040728
  0
VERTEX
  8
PLAN_1
  6
CONTINUOUS
 10
1.786130
 20
-4.043827
  0
VERTEX
  8
PLAN_1
  6
CONTINUOUS
 10
1.787161
 20
-4.046921
  0
VERTEX
  8
PLAN_1
  6
CONTINUOUS
 10
1.788197
 20
-4.050535
  0
VERTEX
  8
PLAN_1
  6
CONTINUOUS
 10
1.789228
 20
-4.054150
  0
VERTEX
  8
PLAN_1
  6
CONTINUOUS
 10
1.789744
 20
-4.058799
  0
VERTEX
  8
PLAN_1
  6
CONTINUOUS
 10
1.789744
 20
-4.063961
  0
VERTEX
  8
PLAN_1
  6
CONTINUOUS
 10
1.791811
 20
-4.099583
  0
VERTEX
  8
PLAN_1
  6
CONTINUOUS
 10
1.791811
 20
-4.103713
  0
VERTEX
  8
PLAN_1
  6
CONTINUOUS
 10
1.792327
 20
-4.106811
  0
VERTEX
  8
PLAN_1
  6
CONTINUOUS
 10
1.792843
 20
-4.109909
  0
VERTEX
  8
PLAN_1
  6
CONTINUOUS
 10
1.793874
 20
-4.111976
  0
VERTEX
  8
PLAN_1
  6
CONTINUOUS
 10
1.794906
 20
-4.114555
  0
VERTEX
  8
PLAN_1
  6
CONTINUOUS
 10
1.796457
 20
-4.116106
  0
VERTEX
  8
PLAN_1
  6
CONTINUOUS
 10
1.799035
 20
-4.118169
  0
VERTEX
  8
PLAN_1
  6
CONTINUOUS
 10
1.801618
 20
-4.119720
  0
VERTEX
  8
PLAN_1
  6
CONTINUOUS
 10
1.801618
 20
-4.124366
  0
VERTEX
  8
PLAN_1
  6
CONTINUOUS
 10
1.768575
 20
-4.124366
  0
VERTEX
  8
PLAN_1
  6
CONTINUOUS
 10
1.767543
 20
-4.118685
  0
VERTEX
  8
PLAN_1
  6
CONTINUOUS
 10
1.765996
 20
-4.112492
  0
VERTEX
  8
PLAN_1
  6
CONTINUOUS
 10
1.765480
 20
-4.105264
  0
VERTEX
  8
PLAN_1
  6
CONTINUOUS
 10
1.764961
 20
-4.097520
  0
VERTEX
  8
PLAN_1
  6
CONTINUOUS
 10
1.764445
 20
-4.090291
  0
VERTEX
  8
PLAN_1
  6
CONTINUOUS
 10
1.763929
 20
-4.083579
  0
VERTEX
  8
PLAN_1
  6
CONTINUOUS
 10
1.763929
 20
-4.077902
  0
VERTEX
  8
PLAN_1
  6
CONTINUOUS
 10
1.763929
 20
-4.074287
  0
VERTEX
  8
PLAN_1
  6
CONTINUOUS
 10
1.763929
 20
-4.068091
  0
VERTEX
  8
PLAN_1
  6
CONTINUOUS
 10
1.762898
 20
-4.061894
  0
VERTEX
  8
PLAN_1
  6
CONTINUOUS
 10
1.762382
 20
-4.058799
  0
VERTEX
  8
PLAN_1
  6
CONTINUOUS
 10
1.761346
 20
-4.055701
  0
VERTEX
  8
PLAN_1
  6
CONTINUOUS
 10
1.759799
 20
-4.053118
  0
VERTEX
  8
PLAN_1
  6
CONTINUOUS
 10
1.758252
 20
-4.050535
  0
VERTEX
  8
PLAN_1
  6
CONTINUOUS
 10
1.756185
 20
-4.047957
  0
VERTEX
  8
PLAN_1
  6
CONTINUOUS
 10
1.753602
 20
-4.045890
  0
VERTEX
  8
PLAN_1
  6
CONTINUOUS
 10
1.751024
 20
-4.043827
  0
VERTEX
  8
PLAN_1
  6
CONTINUOUS
 10
1.747409
 20
-4.041760
  0
VERTEX
  8
PLAN_1
  6
CONTINUOUS
 10
1.743795
 20
-4.040728
  0
VERTEX
  8
PLAN_1
  6
CONTINUOUS
 10
1.739150
 20
-4.039697
  0
VERTEX
  8
PLAN_1
  6
CONTINUOUS
 10
1.733984
 20
-4.039177
  0
VERTEX
  8
PLAN_1
  6
CONTINUOUS
 10
1.728307
 20
-4.038661
  0
VERTEX
  8
PLAN_1
  6
CONTINUOUS
 10
1.663256
 20
-4.038661
  0
VERTEX
  8
PLAN_1
  6
CONTINUOUS
 10
1.663256
 20
-4.124366
  0
SEQEND
  8
0
  0
POLYLINE
  8
PLAN_1
  6
CONTINUOUS
 66
     1
 40
0.003000
 41
0.003000
  0
VERTEX
  8
PLAN_1
  6
CONTINUOUS
 10
1.663256
 20
-4.015945
  0
VERTEX
  8
PLAN_1
  6
CONTINUOUS
 10
1.725724
 20
-4.015945
  0
VERTEX
  8
PLAN_1
  6
CONTINUOUS
 10
1.732953
 20
-4.015429
  0
VERTEX
  8
PLAN_1
  6
CONTINUOUS
 10
1.740181
 20
-4.014398
  0
VERTEX
  8
PLAN_1
  6
CONTINUOUS
 10
1.743795
 20
-4.013882
  0
VERTEX
  8
PLAN_1
  6
CONTINUOUS
 10
1.746894
 20
-4.012846
  0
VERTEX
  8
PLAN_1
  6
CONTINUOUS
 10
1.750508
 20
-4.011299
  0
VERTEX
  8
PLAN_1
  6
CONTINUOUS
 10
1.753087
 20
-4.009752
  0
VERTEX
  8
PLAN_1
  6
CONTINUOUS
 10
1.756185
 20
-4.007685
  0
VERTEX
  8
PLAN_1
  6
CONTINUOUS
 10
1.758252
 20
-4.005102
  0
VERTEX
  8
PLAN_1
  6
CONTINUOUS
 10
1.760831
 20
-4.002524
  0
VERTEX
  8
PLAN_1
  6
CONTINUOUS
 10
1.762382
 20
-3.998909
  0
VERTEX
  8
PLAN_1
  6
CONTINUOUS
 10
1.763929
 20
-3.995295
  0
VERTEX
  8
PLAN_1
  6
CONTINUOUS
 10
1.764961
 20
-3.991165
  0
VERTEX
  8
PLAN_1
  6
CONTINUOUS
 10
1.765996
 20
-3.986520
  0
VERTEX
  8
PLAN_1
  6
CONTINUOUS
 10
1.765996
 20
-3.981354
  0
VERTEX
  8
PLAN_1
  6
CONTINUOUS
 10
1.765996
 20
-3.975677
  0
VERTEX
  8
PLAN_1
  6
CONTINUOUS
 10
1.764961
 20
-3.971028
  0
VERTEX
  8
PLAN_1
  6
CONTINUOUS
 10
1.763929
 20
-3.966898
  0
VERTEX
  8
PLAN_1
  6
CONTINUOUS
 10
1.762382
 20
-3.963283
  0
VERTEX
  8
PLAN_1
  6
CONTINUOUS
 10
1.760315
 20
-3.960189
  0
VERTEX
  8
PLAN_1
  6
CONTINUOUS
 10
1.758252
 20
-3.957091
  0
VERTEX
  8
PLAN_1
  6
CONTINUOUS
 10
1.755669
 20
-3.955024
  0
VERTEX
  8
PLAN_1
  6
CONTINUOUS
 10
1.753087
 20
-3.952961
  0
VERTEX
  8
PLAN_1
  6
CONTINUOUS
 10
1.750508
 20
-3.951409
  0
VERTEX
  8
PLAN_1
  6
CONTINUOUS
 10
1.747409
 20
-3.950378
  0
VERTEX
  8
PLAN_1
  6
CONTINUOUS
 10
1.744311
 20
-3.949346
  0
VERTEX
  8
PLAN_1
  6
CONTINUOUS
 10
1.741728
 20
-3.948831
  0
VERTEX
  8
PLAN_1
  6
CONTINUOUS
 10
1.735535
 20
-3.948311
  0
VERTEX
  8
PLAN_1
  6
CONTINUOUS
 10
1.730370
 20
-3.947795
  0
VERTEX
  8
PLAN_1
  6
CONTINUOUS
 10
1.663256
 20
-3.947795
  0
VERTEX
  8
PLAN_1
  6
CONTINUOUS
 10
1.663256
 20
-4.015945
  0
SEQEND
  8
0
  0
SOLID
  8
PLAN_1
 10
1.865122
 20
-4.124366
 11
1.836209
 21
-4.124366
 12
1.865122
 22
-4.094937
 13
1.836209
 23
-4.094937
  0
POLYLINE
  8
PLAN_1
  6
CONTINUOUS
 66
     1
 40
0.003000
 41
0.003000
  0
VERTEX
  8
PLAN_1
  6
CONTINUOUS
 10
1.865122
 20
-4.124366
  0
VERTEX
  8
PLAN_1
  6
CONTINUOUS
 10
1.836209
 20
-4.124366
  0
VERTEX
  8
PLAN_1
  6
CONTINUOUS
 10
1.836209
 20
-4.094937
  0
VERTEX
  8
PLAN_1
  6
CONTINUOUS
 10
1.865122
 20
-4.094937
  0
VERTEX
  8
PLAN_1
  6
CONTINUOUS
 10
1.865122
 20
-4.124366
  0
SEQEND
  8
0
  0
POLYLINE
  8
PLAN_1
  6
CONTINUOUS
 66
     1
 40
0.003000
 41
0.003000
  0
VERTEX
  8
PLAN_1
  6
CONTINUOUS
 10
2.060276
 20
-4.124366
  0
VERTEX
  8
PLAN_1
  6
CONTINUOUS
 10
1.913134
 20
-4.124366
  0
VERTEX
  8
PLAN_1
  6
CONTINUOUS
 10
1.913134
 20
-3.925079
  0
VERTEX
  8
PLAN_1
  6
CONTINUOUS
 10
2.058728
 20
-3.925079
  0
VERTEX
  8
PLAN_1
  6
CONTINUOUS
 10
2.058728
 20
-3.948831
  0
VERTEX
  8
PLAN_1
  6
CONTINUOUS
 10
1.940500
 20
-3.948831
  0
VERTEX
  8
PLAN_1
  6
CONTINUOUS
 10
1.940500
 20
-4.009752
  0
VERTEX
  8
PLAN_1
  6
CONTINUOUS
 10
2.049433
 20
-4.009752
  0
VERTEX
  8
PLAN_1
  6
CONTINUOUS
 10
2.049433
 20
-4.034016
  0
VERTEX
  8
PLAN_1
  6
CONTINUOUS
 10
1.940500
 20
-4.034016
  0
VERTEX
  8
PLAN_1
  6
CONTINUOUS
 10
1.940500
 20
-4.100618
  0
VERTEX
  8
PLAN_1
  6
CONTINUOUS
 10
2.060276
 20
-4.100618
  0
VERTEX
  8
PLAN_1
  6
CONTINUOUS
 10
2.060276
 20
-4.124366
  0
SEQEND
  8
0
  0
POLYLINE
  8
PLAN_1
  6
CONTINUOUS
 66
     1
 40
0.003000
 41
0.003000
  0
VERTEX
  8
PLAN_1
  6
CONTINUOUS
 10
2.125327
 20
-4.124366
  0
VERTEX
  8
PLAN_1
  6
CONTINUOUS
 10
2.098480
 20
-4.124366
  0
VERTEX
  8
PLAN_1
  6
CONTINUOUS
 10
2.098480
 20
-3.925079
  0
VERTEX
  8
PLAN_1
  6
CONTINUOUS
 10
2.188315
 20
-3.925079
  0
VERTEX
  8
PLAN_1
  6
CONTINUOUS
 10
2.195028
 20
-3.925079
  0
VERTEX
  8
PLAN_1
  6
CONTINUOUS
 10
2.201220
 20
-3.926114
  0
VERTEX
  8
PLAN_1
  6
CONTINUOUS
 10
2.207417
 20
-3.927146
  0
VERTEX
  8
PLAN_1
  6
CONTINUOUS
 10
2.213094
 20
-3.929209
  0
VERTEX
  8
PLAN_1
  6
CONTINUOUS
 10
2.218260
 20
-3.931276
  0
VERTEX
  8
PLAN_1
  6
CONTINUOUS
 10
2.222906
 20
-3.934374
  0
VERTEX
  8
PLAN_1
  6
CONTINUOUS
 10
2.227551
 20
-3.937472
  0
VERTEX
  8
PLAN_1
  6
CONTINUOUS
 10
2.231681
 20
-3.941087
  0
VERTEX
  8
PLAN_1
  6
CONTINUOUS
 10
2.235295
 20
-3.944701
  0
VERTEX
  8
PLAN_1
  6
CONTINUOUS
 10
2.238394
 20
-3.949346
  0
VERTEX
  8
PLAN_1
  6
CONTINUOUS
 10
2.240976
 20
-3.953992
  0
VERTEX
  8
PLAN_1
  6
CONTINUOUS
 10
2.243039
 20
-3.958638
  0
VERTEX
  8
PLAN_1
  6
CONTINUOUS
 10
2.245106
 20
-3.963803
  0
VERTEX
  8
PLAN_1
  6
CONTINUOUS
 10
2.246138
 20
-3.969480
  0
VERTEX
  8
PLAN_1
  6
CONTINUOUS
 10
2.247169
 20
-3.975161
  0
VERTEX
  8
PLAN_1
  6
CONTINUOUS
 10
2.247169
 20
-3.980839
  0
VERTEX
  8
PLAN_1
  6
CONTINUOUS
 10
2.247169
 20
-3.986520
  0
VERTEX
  8
PLAN_1
  6
CONTINUOUS
 10
2.246654
 20
-3.991681
  0
VERTEX
  8
PLAN_1
  6
CONTINUOUS
 10
2.245622
 20
-3.996843
  0
VERTEX
  8
PLAN_1
  6
CONTINUOUS
 10
2.244075
 20
-4.002008
  0
VERTEX
  8
PLAN_1
  6
CONTINUOUS
 10
2.242524
 20
-4.007169
  0
VERTEX
  8
PLAN_1
  6
CONTINUOUS
 10
2.239941
 20
-4.011815
  0
VERTEX
  8
PLAN_1
  6
CONTINUOUS
 10
2.237362
 20
-4.016461
  0
VERTEX
  8
PLAN_1
  6
CONTINUOUS
 10
2.233748
 20
-4.021110
  0
VERTEX
  8
PLAN_1
  6
CONTINUOUS
 10
2.230134
 20
-4.025240
  0
VERTEX
  8
PLAN_1
  6
CONTINUOUS
 10
2.226004
 20
-4.028854
  0
VERTEX
  8
PLAN_1
  6
CONTINUOUS
 10
2.220839
 20
-4.031949
  0
VERTEX
  8
PLAN_1
  6
CONTINUOUS
 10
2.215677
 20
-4.035047
  0
VERTEX
  8
PLAN_1
  6
CONTINUOUS
 10
2.209480
 20
-4.037114
  0
VERTEX
  8
PLAN_1
  6
CONTINUOUS
 10
2.203287
 20
-4.038661
  0
VERTEX
  8
PLAN_1
  6
CONTINUOUS
 10
2.196059
 20
-4.039697
  0
VERTEX
  8
PLAN_1
  6
CONTINUOUS
 10
2.188315
 20
-4.040213
  0
VERTEX
  8
PLAN_1
  6
CONTINUOUS
 10
2.125327
 20
-4.040213
  0
VERTEX
  8
PLAN_1
  6
CONTINUOUS
 10
2.125327
 20
-4.124366
  0
SEQEND
  8
0
  0
POLYLINE
  8
PLAN_1
  6
CONTINUOUS
 66
     1
 40
0.003000
 41
0.003000
  0
VERTEX
  8
PLAN_1
  6
CONTINUOUS
 10
2.125327
 20
-4.016980
  0
VERTEX
  8
PLAN_1
  6
CONTINUOUS
 10
2.179020
 20
-4.016980
  0
VERTEX
  8
PLAN_1
  6
CONTINUOUS
 10
2.187799
 20
-4.016461
  0
VERTEX
  8
PLAN_1
  6
CONTINUOUS
 10
2.195543
 20
-4.015429
  0
VERTEX
  8
PLAN_1
  6
CONTINUOUS
 10
2.199157
 20
-4.014398
  0
VERTEX
  8
PLAN_1
  6
CONTINUOUS
 10
2.202256
 20
-4.012846
  0
VERTEX
  8
PLAN_1
  6
CONTINUOUS
 10
2.205350
 20
-4.011299
  0
VERTEX
  8
PLAN_1
  6
CONTINUOUS
 10
2.208449
 20
-4.009236
  0
VERTEX
  8
PLAN_1
  6
CONTINUOUS
 10
2.211031
 20
-4.007169
  0
VERTEX
  8
PLAN_1
  6
CONTINUOUS
 10
2.213094
 20
-4.004587
  0
VERTEX
  8
PLAN_1
  6
CONTINUOUS
 10
2.215161
 20
-4.001488
  0
VERTEX
  8
PLAN_1
  6
CONTINUOUS
 10
2.216709
 20
-3.998394
  0
VERTEX
  8
PLAN_1
  6
CONTINUOUS
 10
2.217744
 20
-3.994780
  0
VERTEX
  8
PLAN_1
  6
CONTINUOUS
 10
2.218776
 20
-3.990650
  0
VERTEX
  8
PLAN_1
  6
CONTINUOUS
 10
2.219291
 20
-3.986000
  0
VERTEX
  8
PLAN_1
  6
CONTINUOUS
 10
2.219807
 20
-3.981354
  0
VERTEX
  8
PLAN_1
  6
CONTINUOUS
 10
2.219291
 20
-3.976709
  0
VERTEX
  8
PLAN_1
  6
CONTINUOUS
 10
2.218776
 20
-3.972579
  0
VERTEX
  8
PLAN_1
  6
CONTINUOUS
 10
2.217744
 20
-3.968965
  0
VERTEX
  8
PLAN_1
  6
CONTINUOUS
 10
2.216709
 20
-3.965350
  0
VERTEX
  8
PLAN_1
  6
CONTINUOUS
 10
2.214646
 20
-3.962252
  0
VERTEX
  8
PLAN_1
  6
CONTINUOUS
 10
2.213094
 20
-3.959669
  0
VERTEX
  8
PLAN_1
  6
CONTINUOUS
 10
2.210516
 20
-3.957091
  0
VERTEX
  8
PLAN_1
  6
CONTINUOUS
 10
2.207933
 20
-3.955024
  0
VERTEX
  8
PLAN_1
  6
CONTINUOUS
 10
2.205350
 20
-3.953476
  0
VERTEX
  8
PLAN_1
  6
CONTINUOUS
 10
2.202256
 20
-3.951925
  0
VERTEX
  8
PLAN_1
  6
CONTINUOUS
 10
2.199157
 20
-3.950894
  0
VERTEX
  8
PLAN_1
  6
CONTINUOUS
 10
2.195543
 20
-3.949862
  0
VERTEX
  8
PLAN_1
  6
CONTINUOUS
 10
2.188315
 20
-3.948311
  0
VERTEX
  8
PLAN_1
  6
CONTINUOUS
 10
2.180055
 20
-3.947795
  0
VERTEX
  8
PLAN_1
  6
CONTINUOUS
 10
2.125327
 20
-3.947795
  0
VERTEX
  8
PLAN_1
  6
CONTINUOUS
 10
2.125327
 20
-4.016980
  0
SEQEND
  8
0
  0
POLYLINE
  8
PLAN_1
  6
CONTINUOUS
 66
     1
 40
0.003000
 41
0.003000
  0
VERTEX
  8
PLAN_1
  6
CONTINUOUS
 10
2.401024
 20
-3.983421
  0
VERTEX
  8
PLAN_1
  6
CONTINUOUS
 10
2.400508
 20
-3.977740
  0
VERTEX
  8
PLAN_1
  6
CONTINUOUS
 10
2.399472
 20
-3.972579
  0
VERTEX
  8
PLAN_1
  6
CONTINUOUS
 10
2.397925
 20
-3.967933
  0
VERTEX
  8
PLAN_1
  6
CONTINUOUS
 10
2.395858
 20
-3.963803
  0
VERTEX
  8
PLAN_1
  6
CONTINUOUS
 10
2.393795
 20
-3.960189
  0
VERTEX
  8
PLAN_1
  6
CONTINUOUS
 10
2.390697
 20
-3.957091
  0
VERTEX
  8
PLAN_1
  6
CONTINUOUS
 10
2.387598
 20
-3.953992
  0
VERTEX
  8
PLAN_1
  6
CONTINUOUS
 10
2.384500
 20
-3.951409
  0
VERTEX
  8
PLAN_1
  6
CONTINUOUS
 10
2.380890
 20
-3.949346
  0
VERTEX
  8
PLAN_1
  6
CONTINUOUS
 10
2.376756
 20
-3.947280
  0
VERTEX
  8
PLAN_1
  6
CONTINUOUS
 10
2.373146
 20
-3.945732
  0
VERTEX
  8
PLAN_1
  6
CONTINUOUS
 10
2.369012
 20
-3.944701
  0
VERTEX
  8
PLAN_1
  6
CONTINUOUS
 10
2.364366
 20
-3.943665
  0
VERTEX
  8
PLAN_1
  6
CONTINUOUS
 10
2.360236
 20
-3.943150
  0
VERTEX
  8
PLAN_1
  6
CONTINUOUS
 10
2.356106
 20
-3.942634
  0
VERTEX
  8
PLAN_1
  6
CONTINUOUS
 10
2.351976
 20
-3.942634
  0
VERTEX
  8
PLAN_1
  6
CONTINUOUS
 10
2.344748
 20
-3.943150
  0
VERTEX
  8
PLAN_1
  6
CONTINUOUS
 10
2.337520
 20
-3.944181
  0
VERTEX
  8
PLAN_1
  6
CONTINUOUS
 10
2.333906
 20
-3.944701
  0
VERTEX
  8
PLAN_1
  6
CONTINUOUS
 10
2.329776
 20
-3.945732
  0
VERTEX
  8
PLAN_1
  6
CONTINUOUS
 10
2.326161
 20
-3.947280
  0
VERTEX
  8
PLAN_1
  6
CONTINUOUS
 10
2.322547
 20
-3.948831
  0
VERTEX
  8
PLAN_1
  6
CONTINUOUS
 10
2.319449
 20
-3.950894
  0
VERTEX
  8
PLAN_1
  6
CONTINUOUS
 10
2.316354
 20
-3.953476
  0
VERTEX
  8
PLAN_1
  6
CONTINUOUS
 10
2.313256
 20
-3.956059
  0
VERTEX
  8
PLAN_1
  6
CONTINUOUS
 10
2.311189
 20
-3.959669
  0
VERTEX
  8
PLAN_1
  6
CONTINUOUS
 10
2.309126
 20
-3.963283
  0
VERTEX
  8
PLAN_1
  6
CONTINUOUS
 10
2.307575
 20
-3.967417
  0
VERTEX
  8
PLAN_1
  6
CONTINUOUS
 10
2.306543
 20
-3.972579
  0
VERTEX
  8
PLAN_1
  6
CONTINUOUS
 10
2.306028
 20
-3.977740
  0
VERTEX
  8
PLAN_1
  6
CONTINUOUS
 10
2.306543
 20
-3.980839
  0
VERTEX
  8
PLAN_1
  6
CONTINUOUS
 10
2.306543
 20
-3.983421
  0
VERTEX
  8
PLAN_1
  6
CONTINUOUS
 10
2.307575
 20
-3.986000
  0
VERTEX
  8
PLAN_1
  6
CONTINUOUS
 10
2.308091
 20
-3.988583
  0
VERTEX
  8
PLAN_1
  6
CONTINUOUS
 10
2.310673
 20
-3.992197
  0
VERTEX
  8
PLAN_1
  6
CONTINUOUS
 10
2.313772
 20
-3.995811
  0
VERTEX
  8
PLAN_1
  6
CONTINUOUS
 10
2.317386
 20
-3.998394
  0
VERTEX
  8
PLAN_1
  6
CONTINUOUS
 10
2.321000
 20
-4.000457
  0
VERTEX
  8
PLAN_1
  6
CONTINUOUS
 10
2.325646
 20
-4.002008
  0
VERTEX
  8
PLAN_1
  6
CONTINUOUS
 10
2.329776
 20
-4.003039
  0
VERTEX
  8
PLAN_1
  6
CONTINUOUS
 10
2.386567
 20
-4.015945
  0
VERTEX
  8
PLAN_1
  6
CONTINUOUS
 10
2.391728
 20
-4.017496
  0
VERTEX
  8
PLAN_1
  6
CONTINUOUS
 10
2.395858
 20
-4.018528
  0
VERTEX
  8
PLAN_1
  6
CONTINUOUS
 10
2.400508
 20
-4.020594
  0
VERTEX
  8
PLAN_1
  6
CONTINUOUS
 10
2.404638
 20
-4.022657
  0
VERTEX
  8
PLAN_1
  6
CONTINUOUS
 10
2.408768
 20
-4.024724
  0
VERTEX
  8
PLAN_1
  6
CONTINUOUS
 10
2.412382
 20
-4.027303
  0
VERTEX
  8
PLAN_1
  6
CONTINUOUS
 10
2.415996
 20
-4.029886
  0
VERTEX
  8
PLAN_1
  6
CONTINUOUS
 10
2.419094
 20
-4.032984
  0
VERTEX
  8
PLAN_1
  6
CONTINUOUS
 10
2.421673
 20
-4.036598
  0
VERTEX
  8
PLAN_1
  6
CONTINUOUS
 10
2.424256
 20
-4.040213
  0
VERTEX
  8
PLAN_1
  6
CONTINUOUS
 10
2.426839
 20
-4.044343
  0
VERTEX
  8
PLAN_1
  6
CONTINUOUS
 10
2.428386
 20
-4.048472
  0
VERTEX
  8
PLAN_1
  6
CONTINUOUS
 10
2.429933
 20
-4.053118
  0
VERTEX
  8
PLAN_1
  6
CONTINUOUS
 10
2.430969
 20
-4.058280
  0
VERTEX
  8
PLAN_1
  6
CONTINUOUS
 10
2.432000
 20
-4.063445
  0
VERTEX
  8
PLAN_1
  6
CONTINUOUS
 10
2.432000
 20
-4.069122
  0
VERTEX
  8
PLAN_1
  6
CONTINUOUS
 10
2.432000
 20
-4.073772
  0
VERTEX
  8
PLAN_1
  6
CONTINUOUS
 10
2.431484
 20
-4.077902
  0
VERTEX
  8
PLAN_1
  6
CONTINUOUS
 10
2.430969
 20
-4.081516
  0
VERTEX
  8
PLAN_1
  6
CONTINUOUS
 10
2.429933
 20
-4.085646
  0
VERTEX
  8
PLAN_1
  6
CONTINUOUS
 10
2.427870
 20
-4.092354
  0
VERTEX
  8
PLAN_1
  6
CONTINUOUS
 10
2.424772
 20
-4.098551
  0
VERTEX
  8
PLAN_1
  6
CONTINUOUS
 10
2.420642
 20
-4.104232
  0
VERTEX
  8
PLAN_1
  6
CONTINUOUS
 10
2.416512
 20
-4.108878
  0
VERTEX
  8
PLAN_1
  6
CONTINUOUS
 10
2.411350
 20
-4.113524
  0
VERTEX
  8
PLAN_1
  6
CONTINUOUS
 10
2.405669
 20
-4.117138
  0
VERTEX
  8
PLAN_1
  6
CONTINUOUS
 10
2.399992
 20
-4.120236
  0
VERTEX
  8
PLAN_1
  6
CONTINUOUS
 10
2.393795
 20
-4.122815
  0
VERTEX
  8
PLAN_1
  6
CONTINUOUS
 10
2.387083
 20
-4.124882
  0
VERTEX
  8
PLAN_1
  6
CONTINUOUS
 10
2.380370
 20
-4.126949
  0
VERTEX
  8
PLAN_1
  6
CONTINUOUS
 10
2.373661
 20
-4.127980
  0
VERTEX
  8
PLAN_1
  6
CONTINUOUS
 10
2.366949
 20
-4.129012
  0
VERTEX
  8
PLAN_1
  6
CONTINUOUS
 10
2.360752
 20
-4.129528
  0
VERTEX
  8
PLAN_1
  6
CONTINUOUS
 10
2.354039
 20
-4.129528
  0
VERTEX
  8
PLAN_1
  6
CONTINUOUS
 10
2.341134
 20
-4.129012
  0
VERTEX
  8
PLAN_1
  6
CONTINUOUS
 10
2.330291
 20
-4.127465
  0
VERTEX
  8
PLAN_1
  6
CONTINUOUS
 10
2.321000
 20
-4.125398
  0
VERTEX
  8
PLAN_1
  6
CONTINUOUS
 10
2.313256
 20
-4.122815
  0
VERTEX
  8
PLAN_1
  6
CONTINUOUS
 10
2.307059
 20
-4.119720
  0
VERTEX
  8
PLAN_1
  6
CONTINUOUS
 10
2.301898
 20
-4.116622
  0
VERTEX
  8
PLAN_1
  6
CONTINUOUS
 10
2.297252
 20
-4.113524
  0
VERTEX
  8
PLAN_1
  6
CONTINUOUS
 10
2.293638
 20
-4.110425
  0
VERTEX
  8
PLAN_1
  6
CONTINUOUS
 10
2.287957
 20
-4.104748
  0
VERTEX
  8
PLAN_1
  6
CONTINUOUS
 10
2.283311
 20
-4.098551
  0
VERTEX
  8
PLAN_1
  6
CONTINUOUS
 10
2.279697
 20
-4.092354
  0
VERTEX
  8
PLAN_1
  6
CONTINUOUS
 10
2.277114
 20
-4.086161
  0
VERTEX
  8
PLAN_1
  6
CONTINUOUS
 10
2.275567
 20
-4.079965
  0
VERTEX
  8
PLAN_1
  6
CONTINUOUS
 10
2.274535
 20
-4.073252
  0
VERTEX
  8
PLAN_1
  6
CONTINUOUS
 10
2.273500
 20
-4.066543
  0
VERTEX
  8
PLAN_1
  6
CONTINUOUS
 10
2.273500
 20
-4.059831
  0
VERTEX
  8
PLAN_1
  6
CONTINUOUS
 10
2.298799
 20
-4.059831
  0
VERTEX
  8
PLAN_1
  6
CONTINUOUS
 10
2.299315
 20
-4.066543
  0
VERTEX
  8
PLAN_1
  6
CONTINUOUS
 10
2.299831
 20
-4.072220
  0
VERTEX
  8
PLAN_1
  6
CONTINUOUS
 10
2.301898
 20
-4.077382
  0
VERTEX
  8
PLAN_1
  6
CONTINUOUS
 10
2.303961
 20
-4.082547
  0
VERTEX
  8
PLAN_1
  6
CONTINUOUS
 10
2.306543
 20
-4.086677
  0
VERTEX
  8
PLAN_1
  6
CONTINUOUS
 10
2.309642
 20
-4.090291
  0
VERTEX
  8
PLAN_1
  6
CONTINUOUS
 10
2.312740
 20
-4.093906
  0
VERTEX
  8
PLAN_1
  6
CONTINUOUS
 10
2.316870
 20
-4.096484
  0
VERTEX
  8
PLAN_1
  6
CONTINUOUS
 10
2.321000
 20
-4.099067
  0
VERTEX
  8
PLAN_1
  6
CONTINUOUS
 10
2.325130
 20
-4.101134
  0
VERTEX
  8
PLAN_1
  6
CONTINUOUS
 10
2.329776
 20
-4.103197
  0
VERTEX
  8
PLAN_1
  6
CONTINUOUS
 10
2.334421
 20
-4.104232
  0
VERTEX
  8
PLAN_1
  6
CONTINUOUS
 10
2.339071
 20
-4.105264
  0
VERTEX
  8
PLAN_1
  6
CONTINUOUS
 10
2.344232
 20
-4.105780
  0
VERTEX
  8
PLAN_1
  6
CONTINUOUS
 10
2.348878
 20
-4.106295
  0
VERTEX
  8
PLAN_1
  6
CONTINUOUS
 10
2.353524
 20
-4.106295
  0
VERTEX
  8
PLAN_1
  6
CONTINUOUS
 10
2.361787
 20
-4.106295
  0
VERTEX
  8
PLAN_1
  6
CONTINUOUS
 10
2.370047
 20
-4.105264
  0
VERTEX
  8
PLAN_1
  6
CONTINUOUS
 10
2.374177
 20
-4.104232
  0
VERTEX
  8
PLAN_1
  6
CONTINUOUS
 10
2.378823
 20
-4.103197
  0
VERTEX
  8
PLAN_1
  6
CONTINUOUS
 10
2.382953
 20
-4.102165
  0
VERTEX
  8
PLAN_1
  6
CONTINUOUS
 10
2.387083
 20
-4.100618
  0
VERTEX
  8
PLAN_1
  6
CONTINUOUS
 10
2.390697
 20
-4.098551
  0
VERTEX
  8
PLAN_1
  6
CONTINUOUS
 10
2.394311
 20
-4.095969
  0
VERTEX
  8
PLAN_1
  6
CONTINUOUS
 10
2.397925
 20
-4.093390
  0
VERTEX
  8
PLAN_1
  6
CONTINUOUS
 10
2.400508
 20
-4.090291
  0
VERTEX
  8
PLAN_1
  6
CONTINUOUS
 10
2.402571
 20
-4.086677
  0
VERTEX
  8
PLAN_1
  6
CONTINUOUS
 10
2.404638
 20
-4.082547
  0
VERTEX
  8
PLAN_1
  6
CONTINUOUS
 10
2.405669
 20
-4.077902
  0
VERTEX
  8
PLAN_1
  6
CONTINUOUS
 10
2.405669
 20
-4.072736
  0
VERTEX
  8
PLAN_1
  6
CONTINUOUS
 10
2.405669
 20
-4.069122
  0
VERTEX
  8
PLAN_1
  6
CONTINUOUS
 10
2.405669
 20
-4.065508
  0
VERTEX
  8
PLAN_1
  6
CONTINUOUS
 10
2.404638
 20
-4.062413
  0
VERTEX
  8
PLAN_1
  6
CONTINUOUS
 10
2.404122
 20
-4.059831
  0
VERTEX
  8
PLAN_1
  6
CONTINUOUS
 10
2.402571
 20
-4.057248
  0
VERTEX
  8
PLAN_1
  6
CONTINUOUS
 10
2.401024
 20
-4.054665
  0
VERTEX
  8
PLAN_1
  6
CONTINUOUS
 10
2.398957
 20
-4.052602
  0
VERTEX
  8
PLAN_1
  6
CONTINUOUS
 10
2.396894
 20
-4.050535
  0
VERTEX
  8
PLAN_1
  6
CONTINUOUS
 10
2.394311
 20
-4.048472
  0
VERTEX
  8
PLAN_1
  6
CONTINUOUS
 10
2.391213
 20
-4.046921
  0
VERTEX
  8
PLAN_1
  6
CONTINUOUS
 10
2.387598
 20
-4.044858
  0
VERTEX
  8
PLAN_1
  6
CONTINUOUS
 10
2.383984
 20
-4.043307
  0
VERTEX
  8
PLAN_1
  6
CONTINUOUS
 10
2.374693
 20
-4.040728
  0
VERTEX
  8
PLAN_1
  6
CONTINUOUS
 10
2.363335
 20
-4.037630
  0
VERTEX
  8
PLAN_1
  6
CONTINUOUS
 10
2.322547
 20
-4.028339
  0
VERTEX
  8
PLAN_1
  6
CONTINUOUS
 10
2.316870
 20
-4.026787
  0
VERTEX
  8
PLAN_1
  6
CONTINUOUS
 10
2.310673
 20
-4.024724
  0
VERTEX
  8
PLAN_1
  6
CONTINUOUS
 10
2.307059
 20
-4.023173
  0
VERTEX
  8
PLAN_1
  6
CONTINUOUS
 10
2.303445
 20
-4.021110
  0
VERTEX
  8
PLAN_1
  6
CONTINUOUS
 10
2.299831
 20
-4.019043
  0
VERTEX
  8
PLAN_1
  6
CONTINUOUS
 10
2.296732
 20
-4.016461
  0
VERTEX
  8
PLAN_1
  6
CONTINUOUS
 10
2.293118
 20
-4.013882
  0
VERTEX
  8
PLAN_1
  6
CONTINUOUS
 10
2.290024
 20
-4.010783
  0
VERTEX
  8
PLAN_1
  6
CONTINUOUS
 10
2.287441
 20
-4.007169
  0
VERTEX
  8
PLAN_1
  6
CONTINUOUS
 10
2.284858
 20
-4.003039
  0
VERTEX
  8
PLAN_1
  6
CONTINUOUS
 10
2.282795
 20
-3.998394
  0
VERTEX
  8
PLAN_1
  6
CONTINUOUS
 10
2.281244
 20
-3.993228
  0
VERTEX
  8
PLAN_1
  6
CONTINUOUS
 10
2.280728
 20
-3.987551
  0
VERTEX
  8
PLAN_1
  6
CONTINUOUS
 10
2.280213
 20
-3.981354
  0
VERTEX
  8
PLAN_1
  6
CONTINUOUS
 10
2.280213
 20
-3.975677
  0
VERTEX
  8
PLAN_1
  6
CONTINUOUS
 10
2.281244
 20
-3.969480
  0
VERTEX
  8
PLAN_1
  6
CONTINUOUS
 10
2.282280
 20
-3.964319
  0
VERTEX
  8
PLAN_1
  6
CONTINUOUS
 10
2.284343
 20
-3.958638
  0
VERTEX
  8
PLAN_1
  6
CONTINUOUS
 10
2.286409
 20
-3.953476
  0
VERTEX
  8
PLAN_1
  6
CONTINUOUS
 10
2.288988
 20
-3.948311
  0
VERTEX
  8
PLAN_1
  6
CONTINUOUS
 10
2.292602
 20
-3.943150
  0
VERTEX
  8
PLAN_1
  6
CONTINUOUS
 10
2.296217
 20
-3.939020
  0
VERTEX
  8
PLAN_1
  6
CONTINUOUS
 10
2.300862
 20
-3.934890
  0
VERTEX
  8
PLAN_1
  6
CONTINUOUS
 10
2.306028
 20
-3.930760
  0
VERTEX
  8
PLAN_1
  6
CONTINUOUS
 10
2.311189
 20
-3.927661
  0
VERTEX
  8
PLAN_1
  6
CONTINUOUS
 10
2.317386
 20
-3.925079
  0
VERTEX
  8
PLAN_1
  6
CONTINUOUS
 10
2.324614
 20
-3.922500
  0
VERTEX
  8
PLAN_1
  6
CONTINUOUS
 10
2.331843
 20
-3.920949
  0
VERTEX
  8
PLAN_1
  6
CONTINUOUS
 10
2.340102
 20
-3.919917
  0
VERTEX
  8
PLAN_1
  6
CONTINUOUS
 10
2.348878
 20
-3.919917
  0
VERTEX
  8
PLAN_1
  6
CONTINUOUS
 10
2.361268
 20
-3.919917
  0
VERTEX
  8
PLAN_1
  6
CONTINUOUS
 10
2.372110
 20
-3.921465
  0
VERTEX
  8
PLAN_1
  6
CONTINUOUS
 10
2.381921
 20
-3.923531
  0
VERTEX
  8
PLAN_1
  6
CONTINUOUS
 10
2.390181
 20
-3.926630
  0
VERTEX
  8
PLAN_1
  6
CONTINUOUS
 10
2.397409
 20
-3.930244
  0
VERTEX
  8
PLAN_1
  6
CONTINUOUS
 10
2.403606
 20
-3.933858
  0
VERTEX
  8
PLAN_1
  6
CONTINUOUS
 10
2.408768
 20
-3.938504
  0
VERTEX
  8
PLAN_1
  6
CONTINUOUS
 10
2.413413
 20
-3.943150
  0
VERTEX
  8
PLAN_1
  6
CONTINUOUS
 10
2.417028
 20
-3.948311
  0
VERTEX
  8
PLAN_1
  6
CONTINUOUS
 10
2.419610
 20
-3.953476
  0
VERTEX
  8
PLAN_1
  6
CONTINUOUS
 10
2.422189
 20
-3.958638
  0
VERTEX
  8
PLAN_1
  6
CONTINUOUS
 10
2.423740
 20
-3.964319
  0
VERTEX
  8
PLAN_1
  6
CONTINUOUS
 10
2.425803
 20
-3.974126
  0
VERTEX
  8
PLAN_1
  6
CONTINUOUS
 10
2.426323
 20
-3.983421
  0
VERTEX
  8
PLAN_1
  6
CONTINUOUS
 10
2.401024
 20
-3.983421
  0
SEQEND
  8
0
  0
POLYLINE
  8
PLAN_1
  6
CONTINUOUS
 66
     1
 40
0.008260
 41
0.008260
  0
VERTEX
  8
PLAN_1
  6
CONTINUOUS
 10
-1.309504
 20
2.396807
  0
VERTEX
  8
PLAN_1
  6
CONTINUOUS
 10
-1.309504
 20
2.559433
  0
VERTEX
  8
PLAN_1
  6
CONTINUOUS
 10
-1.391075
 20
2.885724
  0
VERTEX
  8
PLAN_1
  6
CONTINUOUS
 10
-2.206803
 20
2.885724
  0
VERTEX
  8
PLAN_1
  6
CONTINUOUS
 10
-2.288374
 20
2.559433
  0
VERTEX
  8
PLAN_1
  6
CONTINUOUS
 10
-2.288374
 20
2.394740
  0
SEQEND
  8
0
  0
POLYLINE
  8
PLAN_1
  6
CONTINUOUS
 66
     1
 40
0.008260
 41
0.008260
  0
VERTEX
  8
PLAN_1
  6
CONTINUOUS
 10
-2.288374
 20
2.337433
  0
VERTEX
  8
PLAN_1
  6
CONTINUOUS
 10
-1.309504
 20
2.337433
  0
SEQEND
  8
0
  0
POLYLINE
  8
PLAN_1
  6
CONTINUOUS
 66
     1
 40
0.008260
 41
0.008260
  0
VERTEX
  8
PLAN_1
  6
CONTINUOUS
 10
-1.248067
 20
-0.582665
  0
VERTEX
  8
PLAN_1
  6
CONTINUOUS
 10
-1.248067
 20
2.008043
  0
VERTEX
  8
PLAN_1
  6
CONTINUOUS
 10
-2.349815
 20
2.008043
  0
VERTEX
  8
PLAN_1
  6
CONTINUOUS
 10
-2.349815
 20
-0.582665
  0
VERTEX
  8
PLAN_1
  6
CONTINUOUS
 10
-1.248067
 20
-0.582665
  0
SEQEND
  8
0
  0
POLYLINE
  8
PLAN_1
  6
CONTINUOUS
 66
     1
 40
0.008260
 41
0.008260
  0
VERTEX
  8
PLAN_1
  6
CONTINUOUS
 10
-2.295602
 20
-0.317811
  0
VERTEX
  8
PLAN_1
  6
CONTINUOUS
 10
-2.295087
 20
-0.317295
  0
VERTEX
  8
PLAN_1
  6
CONTINUOUS
 10
-2.295087
 20
1.560425
  0
VERTEX
  8
PLAN_1
  6
CONTINUOUS
 10
-2.349295
 20
1.560425
  0
VERTEX
  8
PLAN_1
  6
CONTINUOUS
 10
-2.349295
 20
-0.317295
  0
VERTEX
  8
PLAN_1
  6
CONTINUOUS
 10
-2.349815
 20
-0.317811
  0
VERTEX
  8
PLAN_1
  6
CONTINUOUS
 10
-2.295602
 20
-0.317811
  0
SEQEND
  8
0
  0
POLYLINE
  8
PLAN_1
  6
CONTINUOUS
 66
     1
 40
0.008260
 41
0.008260
  0
VERTEX
  8
PLAN_1
  6
CONTINUOUS
 10
-2.241394
 20
-0.317811
  0
VERTEX
  8
PLAN_1
  6
CONTINUOUS
 10
-2.241394
 20
-0.317295
  0
VERTEX
  8
PLAN_1
  6
CONTINUOUS
 10
-2.241394
 20
1.274921
  0
VERTEX
  8
PLAN_1
  6
CONTINUOUS
 10
-2.295087
 20
1.274921
  0
VERTEX
  8
PLAN_1
  6
CONTINUOUS
 10
-2.295087
 20
-0.317295
  0
VERTEX
  8
PLAN_1
  6
CONTINUOUS
 10
-2.295602
 20
-0.317811
  0
VERTEX
  8
PLAN_1
  6
CONTINUOUS
 10
-2.241394
 20
-0.317811
  0
SEQEND
  8
0
  0
POLYLINE
  8
PLAN_1
  6
CONTINUOUS
 66
     1
 40
0.008260
 41
0.008260
  0
VERTEX
  8
PLAN_1
  6
CONTINUOUS
 10
-2.349815
 20
1.559909
  0
VERTEX
  8
PLAN_1
  6
CONTINUOUS
 10
-1.452512
 20
1.559909
  0
VERTEX
  8
PLAN_1
  6
CONTINUOUS
 10
-1.452512
 20
2.008043
  0
SEQEND
  8
0
  0
POLYLINE
  8
PLAN_1
  6
CONTINUOUS
 66
     1
 40
0.008260
 41
0.008260
  0
VERTEX
  8
PLAN_1
  6
CONTINUOUS
 10
-2.349295
 20
1.237232
  0
VERTEX
  8
PLAN_1
  6
CONTINUOUS
 10
-2.349295
 20
1.461815
  0
VERTEX
  8
PLAN_1
  6
CONTINUOUS
 10
-2.430870
 20
1.461815
  0
VERTEX
  8
PLAN_1
  6
CONTINUOUS
 10
-2.430870
 20
1.237232
  0
VERTEX
  8
PLAN_1
  6
CONTINUOUS
 10
-2.349295
 20
1.237232
  0
SEQEND
  8
0
  0
POLYLINE
  8
PLAN_1
  6
CONTINUOUS
 66
     1
 40
0.008260
 41
0.008260
  0
VERTEX
  8
PLAN_1
  6
CONTINUOUS
 10
-1.309504
 20
-0.644102
  0
VERTEX
  8
PLAN_1
  6
CONTINUOUS
 10
-1.309504
 20
-0.582665
  0
VERTEX
  8
PLAN_1
  6
CONTINUOUS
 10
-2.207319
 20
-0.582665
  0
VERTEX
  8
PLAN_1
  6
CONTINUOUS
 10
-2.207319
 20
-0.644102
  0
VERTEX
  8
PLAN_1
  6
CONTINUOUS
 10
-1.309504
 20
-0.644102
  0
SEQEND
  8
0
  0
POLYLINE
  8
PLAN_1
  6
CONTINUOUS
 66
     1
 40
0.008260
 41
0.008260
  0
VERTEX
  8
PLAN_1
  6
CONTINUOUS
 10
-1.745244
 20
-0.380280
  0
VERTEX
  8
PLAN_1
  6
CONTINUOUS
 10
-1.724079
 20
-0.379248
  0
VERTEX
  8
PLAN_1
  6
CONTINUOUS
 10
-1.703425
 20
-0.377701
  0
VERTEX
  8
PLAN_1
  6
CONTINUOUS
 10
-1.682776
 20
-0.375118
  0
VERTEX
  8
PLAN_1
  6
CONTINUOUS
 10
-1.662642
 20
-0.371504
  0
VERTEX
  8
PLAN_1
  6
CONTINUOUS
 10
-1.643024
 20
-0.367374
  0
VERTEX
  8
PLAN_1
  6
CONTINUOUS
 10
-1.623921
 20
-0.361693
  0
VERTEX
  8
PLAN_1
  6
CONTINUOUS
 10
-1.604815
 20
-0.355500
  0
VERTEX
  8
PLAN_1
  6
CONTINUOUS
 10
-1.586232
 20
-0.347756
  0
VERTEX
  8
PLAN_1
  6
CONTINUOUS
 10
-1.568161
 20
-0.340012
  0
VERTEX
  8
PLAN_1
  6
CONTINUOUS
 10
-1.550606
 20
-0.330717
  0
VERTEX
  8
PLAN_1
  6
CONTINUOUS
 10
-1.533571
 20
-0.320909
  0
VERTEX
  8
PLAN_1
  6
CONTINUOUS
 10
-1.517047
 20
-0.310583
  0
VERTEX
  8
PLAN_1
  6
CONTINUOUS
 10
-1.501043
 20
-0.298709
  0
VERTEX
  8
PLAN_1
  6
CONTINUOUS
 10
-1.485555
 20
-0.286835
  0
VERTEX
  8
PLAN_1
  6
CONTINUOUS
 10
-1.470583
 20
-0.273925
  0
VERTEX
  8
PLAN_1
  6
CONTINUOUS
 10
-1.456642
 20
-0.260504
  0
VERTEX
  8
PLAN_1
  6
CONTINUOUS
 10
-1.443220
 20
-0.246563
  0
VERTEX
  8
PLAN_1
  6
CONTINUOUS
 10
-1.430315
 20
-0.231591
  0
VERTEX
  8
PLAN_1
  6
CONTINUOUS
 10
-1.417921
 20
-0.216102
  0
VERTEX
  8
PLAN_1
  6
CONTINUOUS
 10
-1.406563
 20
-0.200098
  0
VERTEX
  8
PLAN_1
  6
CONTINUOUS
 10
-1.396240
 20
-0.183579
  0
VERTEX
  8
PLAN_1
  6
CONTINUOUS
 10
-1.386429
 20
-0.166539
  0
VERTEX
  8
PLAN_1
  6
CONTINUOUS
 10
-1.377138
 20
-0.148984
  0
VERTEX
  8
PLAN_1
  6
CONTINUOUS
 10
-1.368874
 20
-0.130917
  0
VERTEX
  8
PLAN_1
  6
CONTINUOUS
 10
-1.361646
 20
-0.112331
  0
VERTEX
  8
PLAN_1
  6
CONTINUOUS
 10
-1.355453
 20
-0.093228
  0
VERTEX
  8
PLAN_1
  6
CONTINUOUS
 10
-1.349772
 20
-0.074126
  0
VERTEX
  8
PLAN_1
  6
CONTINUOUS
 10
-1.345126
 20
-0.053988
  0
VERTEX
  8
PLAN_1
  6
CONTINUOUS
 10
-1.341512
 20
-0.034370
  0
VERTEX
  8
PLAN_1
  6
CONTINUOUS
 10
-1.338933
 20
-0.013720
  0
VERTEX
  8
PLAN_1
  6
CONTINUOUS
 10
-1.337382
 20
0.006933
  0
VERTEX
  8
PLAN_1
  6
CONTINUOUS
 10
-1.336866
 20
0.028098
  0
VERTEX
  8
PLAN_1
  6
CONTINUOUS
 10
-1.337382
 20
0.048752
  0
VERTEX
  8
PLAN_1
  6
CONTINUOUS
 10
-1.338933
 20
0.069917
  0
VERTEX
  8
PLAN_1
  6
CONTINUOUS
 10
-1.341512
 20
0.090051
  0
VERTEX
  8
PLAN_1
  6
CONTINUOUS
 10
-1.345126
 20
0.110189
  0
VERTEX
  8
PLAN_1
  6
CONTINUOUS
 10
-1.349772
 20
0.129807
  0
VERTEX
  8
PLAN_1
  6
CONTINUOUS
 10
-1.355453
 20
0.149425
  0
VERTEX
  8
PLAN_1
  6
CONTINUOUS
 10
-1.361646
 20
0.168528
  0
VERTEX
  8
PLAN_1
  6
CONTINUOUS
 10
-1.368874
 20
0.186598
  0
VERTEX
  8
PLAN_1
  6
CONTINUOUS
 10
-1.377138
 20
0.204669
  0
VERTEX
  8
PLAN_1
  6
CONTINUOUS
 10
-1.386429
 20
0.222736
  0
VERTEX
  8
PLAN_1
  6
CONTINUOUS
 10
-1.396240
 20
0.239776
  0
VERTEX
  8
PLAN_1
  6
CONTINUOUS
 10
-1.406563
 20
0.256295
  0
VERTEX
  8
PLAN_1
  6
CONTINUOUS
 10
-1.417921
 20
0.272299
  0
VERTEX
  8
PLAN_1
  6
CONTINUOUS
 10
-1.430315
 20
0.287787
  0
VERTEX
  8
PLAN_1
  6
CONTINUOUS
 10
-1.443220
 20
0.302244
  0
VERTEX
  8
PLAN_1
  6
CONTINUOUS
 10
-1.456642
 20
0.316701
  0
VERTEX
  8
PLAN_1
  6
CONTINUOUS
 10
-1.470583
 20
0.330126
  0
VERTEX
  8
PLAN_1
  6
CONTINUOUS
 10
-1.485555
 20
0.343031
  0
VERTEX
  8
PLAN_1
  6
CONTINUOUS
 10
-1.501043
 20
0.354906
  0
VERTEX
  8
PLAN_1
  6
CONTINUOUS
 10
-1.517047
 20
0.366264
  0
VERTEX
  8
PLAN_1
  6
CONTINUOUS
 10
-1.533571
 20
0.377106
  0
VERTEX
  8
PLAN_1
  6
CONTINUOUS
 10
-1.550606
 20
0.386917
  0
VERTEX
  8
PLAN_1
  6
CONTINUOUS
 10
-1.568161
 20
0.395693
  0
VERTEX
  8
PLAN_1
  6
CONTINUOUS
 10
-1.586232
 20
0.403953
  0
VERTEX
  8
PLAN_1
  6
CONTINUOUS
 10
-1.604815
 20
0.411181
  0
VERTEX
  8
PLAN_1
  6
CONTINUOUS
 10
-1.623921
 20
0.417894
  0
VERTEX
  8
PLAN_1
  6
CONTINUOUS
 10
-1.643024
 20
0.423055
  0
VERTEX
  8
PLAN_1
  6
CONTINUOUS
 10
-1.662642
 20
0.427701
  0
VERTEX
  8
PLAN_1
  6
CONTINUOUS
 10
-1.682776
 20
0.431315
  0
VERTEX
  8
PLAN_1
  6
CONTINUOUS
 10
-1.703425
 20
0.433898
  0
VERTEX
  8
PLAN_1
  6
CONTINUOUS
 10
-1.724079
 20
0.435445
  0
VERTEX
  8
PLAN_1
  6
CONTINUOUS
 10
-1.745244
 20
0.435961
  0
VERTEX
  8
PLAN_1
  6
CONTINUOUS
 10
-1.765898
 20
0.435445
  0
VERTEX
  8
PLAN_1
  6
CONTINUOUS
 10
-1.786547
 20
0.433898
  0
VERTEX
  8
PLAN_1
  6
CONTINUOUS
 10
-1.807201
 20
0.431315
  0
VERTEX
  8
PLAN_1
  6
CONTINUOUS
 10
-1.827335
 20
0.427701
  0
VERTEX
  8
PLAN_1
  6
CONTINUOUS
 10
-1.846953
 20
0.423055
  0
VERTEX
  8
PLAN_1
  6
CONTINUOUS
 10
-1.866571
 20
0.417894
  0
VERTEX
  8
PLAN_1
  6
CONTINUOUS
 10
-1.885157
 20
0.411181
  0
VERTEX
  8
PLAN_1
  6
CONTINUOUS
 10
-1.903744
 20
0.403953
  0
VERTEX
  8
PLAN_1
  6
CONTINUOUS
 10
-1.921815
 20
0.395693
  0
VERTEX
  8
PLAN_1
  6
CONTINUOUS
 10
-1.939370
 20
0.386917
  0
VERTEX
  8
PLAN_1
  6
CONTINUOUS
 10
-1.956406
 20
0.377106
  0
VERTEX
  8
PLAN_1
  6
CONTINUOUS
 10
-1.972925
 20
0.366264
  0
VERTEX
  8
PLAN_1
  6
CONTINUOUS
 10
-1.988933
 20
0.354906
  0
VERTEX
  8
PLAN_1
  6
CONTINUOUS
 10
-2.004421
 20
0.343031
  0
VERTEX
  8
PLAN_1
  6
CONTINUOUS
 10
-2.019394
 20
0.330126
  0
VERTEX
  8
PLAN_1
  6
CONTINUOUS
 10
-2.033331
 20
0.316701
  0
VERTEX
  8
PLAN_1
  6
CONTINUOUS
 10
-2.047272
 20
0.302244
  0
VERTEX
  8
PLAN_1
  6
CONTINUOUS
 10
-2.059661
 20
0.287787
  0
VERTEX
  8
PLAN_1
  6
CONTINUOUS
 10
-2.072051
 20
0.272299
  0
VERTEX
  8
PLAN_1
  6
CONTINUOUS
 10
-2.083409
 20
0.256295
  0
VERTEX
  8
PLAN_1
  6
CONTINUOUS
 10
-2.093736
 20
0.239776
  0
VERTEX
  8
PLAN_1
  6
CONTINUOUS
 10
-2.103547
 20
0.222736
  0
VERTEX
  8
PLAN_1
  6
CONTINUOUS
 10
-2.112839
 20
0.204669
  0
VERTEX
  8
PLAN_1
  6
CONTINUOUS
 10
-2.121098
 20
0.186598
  0
VERTEX
  8
PLAN_1
  6
CONTINUOUS
 10
-2.128327
 20
0.168528
  0
VERTEX
  8
PLAN_1
  6
CONTINUOUS
 10
-2.134524
 20
0.149425
  0
VERTEX
  8
PLAN_1
  6
CONTINUOUS
 10
-2.140201
 20
0.129807
  0
VERTEX
  8
PLAN_1
  6
CONTINUOUS
 10
-2.144850
 20
0.110189
  0
VERTEX
  8
PLAN_1
  6
CONTINUOUS
 10
-2.148465
 20
0.090051
  0
VERTEX
  8
PLAN_1
  6
CONTINUOUS
 10
-2.151043
 20
0.069917
  0
VERTEX
  8
PLAN_1
  6
CONTINUOUS
 10
-2.152594
 20
0.048752
  0
VERTEX
  8
PLAN_1
  6
CONTINUOUS
 10
-2.153110
 20
0.028098
  0
VERTEX
  8
PLAN_1
  6
CONTINUOUS
 10
-2.152594
 20
0.006933
  0
VERTEX
  8
PLAN_1
  6
CONTINUOUS
 10
-2.151043
 20
-0.013720
  0
VERTEX
  8
PLAN_1
  6
CONTINUOUS
 10
-2.148465
 20
-0.034370
  0
VERTEX
  8
PLAN_1
  6
CONTINUOUS
 10
-2.144850
 20
-0.053988
  0
VERTEX
  8
PLAN_1
  6
CONTINUOUS
 10
-2.140201
 20
-0.074126
  0
VERTEX
  8
PLAN_1
  6
CONTINUOUS
 10
-2.134524
 20
-0.093228
  0
VERTEX
  8
PLAN_1
  6
CONTINUOUS
 10
-2.128327
 20
-0.112331
  0
VERTEX
  8
PLAN_1
  6
CONTINUOUS
 10
-2.121098
 20
-0.130917
  0
VERTEX
  8
PLAN_1
  6
CONTINUOUS
 10
-2.112839
 20
-0.148984
  0
VERTEX
  8
PLAN_1
  6
CONTINUOUS
 10
-2.103547
 20
-0.166539
  0
VERTEX
  8
PLAN_1
  6
CONTINUOUS
 10
-2.093736
 20
-0.183579
  0
VERTEX
  8
PLAN_1
  6
CONTINUOUS
 10
-2.083409
 20
-0.200098
  0
VERTEX
  8
PLAN_1
  6
CONTINUOUS
 10
-2.072051
 20
-0.216102
  0
VERTEX
  8
PLAN_1
  6
CONTINUOUS
 10
-2.059661
 20
-0.231591
  0
VERTEX
  8
PLAN_1
  6
CONTINUOUS
 10
-2.047272
 20
-0.246563
  0
VERTEX
  8
PLAN_1
  6
CONTINUOUS
 10
-2.033331
 20
-0.260504
  0
VERTEX
  8
PLAN_1
  6
CONTINUOUS
 10
-2.019394
 20
-0.273925
  0
VERTEX
  8
PLAN_1
  6
CONTINUOUS
 10
-2.004421
 20
-0.286835
  0
VERTEX
  8
PLAN_1
  6
CONTINUOUS
 10
-1.988933
 20
-0.298709
  0
VERTEX
  8
PLAN_1
  6
CONTINUOUS
 10
-1.972925
 20
-0.310583
  0
VERTEX
  8
PLAN_1
  6
CONTINUOUS
 10
-1.956406
 20
-0.320909
  0
VERTEX
  8
PLAN_1
  6
CONTINUOUS
 10
-1.939370
 20
-0.330717
  0
VERTEX
  8
PLAN_1
  6
CONTINUOUS
 10
-1.921815
 20
-0.340012
  0
VERTEX
  8
PLAN_1
  6
CONTINUOUS
 10
-1.903744
 20
-0.347756
  0
VERTEX
  8
PLAN_1
  6
CONTINUOUS
 10
-1.885157
 20
-0.355500
  0
VERTEX
  8
PLAN_1
  6
CONTINUOUS
 10
-1.866571
 20
-0.361693
  0
VERTEX
  8
PLAN_1
  6
CONTINUOUS
 10
-1.846953
 20
-0.367374
  0
VERTEX
  8
PLAN_1
  6
CONTINUOUS
 10
-1.827335
 20
-0.371504
  0
VERTEX
  8
PLAN_1
  6
CONTINUOUS
 10
-1.807201
 20
-0.375118
  0
VERTEX
  8
PLAN_1
  6
CONTINUOUS
 10
-1.786547
 20
-0.377701
  0
VERTEX
  8
PLAN_1
  6
CONTINUOUS
 10
-1.765898
 20
-0.379248
  0
VERTEX
  8
PLAN_1
  6
CONTINUOUS
 10
-1.745244
 20
-0.380280
  0
SEQEND
  8
0
  0
POLYLINE
  8
PLAN_1
  6
CONTINUOUS
 66
     1
 40
0.008260
 41
0.008260
  0
VERTEX
  8
PLAN_1
  6
CONTINUOUS
 10
-2.071535
 20
-0.002362
  0
VERTEX
  8
PLAN_1
  6
CONTINUOUS
 10
-2.071535
 20
0.058559
  0
VERTEX
  8
PLAN_1
  6
CONTINUOUS
 10
-1.775705
 20
0.058559
  0
VERTEX
  8
PLAN_1
  6
CONTINUOUS
 10
-1.775705
 20
0.354390
  0
VERTEX
  8
PLAN_1
  6
CONTINUOUS
 10
-1.714268
 20
0.354390
  0
VERTEX
  8
PLAN_1
  6
CONTINUOUS
 10
-1.714268
 20
0.058559
  0
VERTEX
  8
PLAN_1
  6
CONTINUOUS
 10
-1.418437
 20
0.058559
  0
VERTEX
  8
PLAN_1
  6
CONTINUOUS
 10
-1.418437
 20
-0.002362
  0
VERTEX
  8
PLAN_1
  6
CONTINUOUS
 10
-1.714268
 20
-0.002362
  0
VERTEX
  8
PLAN_1
  6
CONTINUOUS
 10
-1.714268
 20
-0.298193
  0
VERTEX
  8
PLAN_1
  6
CONTINUOUS
 10
-1.775705
 20
-0.298193
  0
VERTEX
  8
PLAN_1
  6
CONTINUOUS
 10
-1.775705
 20
-0.002362
  0
VERTEX
  8
PLAN_1
  6
CONTINUOUS
 10
-2.071535
 20
-0.002362
  0
SEQEND
  8
0
  0
POLYLINE
  8
PLAN_1
  6
CONTINUOUS
 66
     1
 40
0.008260
 41
0.008260
  0
VERTEX
  8
PLAN_1
  6
CONTINUOUS
 10
-2.023008
 20
1.601213
  0
VERTEX
  8
PLAN_1
  6
CONTINUOUS
 10
-2.023008
 20
1.825280
  0
VERTEX
  8
PLAN_1
  6
CONTINUOUS
 10
-2.308512
 20
1.825280
  0
VERTEX
  8
PLAN_1
  6
CONTINUOUS
 10
-2.308512
 20
1.601213
  0
VERTEX
  8
PLAN_1
  6
CONTINUOUS
 10
-2.023008
 20
1.601213
  0
SEQEND
  8
0
  0
POLYLINE
  8
PLAN_1
  6
CONTINUOUS
 66
     1
 40
0.008260
 41
0.008260
  0
VERTEX
  8
PLAN_1
  6
CONTINUOUS
 10
-2.349815
 20
2.334335
  0
VERTEX
  8
PLAN_1
  6
CONTINUOUS
 10
-2.349815
 20
2.008043
  0
VERTEX
  8
PLAN_1
  6
CONTINUOUS
 10
-1.248067
 20
2.008043
  0
VERTEX
  8
PLAN_1
  6
CONTINUOUS
 10
-1.248067
 20
2.334335
  0
VERTEX
  8
PLAN_1
  6
CONTINUOUS
 10
-1.554220
 20
2.334850
  0
VERTEX
  8
PLAN_1
  6
CONTINUOUS
 10
-1.554220
 20
2.395772
  0
VERTEX
  8
PLAN_1
  6
CONTINUOUS
 10
-2.043657
 20
2.395772
  0
VERTEX
  8
PLAN_1
  6
CONTINUOUS
 10
-2.043657
 20
2.334850
  0
VERTEX
  8
PLAN_1
  6
CONTINUOUS
 10
-2.349815
 20
2.334335
  0
SEQEND
  8
0
  0
POLYLINE
  8
PLAN_1
  6
CONTINUOUS
 66
     1
 40
0.008260
 41
0.008260
  0
VERTEX
  8
PLAN_1
  6
CONTINUOUS
 10
-2.059661
 20
2.559433
  0
VERTEX
  8
PLAN_1
  6
CONTINUOUS
 10
-1.534602
 20
2.559433
  0
SEQEND
  8
0
  0
POLYLINE
  8
PLAN_1
  6
CONTINUOUS
 66
     1
 40
0.008260
 41
0.008260
  0
VERTEX
  8
PLAN_1
  6
CONTINUOUS
 10
-1.717366
 20
3.354512
  0
VERTEX
  8
PLAN_1
  6
CONTINUOUS
 10
-1.472650
 20
3.354512
  0
VERTEX
  8
PLAN_1
  6
CONTINUOUS
 10
-1.472650
 20
2.885209
  0
VERTEX
  8
PLAN_1
  6
CONTINUOUS
 10
-2.125228
 20
2.885209
  0
VERTEX
  8
PLAN_1
  6
CONTINUOUS
 10
-2.125228
 20
3.354512
  0
VERTEX
  8
PLAN_1
  6
CONTINUOUS
 10
-1.881028
 20
3.354512
  0
VERTEX
  8
PLAN_1
  6
CONTINUOUS
 10
-1.880512
 20
3.354512
  0
VERTEX
  8
PLAN_1
  6
CONTINUOUS
 10
-1.880512
 20
2.946646
  0
VERTEX
  8
PLAN_1
  6
CONTINUOUS
 10
-1.717366
 20
2.946646
  0
VERTEX
  8
PLAN_1
  6
CONTINUOUS
 10
-1.717366
 20
3.354512
  0
SEQEND
  8
0
  0
POLYLINE
  8
PLAN_1
  6
CONTINUOUS
 66
     1
 40
0.008260
 41
0.008260
  0
VERTEX
  8
PLAN_1
  6
CONTINUOUS
 10
-1.727693
 20
3.230087
  0
VERTEX
  8
PLAN_1
  6
CONTINUOUS
 10
-1.727693
 20
3.719524
  0
VERTEX
  8
PLAN_1
  6
CONTINUOUS
 10
-1.870185
 20
3.719524
  0
VERTEX
  8
PLAN_1
  6
CONTINUOUS
 10
-1.870185
 20
3.230087
  0
VERTEX
  8
PLAN_1
  6
CONTINUOUS
 10
-1.727693
 20
3.230087
  0
SEQEND
  8
0
  0
POLYLINE
  8
PLAN_1
  6
CONTINUOUS
 66
     1
 40
0.008260
 41
0.008260
  0
VERTEX
  8
PLAN_1
  6
CONTINUOUS
 10
-2.045724
 20
2.396807
  0
VERTEX
  8
PLAN_1
  6
CONTINUOUS
 10
-2.045724
 20
2.413843
  0
VERTEX
  8
PLAN_1
  6
CONTINUOUS
 10
-2.046240
 20
2.430882
  0
VERTEX
  8
PLAN_1
  6
CONTINUOUS
 10
-2.047272
 20
2.448433
  0
VERTEX
  8
PLAN_1
  6
CONTINUOUS
 10
-2.048819
 20
2.466504
  0
VERTEX
  8
PLAN_1
  6
CONTINUOUS
 10
-2.050370
 20
2.484059
  0
VERTEX
  8
PLAN_1
  6
CONTINUOUS
 10
-2.051917
 20
2.502126
  0
VERTEX
  8
PLAN_1
  6
CONTINUOUS
 10
-2.054500
 20
2.520197
  0
VERTEX
  8
PLAN_1
  6
CONTINUOUS
 10
-2.056563
 20
2.537752
  0
VERTEX
  8
PLAN_1
  6
CONTINUOUS
 10
-2.062244
 20
2.573374
  0
VERTEX
  8
PLAN_1
  6
CONTINUOUS
 10
-2.068441
 20
2.607965
  0
VERTEX
  8
PLAN_1
  6
CONTINUOUS
 10
-2.074634
 20
2.641008
  0
VERTEX
  8
PLAN_1
  6
CONTINUOUS
 10
-2.081346
 20
2.673016
  0
VERTEX
  8
PLAN_1
  6
CONTINUOUS
 10
-2.088059
 20
2.702445
  0
VERTEX
  8
PLAN_1
  6
CONTINUOUS
 10
-2.094768
 20
2.729291
  0
VERTEX
  8
PLAN_1
  6
CONTINUOUS
 10
-2.100965
 20
2.753555
  0
VERTEX
  8
PLAN_1
  6
CONTINUOUS
 10
-2.106126
 20
2.774209
  0
VERTEX
  8
PLAN_1
  6
CONTINUOUS
 10
-2.114390
 20
2.803638
  0
VERTEX
  8
PLAN_1
  6
CONTINUOUS
 10
-2.117484
 20
2.813961
  0
VERTEX
  8
PLAN_1
  6
CONTINUOUS
 10
-2.118520
 20
2.819126
  0
VERTEX
  8
PLAN_1
  6
CONTINUOUS
 10
-2.120583
 20
2.823256
  0
VERTEX
  8
PLAN_1
  6
CONTINUOUS
 10
-2.122650
 20
2.826354
  0
VERTEX
  8
PLAN_1
  6
CONTINUOUS
 10
-2.125748
 20
2.828933
  0
VERTEX
  8
PLAN_1
  6
CONTINUOUS
 10
-2.128843
 20
2.831000
  0
VERTEX
  8
PLAN_1
  6
CONTINUOUS
 10
-2.132457
 20
2.832547
  0
VERTEX
  8
PLAN_1
  6
CONTINUOUS
 10
-2.136587
 20
2.833583
  0
VERTEX
  8
PLAN_1
  6
CONTINUOUS
 10
-2.140201
 20
2.834098
  0
VERTEX
  8
PLAN_1
  6
CONTINUOUS
 10
-2.147945
 20
2.834098
  0
VERTEX
  8
PLAN_1
  6
CONTINUOUS
 10
-2.154657
 20
2.833583
  0
VERTEX
  8
PLAN_1
  6
CONTINUOUS
 10
-2.158787
 20
2.832547
  0
VERTEX
  8
PLAN_1
  6
CONTINUOUS
 10
-2.160854
 20
2.832031
  0
VERTEX
  8
PLAN_1
  6
CONTINUOUS
 10
-2.166016
 20
2.822740
  0
VERTEX
  8
PLAN_1
  6
CONTINUOUS
 10
-2.171181
 20
2.812413
  0
VERTEX
  8
PLAN_1
  6
CONTINUOUS
 10
-2.175827
 20
2.802087
  0
VERTEX
  8
PLAN_1
  6
CONTINUOUS
 10
-2.180988
 20
2.791244
  0
VERTEX
  8
PLAN_1
  6
CONTINUOUS
 10
-2.189764
 20
2.769563
  0
VERTEX
  8
PLAN_1
  6
CONTINUOUS
 10
-2.198543
 20
2.746846
  0
VERTEX
  8
PLAN_1
  6
CONTINUOUS
 10
-2.206287
 20
2.724130
  0
VERTEX
  8
PLAN_1
  6
CONTINUOUS
 10
-2.213516
 20
2.701413
  0
VERTEX
  8
PLAN_1
  6
CONTINUOUS
 10
-2.219709
 20
2.679213
  0
VERTEX
  8
PLAN_1
  6
CONTINUOUS
 10
-2.225390
 20
2.657528
  0
VERTEX
  8
PLAN_1
  6
CONTINUOUS
 10
-2.234681
 20
2.618807
  0
VERTEX
  8
PLAN_1
  6
CONTINUOUS
 10
-2.241394
 20
2.587315
  0
VERTEX
  8
PLAN_1
  6
CONTINUOUS
 10
-2.245524
 20
2.566146
  0
VERTEX
  8
PLAN_1
  6
CONTINUOUS
 10
-2.247075
 20
2.558917
  0
SEQEND
  8
0
  0
POLYLINE
  8
PLAN_1
  6
CONTINUOUS
 66
     1
 40
0.008260
 41
0.008260
  0
VERTEX
  8
PLAN_1
  6
CONTINUOUS
 10
-2.247075
 20
2.558917
  0
VERTEX
  8
PLAN_1
  6
CONTINUOUS
 10
-2.247075
 20
2.367894
  0
SEQEND
  8
0
  0
POLYLINE
  8
PLAN_1
  6
CONTINUOUS
 66
     1
 40
0.008260
 41
0.008260
  0
VERTEX
  8
PLAN_1
  6
CONTINUOUS
 10
-1.549059
 20
2.396807
  0
VERTEX
  8
PLAN_1
  6
CONTINUOUS
 10
-1.548543
 20
2.413843
  0
VERTEX
  8
PLAN_1
  6
CONTINUOUS
 10
-1.548028
 20
2.430882
  0
VERTEX
  8
PLAN_1
  6
CONTINUOUS
 10
-1.546992
 20
2.448433
  0
VERTEX
  8
PLAN_1
  6
CONTINUOUS
 10
-1.545961
 20
2.466504
  0
VERTEX
  8
PLAN_1
  6
CONTINUOUS
 10
-1.544413
 20
2.484059
  0
VERTEX
  8
PLAN_1
  6
CONTINUOUS
 10
-1.542346
 20
2.502126
  0
VERTEX
  8
PLAN_1
  6
CONTINUOUS
 10
-1.540283
 20
2.520197
  0
VERTEX
  8
PLAN_1
  6
CONTINUOUS
 10
-1.537701
 20
2.537752
  0
VERTEX
  8
PLAN_1
  6
CONTINUOUS
 10
-1.532020
 20
2.573374
  0
VERTEX
  8
PLAN_1
  6
CONTINUOUS
 10
-1.526343
 20
2.607965
  0
VERTEX
  8
PLAN_1
  6
CONTINUOUS
 10
-1.519630
 20
2.641008
  0
VERTEX
  8
PLAN_1
  6
CONTINUOUS
 10
-1.512917
 20
2.673016
  0
VERTEX
  8
PLAN_1
  6
CONTINUOUS
 10
-1.506209
 20
2.702445
  0
VERTEX
  8
PLAN_1
  6
CONTINUOUS
 10
-1.499496
 20
2.729291
  0
VERTEX
  8
PLAN_1
  6
CONTINUOUS
 10
-1.493815
 20
2.753555
  0
VERTEX
  8
PLAN_1
  6
CONTINUOUS
 10
-1.488138
 20
2.774209
  0
VERTEX
  8
PLAN_1
  6
CONTINUOUS
 10
-1.479878
 20
2.803638
  0
VERTEX
  8
PLAN_1
  6
CONTINUOUS
 10
-1.476780
 20
2.813961
  0
VERTEX
  8
PLAN_1
  6
CONTINUOUS
 10
-1.475748
 20
2.819126
  0
VERTEX
  8
PLAN_1
  6
CONTINUOUS
 10
-1.474197
 20
2.823256
  0
VERTEX
  8
PLAN_1
  6
CONTINUOUS
 10
-1.471614
 20
2.826354
  0
VERTEX
  8
PLAN_1
  6
CONTINUOUS
 10
-1.468520
 20
2.828933
  0
VERTEX
  8
PLAN_1
  6
CONTINUOUS
 10
-1.465421
 20
2.831000
  0
VERTEX
  8
PLAN_1
  6
CONTINUOUS
 10
-1.461807
 20
2.832547
  0
VERTEX
  8
PLAN_1
  6
CONTINUOUS
 10
-1.457677
 20
2.833583
  0
VERTEX
  8
PLAN_1
  6
CONTINUOUS
 10
-1.454063
 20
2.834098
  0
VERTEX
  8
PLAN_1
  6
CONTINUOUS
 10
-1.446319
 20
2.834098
  0
VERTEX
  8
PLAN_1
  6
CONTINUOUS
 10
-1.440122
 20
2.833583
  0
VERTEX
  8
PLAN_1
  6
CONTINUOUS
 10
-1.435476
 20
2.832547
  0
VERTEX
  8
PLAN_1
  6
CONTINUOUS
 10
-1.433929
 20
2.832031
  0
VERTEX
  8
PLAN_1
  6
CONTINUOUS
 10
-1.428248
 20
2.822740
  0
VERTEX
  8
PLAN_1
  6
CONTINUOUS
 10
-1.423087
 20
2.812413
  0
VERTEX
  8
PLAN_1
  6
CONTINUOUS
 10
-1.418437
 20
2.802087
  0
VERTEX
  8
PLAN_1
  6
CONTINUOUS
 10
-1.413791
 20
2.791244
  0
VERTEX
  8
PLAN_1
  6
CONTINUOUS
 10
-1.404500
 20
2.769563
  0
VERTEX
  8
PLAN_1
  6
CONTINUOUS
 10
-1.396240
 20
2.746846
  0
VERTEX
  8
PLAN_1
  6
CONTINUOUS
 10
-1.388496
 20
2.724130
  0
VERTEX
  8
PLAN_1
  6
CONTINUOUS
 10
-1.381268
 20
2.701413
  0
VERTEX
  8
PLAN_1
  6
CONTINUOUS
 10
-1.374555
 20
2.679213
  0
VERTEX
  8
PLAN_1
  6
CONTINUOUS
 10
-1.368874
 20
2.657528
  0
VERTEX
  8
PLAN_1
  6
CONTINUOUS
 10
-1.359583
 20
2.618807
  0
VERTEX
  8
PLAN_1
  6
CONTINUOUS
 10
-1.352870
 20
2.587315
  0
VERTEX
  8
PLAN_1
  6
CONTINUOUS
 10
-1.348740
 20
2.566146
  0
VERTEX
  8
PLAN_1
  6
CONTINUOUS
 10
-1.347193
 20
2.558917
  0
SEQEND
  8
0
  0
POLYLINE
  8
PLAN_1
  6
CONTINUOUS
 66
     1
 40
0.008260
 41
0.008260
  0
VERTEX
  8
PLAN_1
  6
CONTINUOUS
 10
-1.347193
 20
2.558917
  0
VERTEX
  8
PLAN_1
  6
CONTINUOUS
 10
-1.347193
 20
2.367894
  0
SEQEND
  8
0
  0
POLYLINE
  8
PLAN_1
  6
CONTINUOUS
 66
     1
 40
0.008260
 41
0.008260
  0
VERTEX
  8
PLAN_1
  6
CONTINUOUS
 10
-2.124713
 20
2.395772
  0
VERTEX
  8
PLAN_1
  6
CONTINUOUS
 10
-2.124713
 20
2.334335
  0
VERTEX
  8
PLAN_1
  6
CONTINUOUS
 10
-2.349295
 20
2.334335
  0
VERTEX
  8
PLAN_1
  6
CONTINUOUS
 10
-2.349295
 20
2.395772
  0
VERTEX
  8
PLAN_1
  6
CONTINUOUS
 10
-2.258433
 20
2.395256
  0
VERTEX
  8
PLAN_1
  6
CONTINUOUS
 10
-2.258433
 20
2.363764
  0
VERTEX
  8
PLAN_1
  6
CONTINUOUS
 10
-2.215579
 20
2.363764
  0
VERTEX
  8
PLAN_1
  6
CONTINUOUS
 10
-2.215579
 20
2.395256
  0
VERTEX
  8
PLAN_1
  6
CONTINUOUS
 10
-2.124713
 20
2.395772
  0
SEQEND
  8
0
  0
POLYLINE
  8
PLAN_1
  6
CONTINUOUS
 66
     1
 40
0.008260
 41
0.008260
  0
VERTEX
  8
PLAN_1
  6
CONTINUOUS
 10
-1.248583
 20
2.395772
  0
VERTEX
  8
PLAN_1
  6
CONTINUOUS
 10
-1.248583
 20
2.334335
  0
VERTEX
  8
PLAN_1
  6
CONTINUOUS
 10
-1.473165
 20
2.334335
  0
VERTEX
  8
PLAN_1
  6
CONTINUOUS
 10
-1.473165
 20
2.395772
  0
VERTEX
  8
PLAN_1
  6
CONTINUOUS
 10
-1.382299
 20
2.395256
  0
VERTEX
  8
PLAN_1
  6
CONTINUOUS
 10
-1.382299
 20
2.363764
  0
VERTEX
  8
PLAN_1
  6
CONTINUOUS
 10
-1.339449
 20
2.363764
  0
VERTEX
  8
PLAN_1
  6
CONTINUOUS
 10
-1.339449
 20
2.395256
  0
VERTEX
  8
PLAN_1
  6
CONTINUOUS
 10
-1.248583
 20
2.395772
  0
SEQEND
  8
0
  0
POLYLINE
  8
PLAN_1
  6
CONTINUOUS
 66
     1
 40
0.008260
 41
0.008260
  0
VERTEX
  8
PLAN_1
  6
CONTINUOUS
 10
-2.309028
 20
2.007528
  0
VERTEX
  8
PLAN_1
  6
CONTINUOUS
 10
-2.308512
 20
2.089618
  0
VERTEX
  8
PLAN_1
  6
CONTINUOUS
 10
-2.349815
 20
2.089618
  0
SEQEND
  8
0
  0
POLYLINE
  8
PLAN_1
  6
CONTINUOUS
 66
     1
 40
0.008260
 41
0.008260
  0
VERTEX
  8
PLAN_1
  6
CONTINUOUS
 10
-1.290917
 20
2.007528
  0
VERTEX
  8
PLAN_1
  6
CONTINUOUS
 10
-1.290402
 20
2.089618
  0
VERTEX
  8
PLAN_1
  6
CONTINUOUS
 10
-1.249614
 20
2.089618
  0
SEQEND
  8
0
  0
POLYLINE
  8
PLAN_1
  6
CONTINUOUS
 66
     1
 40
0.008260
 41
0.008260
  0
VERTEX
  8
PLAN_1
  6
CONTINUOUS
 10
-1.716335
 20
2.947161
  0
VERTEX
  8
PLAN_1
  6
CONTINUOUS
 10
-1.716335
 20
3.182071
  0
VERTEX
  8
PLAN_1
  6
CONTINUOUS
 10
-1.881028
 20
3.182071
  0
VERTEX
  8
PLAN_1
  6
CONTINUOUS
 10
-1.881028
 20
2.947161
  0
VERTEX
  8
PLAN_1
  6
CONTINUOUS
 10
-1.716335
 20
2.947161
  0
SEQEND
  8
0
  0
POLYLINE
  8
PLAN_1
  6
CONTINUOUS
 66
     1
 40
0.008260
 41
0.008260
  0
VERTEX
  8
PLAN_1
  6
CONTINUOUS
 10
-1.872252
 20
3.634335
  0
VERTEX
  8
PLAN_1
  6
CONTINUOUS
 10
-1.879480
 20
3.631236
  0
VERTEX
  8
PLAN_1
  6
CONTINUOUS
 10
-1.886193
 20
3.628657
  0
VERTEX
  8
PLAN_1
  6
CONTINUOUS
 10
-1.893417
 20
3.625559
  0
VERTEX
  8
PLAN_1
  6
CONTINUOUS
 10
-1.900130
 20
3.621945
  0
VERTEX
  8
PLAN_1
  6
CONTINUOUS
 10
-1.906327
 20
3.618331
  0
VERTEX
  8
PLAN_1
  6
CONTINUOUS
 10
-1.912520
 20
3.614201
  0
VERTEX
  8
PLAN_1
  6
CONTINUOUS
 10
-1.918717
 20
3.610071
  0
VERTEX
  8
PLAN_1
  6
CONTINUOUS
 10
-1.924398
 20
3.605425
  0
VERTEX
  8
PLAN_1
  6
CONTINUOUS
 10
-1.930075
 20
3.600260
  0
VERTEX
  8
PLAN_1
  6
CONTINUOUS
 10
-1.935756
 20
3.595614
  0
VERTEX
  8
PLAN_1
  6
CONTINUOUS
 10
-1.940402
 20
3.589937
  0
VERTEX
  8
PLAN_1
  6
CONTINUOUS
 10
-1.945563
 20
3.584256
  0
VERTEX
  8
PLAN_1
  6
CONTINUOUS
 10
-1.950209
 20
3.578059
  0
VERTEX
  8
PLAN_1
  6
CONTINUOUS
 10
-1.954339
 20
3.571866
  0
VERTEX
  8
PLAN_1
  6
CONTINUOUS
 10
-1.958472
 20
3.565154
  0
VERTEX
  8
PLAN_1
  6
CONTINUOUS
 10
-1.962087
 20
3.558441
  0
SEQEND
  8
0
  0
POLYLINE
  8
PLAN_1
  6
CONTINUOUS
 66
     1
 40
0.008260
 41
0.008260
  0
VERTEX
  8
PLAN_1
  6
CONTINUOUS
 10
-1.962087
 20
3.558441
  0
VERTEX
  8
PLAN_1
  6
CONTINUOUS
 10
-1.962087
 20
3.558957
  0
SEQEND
  8
0
  0
POLYLINE
  8
PLAN_1
  6
CONTINUOUS
 66
     1
 40
0.008260
 41
0.008260
  0
VERTEX
  8
PLAN_1
  6
CONTINUOUS
 10
-1.962087
 20
3.558957
  0
VERTEX
  8
PLAN_1
  6
CONTINUOUS
 10
-1.958988
 20
3.548118
  0
VERTEX
  8
PLAN_1
  6
CONTINUOUS
 10
-1.956921
 20
3.536760
  0
VERTEX
  8
PLAN_1
  6
CONTINUOUS
 10
-1.954858
 20
3.525917
  0
VERTEX
  8
PLAN_1
  6
CONTINUOUS
 10
-1.953307
 20
3.515591
  0
VERTEX
  8
PLAN_1
  6
CONTINUOUS
 10
-1.950728
 20
3.495457
  0
VERTEX
  8
PLAN_1
  6
CONTINUOUS
 10
-1.949177
 20
3.476354
  0
VERTEX
  8
PLAN_1
  6
CONTINUOUS
 10
-1.948146
 20
3.458283
  0
VERTEX
  8
PLAN_1
  6
CONTINUOUS
 10
-1.948146
 20
3.441244
  0
VERTEX
  8
PLAN_1
  6
CONTINUOUS
 10
-1.949177
 20
3.425756
  0
VERTEX
  8
PLAN_1
  6
CONTINUOUS
 10
-1.950209
 20
3.411303
  0
VERTEX
  8
PLAN_1
  6
CONTINUOUS
 10
-1.951760
 20
3.398394
  0
VERTEX
  8
PLAN_1
  6
CONTINUOUS
 10
-1.953823
 20
3.387035
  0
VERTEX
  8
PLAN_1
  6
CONTINUOUS
 10
-1.955890
 20
3.377228
  0
VERTEX
  8
PLAN_1
  6
CONTINUOUS
 10
-1.957437
 20
3.368965
  0
VERTEX
  8
PLAN_1
  6
CONTINUOUS
 10
-1.960535
 20
3.357606
  0
VERTEX
  8
PLAN_1
  6
CONTINUOUS
 10
-1.962087
 20
3.353992
  0
SEQEND
  8
0
  0
POLYLINE
  8
PLAN_1
  6
CONTINUOUS
 66
     1
 40
0.008260
 41
0.008260
  0
VERTEX
  8
PLAN_1
  6
CONTINUOUS
 10
-1.962087
 20
3.353992
  0
VERTEX
  8
PLAN_1
  6
CONTINUOUS
 10
-1.872252
 20
3.353992
  0
SEQEND
  8
0
  0
POLYLINE
  8
PLAN_1
  6
CONTINUOUS
 66
     1
 40
0.008260
 41
0.008260
  0
VERTEX
  8
PLAN_1
  6
CONTINUOUS
 10
-1.729756
 20
3.353992
  0
VERTEX
  8
PLAN_1
  6
CONTINUOUS
 10
-1.636311
 20
3.353992
  0
SEQEND
  8
0
  0
POLYLINE
  8
PLAN_1
  6
CONTINUOUS
 66
     1
 40
0.008260
 41
0.008260
  0
VERTEX
  8
PLAN_1
  6
CONTINUOUS
 10
-1.636311
 20
3.353992
  0
VERTEX
  8
PLAN_1
  6
CONTINUOUS
 10
-1.637343
 20
3.357606
  0
VERTEX
  8
PLAN_1
  6
CONTINUOUS
 10
-1.640441
 20
3.368965
  0
VERTEX
  8
PLAN_1
  6
CONTINUOUS
 10
-1.642504
 20
3.377228
  0
VERTEX
  8
PLAN_1
  6
CONTINUOUS
 10
-1.644055
 20
3.387035
  0
VERTEX
  8
PLAN_1
  6
CONTINUOUS
 10
-1.646118
 20
3.398394
  0
VERTEX
  8
PLAN_1
  6
CONTINUOUS
 10
-1.647669
 20
3.411303
  0
VERTEX
  8
PLAN_1
  6
CONTINUOUS
 10
-1.648701
 20
3.425756
  0
VERTEX
  8
PLAN_1
  6
CONTINUOUS
 10
-1.649732
 20
3.441244
  0
VERTEX
  8
PLAN_1
  6
CONTINUOUS
 10
-1.649732
 20
3.458283
  0
VERTEX
  8
PLAN_1
  6
CONTINUOUS
 10
-1.649217
 20
3.476354
  0
VERTEX
  8
PLAN_1
  6
CONTINUOUS
 10
-1.647669
 20
3.495457
  0
VERTEX
  8
PLAN_1
  6
CONTINUOUS
 10
-1.645087
 20
3.515591
  0
VERTEX
  8
PLAN_1
  6
CONTINUOUS
 10
-1.643024
 20
3.525917
  0
VERTEX
  8
PLAN_1
  6
CONTINUOUS
 10
-1.641472
 20
3.536760
  0
VERTEX
  8
PLAN_1
  6
CONTINUOUS
 10
-1.638890
 20
3.548118
  0
VERTEX
  8
PLAN_1
  6
CONTINUOUS
 10
-1.636311
 20
3.558957
  0
SEQEND
  8
0
  0
POLYLINE
  8
PLAN_1
  6
CONTINUOUS
 66
     1
 40
0.008260
 41
0.008260
  0
VERTEX
  8
PLAN_1
  6
CONTINUOUS
 10
-1.636311
 20
3.558957
  0
VERTEX
  8
PLAN_1
  6
CONTINUOUS
 10
-1.635795
 20
3.558441
  0
SEQEND
  8
0
  0
POLYLINE
  8
PLAN_1
  6
CONTINUOUS
 66
     1
 40
0.008260
 41
0.008260
  0
VERTEX
  8
PLAN_1
  6
CONTINUOUS
 10
-1.635795
 20
3.558441
  0
VERTEX
  8
PLAN_1
  6
CONTINUOUS
 10
-1.639409
 20
3.565669
  0
VERTEX
  8
PLAN_1
  6
CONTINUOUS
 10
-1.643539
 20
3.572382
  0
VERTEX
  8
PLAN_1
  6
CONTINUOUS
 10
-1.648185
 20
3.578579
  0
VERTEX
  8
PLAN_1
  6
CONTINUOUS
 10
-1.652831
 20
3.584772
  0
VERTEX
  8
PLAN_1
  6
CONTINUOUS
 10
-1.657992
 20
3.590453
  0
VERTEX
  8
PLAN_1
  6
CONTINUOUS
 10
-1.663157
 20
3.596130
  0
VERTEX
  8
PLAN_1
  6
CONTINUOUS
 10
-1.668835
 20
3.601295
  0
VERTEX
  8
PLAN_1
  6
CONTINUOUS
 10
-1.674516
 20
3.606457
  0
VERTEX
  8
PLAN_1
  6
CONTINUOUS
 10
-1.680709
 20
3.611102
  0
VERTEX
  8
PLAN_1
  6
CONTINUOUS
 10
-1.686906
 20
3.615232
  0
VERTEX
  8
PLAN_1
  6
CONTINUOUS
 10
-1.693618
 20
3.619362
  0
VERTEX
  8
PLAN_1
  6
CONTINUOUS
 10
-1.700331
 20
3.622976
  0
VERTEX
  8
PLAN_1
  6
CONTINUOUS
 10
-1.707039
 20
3.626591
  0
VERTEX
  8
PLAN_1
  6
CONTINUOUS
 10
-1.714268
 20
3.629689
  0
VERTEX
  8
PLAN_1
  6
CONTINUOUS
 10
-1.721496
 20
3.632787
  0
VERTEX
  8
PLAN_1
  6
CONTINUOUS
 10
-1.728724
 20
3.635370
  0
SEQEND
  8
0
  0
POLYLINE
  8
PLAN_1
  6
CONTINUOUS
 66
     1
 40
0.008260
 41
0.008260
  0
VERTEX
  8
PLAN_1
  6
CONTINUOUS
 10
-1.635795
 20
3.558441
  0
VERTEX
  8
PLAN_1
  6
CONTINUOUS
 10
-1.728724
 20
3.558441
  0
SEQEND
  8
0
  0
POLYLINE
  8
PLAN_1
  6
CONTINUOUS
 66
     1
 40
0.008260
 41
0.008260
  0
VERTEX
  8
PLAN_1
  6
CONTINUOUS
 10
-1.872252
 20
3.558441
  0
VERTEX
  8
PLAN_1
  6
CONTINUOUS
 10
-1.962087
 20
3.558441
  0
SEQEND
  8
0
  0
POLYLINE
  8
PLAN_1
  6
CONTINUOUS
 66
     1
 40
0.008260
 41
0.008260
  0
VERTEX
  8
PLAN_1
  6
CONTINUOUS
 10
-2.288374
 20
2.559433
  0
VERTEX
  8
PLAN_1
  6
CONTINUOUS
 10
-2.247591
 20
2.559433
  0
SEQEND
  8
0
  0
POLYLINE
  8
PLAN_1
  6
CONTINUOUS
 66
     1
 40
0.008260
 41
0.008260
  0
VERTEX
  8
PLAN_1
  6
CONTINUOUS
 10
-2.060693
 20
2.559433
  0
VERTEX
  8
PLAN_1
  6
CONTINUOUS
 10
-1.535118
 20
2.559433
  0
SEQEND
  8
0
  0
POLYLINE
  8
PLAN_1
  6
CONTINUOUS
 66
     1
 40
0.008260
 41
0.008260
  0
VERTEX
  8
PLAN_1
  6
CONTINUOUS
 10
-1.350291
 20
2.559433
  0
VERTEX
  8
PLAN_1
  6
CONTINUOUS
 10
-1.309504
 20
2.559433
  0
SEQEND
  8
0
  0
POLYLINE
  8
PLAN_1
 62
     2
  6
CONTINUOUS
 66
     1
 40
0.004130
 41
0.004130
  0
VERTEX
  8
PLAN_1
 62
     2
  6
CONTINUOUS
 10
-1.768996
 20
4.034457
  0
VERTEX
  8
PLAN_1
 62
     2
  6
CONTINUOUS
 10
-1.277492
 20
4.034457
  0
SEQEND
  8
0
  0
SOLID
  8
PLAN_1
 62
     2
 10
-1.248067
 20
4.034457
 11
-1.307437
 21
4.049945
 12
-1.248067
 22
4.034457
 13
-1.307437
 23
4.018449
  0
POLYLINE
  8
PLAN_1
 62
     2
  6
CONTINUOUS
 66
     1
 40
0.003000
 41
0.003000
  0
VERTEX
  8
PLAN_1
 62
     2
  6
CONTINUOUS
 10
-1.248067
 20
4.034457
  0
VERTEX
  8
PLAN_1
 62
     2
  6
CONTINUOUS
 10
-1.307437
 20
4.049945
  0
VERTEX
  8
PLAN_1
 62
     2
  6
CONTINUOUS
 10
-1.307437
 20
4.018449
  0
VERTEX
  8
PLAN_1
 62
     2
  6
CONTINUOUS
 10
-1.248067
 20
4.034457
  0
SEQEND
  8
0
  0
SOLID
  8
PLAN_1
 62
     2
 10
-1.798941
 20
4.034457
 11
-1.739567
 21
4.049945
 12
-1.798941
 22
4.034457
 13
-1.739567
 23
4.018449
  0
POLYLINE
  8
PLAN_1
 62
     2
  6
CONTINUOUS
 66
     1
 40
0.003000
 41
0.003000
  0
VERTEX
  8
PLAN_1
 62
     2
  6
CONTINUOUS
 10
-1.798941
 20
4.034457
  0
VERTEX
  8
PLAN_1
 62
     2
  6
CONTINUOUS
 10
-1.739567
 20
4.049945
  0
VERTEX
  8
PLAN_1
 62
     2
  6
CONTINUOUS
 10
-1.739567
 20
4.018449
  0
VERTEX
  8
PLAN_1
 62
     2
  6
CONTINUOUS
 10
-1.798941
 20
4.034457
  0
SEQEND
  8
0
  0
POLYLINE
  8
PLAN_1
 62
     2
  6
CONTINUOUS
 66
     1
 40
0.003000
 41
0.003000
  0
VERTEX
  8
PLAN_1
 62
     2
  6
CONTINUOUS
 10
-1.542862
 20
4.057689
  0
VERTEX
  8
PLAN_1
 62
     2
  6
CONTINUOUS
 10
-1.552673
 20
4.057689
  0
VERTEX
  8
PLAN_1
 62
     2
  6
CONTINUOUS
 10
-1.552673
 20
4.109831
  0
VERTEX
  8
PLAN_1
 62
     2
  6
CONTINUOUS
 10
-1.569709
 20
4.109831
  0
VERTEX
  8
PLAN_1
 62
     2
  6
CONTINUOUS
 10
-1.569709
 20
4.117059
  0
VERTEX
  8
PLAN_1
 62
     2
  6
CONTINUOUS
 10
-1.565579
 20
4.117575
  0
VERTEX
  8
PLAN_1
 62
     2
  6
CONTINUOUS
 10
-1.562480
 20
4.118094
  0
VERTEX
  8
PLAN_1
 62
     2
  6
CONTINUOUS
 10
-1.559386
 20
4.118610
  0
VERTEX
  8
PLAN_1
 62
     2
  6
CONTINUOUS
 10
-1.556803
 20
4.119642
  0
VERTEX
  8
PLAN_1
 62
     2
  6
CONTINUOUS
 10
-1.554736
 20
4.121709
  0
VERTEX
  8
PLAN_1
 62
     2
  6
CONTINUOUS
 10
-1.552673
 20
4.123772
  0
VERTEX
  8
PLAN_1
 62
     2
  6
CONTINUOUS
 10
-1.551638
 20
4.126870
  0
VERTEX
  8
PLAN_1
 62
     2
  6
CONTINUOUS
 10
-1.550091
 20
4.131000
  0
VERTEX
  8
PLAN_1
 62
     2
  6
CONTINUOUS
 10
-1.542862
 20
4.131000
  0
VERTEX
  8
PLAN_1
 62
     2
  6
CONTINUOUS
 10
-1.542862
 20
4.057689
  0
SEQEND
  8
0
  0
POLYLINE
  8
PLAN_1
 62
     2
  6
CONTINUOUS
 66
     1
 40
0.003000
 41
0.003000
  0
VERTEX
  8
PLAN_1
 62
     2
  6
CONTINUOUS
 10
-1.478843
 20
4.075756
  0
VERTEX
  8
PLAN_1
 62
     2
  6
CONTINUOUS
 10
-1.478843
 20
4.057689
  0
VERTEX
  8
PLAN_1
 62
     2
  6
CONTINUOUS
 10
-1.488138
 20
4.057689
  0
VERTEX
  8
PLAN_1
 62
     2
  6
CONTINUOUS
 10
-1.488138
 20
4.075756
  0
VERTEX
  8
PLAN_1
 62
     2
  6
CONTINUOUS
 10
-1.520146
 20
4.075756
  0
VERTEX
  8
PLAN_1
 62
     2
  6
CONTINUOUS
 10
-1.520146
 20
4.084535
  0
VERTEX
  8
PLAN_1
 62
     2
  6
CONTINUOUS
 10
-1.486587
 20
4.131000
  0
VERTEX
  8
PLAN_1
 62
     2
  6
CONTINUOUS
 10
-1.478843
 20
4.131000
  0
VERTEX
  8
PLAN_1
 62
     2
  6
CONTINUOUS
 10
-1.478843
 20
4.083500
  0
VERTEX
  8
PLAN_1
 62
     2
  6
CONTINUOUS
 10
-1.468000
 20
4.083500
  0
VERTEX
  8
PLAN_1
 62
     2
  6
CONTINUOUS
 10
-1.468000
 20
4.075756
  0
VERTEX
  8
PLAN_1
 62
     2
  6
CONTINUOUS
 10
-1.478843
 20
4.075756
  0
SEQEND
  8
0
  0
SOLID
  8
PLAN_1
 62
     2
 10
-1.511370
 20
4.083500
 11
-1.488138
 21
4.083500
 12
-1.511370
 22
4.083500
 13
-1.488138
 23
4.116543
  0
POLYLINE
  8
PLAN_1
 62
     2
  6
CONTINUOUS
 66
     1
 40
0.003000
 41
0.003000
  0
VERTEX
  8
PLAN_1
 62
     2
  6
CONTINUOUS
 10
-1.511370
 20
4.083500
  0
VERTEX
  8
PLAN_1
 62
     2
  6
CONTINUOUS
 10
-1.488138
 20
4.083500
  0
VERTEX
  8
PLAN_1
 62
     2
  6
CONTINUOUS
 10
-1.488138
 20
4.116543
  0
VERTEX
  8
PLAN_1
 62
     2
  6
CONTINUOUS
 10
-1.511370
 20
4.083500
  0
SEQEND
  8
0
  0
POLYLINE
  8
PLAN_1
 62
     2
  6
CONTINUOUS
 66
     1
 40
0.004130
 41
0.004130
  0
VERTEX
  8
PLAN_1
 62
     2
  6
CONTINUOUS
 10
-1.248067
 20
3.006020
  0
VERTEX
  8
PLAN_1
 62
     2
  6
CONTINUOUS
 10
-1.248067
 20
3.163484
  0
SEQEND
  8
0
  0
POLYLINE
  8
PLAN_1
 62
     2
  6
CONTINUOUS
 66
     1
 40
0.004130
 41
0.004130
  0
VERTEX
  8
PLAN_1
 62
     2
  6
CONTINUOUS
 10
-1.248067
 20
2.407130
  0
VERTEX
  8
PLAN_1
 62
     2
  6
CONTINUOUS
 10
-1.248067
 20
2.958520
  0
SEQEND
  8
0
  0
POLYLINE
  8
PLAN_1
 62
     2
  6
CONTINUOUS
 66
     1
 40
0.004130
 41
0.004130
  0
VERTEX
  8
PLAN_1
 62
     2
  6
CONTINUOUS
 10
-2.396795
 20
-0.933220
  0
VERTEX
  8
PLAN_1
 62
     2
  6
CONTINUOUS
 10
-1.277492
 20
-0.933220
  0
SEQEND
  8
0
  0
SOLID
  8
PLAN_1
 62
     2
 10
-1.248067
 20
-0.933220
 11
-1.307437
 21
-0.917217
 12
-1.248067
 22
-0.933220
 13
-1.307437
 23
-0.948709
  0
POLYLINE
  8
PLAN_1
 62
     2
  6
CONTINUOUS
 66
     1
 40
0.003000
 41
0.003000
  0
VERTEX
  8
PLAN_1
 62
     2
  6
CONTINUOUS
 10
-1.248067
 20
-0.933220
  0
VERTEX
  8
PLAN_1
 62
     2
  6
CONTINUOUS
 10
-1.307437
 20
-0.917217
  0
VERTEX
  8
PLAN_1
 62
     2
  6
CONTINUOUS
 10
-1.307437
 20
-0.948709
  0
VERTEX
  8
PLAN_1
 62
     2
  6
CONTINUOUS
 10
-1.248067
 20
-0.933220
  0
SEQEND
  8
0
  0
SOLID
  8
PLAN_1
 62
     2
 10
-2.426224
 20
-0.933220
 11
-2.367366
 21
-0.917217
 12
-2.426224
 22
-0.933220
 13
-2.367366
 23
-0.948709
  0
POLYLINE
  8
PLAN_1
 62
     2
  6
CONTINUOUS
 66
     1
 40
0.003000
 41
0.003000
  0
VERTEX
  8
PLAN_1
 62
     2
  6
CONTINUOUS
 10
-2.426224
 20
-0.933220
  0
VERTEX
  8
PLAN_1
 62
     2
  6
CONTINUOUS
 10
-2.367366
 20
-0.917217
  0
VERTEX
  8
PLAN_1
 62
     2
  6
CONTINUOUS
 10
-2.367366
 20
-0.948709
  0
VERTEX
  8
PLAN_1
 62
     2
  6
CONTINUOUS
 10
-2.426224
 20
-0.933220
  0
SEQEND
  8
0
  0
POLYLINE
  8
PLAN_1
 62
     2
  6
CONTINUOUS
 66
     1
 40
0.003000
 41
0.003000
  0
VERTEX
  8
PLAN_1
 62
     2
  6
CONTINUOUS
 10
-1.871736
 20
-0.868169
  0
VERTEX
  8
PLAN_1
 62
     2
  6
CONTINUOUS
 10
-1.871220
 20
-0.868169
  0
VERTEX
  8
PLAN_1
 62
     2
  6
CONTINUOUS
 10
-1.870701
 20
-0.868169
  0
VERTEX
  8
PLAN_1
 62
     2
  6
CONTINUOUS
 10
-1.870185
 20
-0.868169
  0
VERTEX
  8
PLAN_1
 62
     2
  6
CONTINUOUS
 10
-1.869669
 20
-0.868169
  0
VERTEX
  8
PLAN_1
 62
     2
  6
CONTINUOUS
 10
-1.868638
 20
-0.868169
  0
VERTEX
  8
PLAN_1
 62
     2
  6
CONTINUOUS
 10
-1.868122
 20
-0.868169
  0
VERTEX
  8
PLAN_1
 62
     2
  6
CONTINUOUS
 10
-1.867606
 20
-0.868169
  0
VERTEX
  8
PLAN_1
 62
     2
  6
CONTINUOUS
 10
-1.867091
 20
-0.868169
  0
VERTEX
  8
PLAN_1
 62
     2
  6
CONTINUOUS
 10
-1.864508
 20
-0.868169
  0
VERTEX
  8
PLAN_1
 62
     2
  6
CONTINUOUS
 10
-1.861925
 20
-0.867654
  0
VERTEX
  8
PLAN_1
 62
     2
  6
CONTINUOUS
 10
-1.859343
 20
-0.866618
  0
VERTEX
  8
PLAN_1
 62
     2
  6
CONTINUOUS
 10
-1.857280
 20
-0.865587
  0
VERTEX
  8
PLAN_1
 62
     2
  6
CONTINUOUS
 10
-1.855732
 20
-0.864039
  0
VERTEX
  8
PLAN_1
 62
     2
  6
CONTINUOUS
 10
-1.854181
 20
-0.861972
  0
VERTEX
  8
PLAN_1
 62
     2
  6
CONTINUOUS
 10
-1.853665
 20
-0.859390
  0
VERTEX
  8
PLAN_1
 62
     2
  6
CONTINUOUS
 10
-1.853150
 20
-0.856295
  0
VERTEX
  8
PLAN_1
 62
     2
  6
CONTINUOUS
 10
-1.853150
 20
-0.854228
  0
VERTEX
  8
PLAN_1
 62
     2
  6
CONTINUOUS
 10
-1.853665
 20
-0.852681
  0
VERTEX
  8
PLAN_1
 62
     2
  6
CONTINUOUS
 10
-1.854697
 20
-0.850614
  0
VERTEX
  8
PLAN_1
 62
     2
  6
CONTINUOUS
 10
-1.855732
 20
-0.848551
  0
VERTEX
  8
PLAN_1
 62
     2
  6
CONTINUOUS
 10
-1.857795
 20
-0.847000
  0
VERTEX
  8
PLAN_1
 62
     2
  6
CONTINUOUS
 10
-1.859862
 20
-0.845969
  0
VERTEX
  8
PLAN_1
 62
     2
  6
CONTINUOUS
 10
-1.862957
 20
-0.844937
  0
VERTEX
  8
PLAN_1
 62
     2
  6
CONTINUOUS
 10
-1.866571
 20
-0.844421
  0
VERTEX
  8
PLAN_1
 62
     2
  6
CONTINUOUS
 10
-1.871220
 20
-0.844937
  0
VERTEX
  8
PLAN_1
 62
     2
  6
CONTINUOUS
 10
-1.874315
 20
-0.846484
  0
VERTEX
  8
PLAN_1
 62
     2
  6
CONTINUOUS
 10
-1.876898
 20
-0.848031
  0
VERTEX
  8
PLAN_1
 62
     2
  6
CONTINUOUS
 10
-1.878449
 20
-0.850614
  0
VERTEX
  8
PLAN_1
 62
     2
  6
CONTINUOUS
 10
-1.879480
 20
-0.853197
  0
VERTEX
  8
PLAN_1
 62
     2
  6
CONTINUOUS
 10
-1.880512
 20
-0.855780
  0
VERTEX
  8
PLAN_1
 62
     2
  6
CONTINUOUS
 10
-1.880512
 20
-0.858358
  0
VERTEX
  8
PLAN_1
 62
     2
  6
CONTINUOUS
 10
-1.881028
 20
-0.860425
  0
VERTEX
  8
PLAN_1
 62
     2
  6
CONTINUOUS
 10
-1.889807
 20
-0.860425
  0
VERTEX
  8
PLAN_1
 62
     2
  6
CONTINUOUS
 10
-1.889807
 20
-0.856295
  0
VERTEX
  8
PLAN_1
 62
     2
  6
CONTINUOUS
 10
-1.888772
 20
-0.852165
  0
VERTEX
  8
PLAN_1
 62
     2
  6
CONTINUOUS
 10
-1.887224
 20
-0.848031
  0
VERTEX
  8
PLAN_1
 62
     2
  6
CONTINUOUS
 10
-1.885157
 20
-0.844421
  0
VERTEX
  8
PLAN_1
 62
     2
  6
CONTINUOUS
 10
-1.883610
 20
-0.842870
  0
VERTEX
  8
PLAN_1
 62
     2
  6
CONTINUOUS
 10
-1.882059
 20
-0.841323
  0
VERTEX
  8
PLAN_1
 62
     2
  6
CONTINUOUS
 10
-1.880512
 20
-0.839772
  0
VERTEX
  8
PLAN_1
 62
     2
  6
CONTINUOUS
 10
-1.877929
 20
-0.838740
  0
VERTEX
  8
PLAN_1
 62
     2
  6
CONTINUOUS
 10
-1.875350
 20
-0.837709
  0
VERTEX
  8
PLAN_1
 62
     2
  6
CONTINUOUS
 10
-1.872768
 20
-0.837193
  0
VERTEX
  8
PLAN_1
 62
     2
  6
CONTINUOUS
 10
-1.869669
 20
-0.836673
  0
VERTEX
  8
PLAN_1
 62
     2
  6
CONTINUOUS
 10
-1.866055
 20
-0.836157
  0
VERTEX
  8
PLAN_1
 62
     2
  6
CONTINUOUS
 10
-1.861409
 20
-0.836673
  0
VERTEX
  8
PLAN_1
 62
     2
  6
CONTINUOUS
 10
-1.856764
 20
-0.837709
  0
VERTEX
  8
PLAN_1
 62
     2
  6
CONTINUOUS
 10
-1.853150
 20
-0.839772
  0
VERTEX
  8
PLAN_1
 62
     2
  6
CONTINUOUS
 10
-1.849535
 20
-0.841839
  0
VERTEX
  8
PLAN_1
 62
     2
  6
CONTINUOUS
 10
-1.846953
 20
-0.844421
  0
VERTEX
  8
PLAN_1
 62
     2
  6
CONTINUOUS
 10
-1.845406
 20
-0.848031
  0
VERTEX
  8
PLAN_1
 62
     2
  6
CONTINUOUS
 10
-1.843854
 20
-0.851646
  0
VERTEX
  8
PLAN_1
 62
     2
  6
CONTINUOUS
 10
-1.843854
 20
-0.855780
  0
VERTEX
  8
PLAN_1
 62
     2
  6
CONTINUOUS
 10
-1.843854
 20
-0.858874
  0
VERTEX
  8
PLAN_1
 62
     2
  6
CONTINUOUS
 10
-1.844374
 20
-0.861972
  0
VERTEX
  8
PLAN_1
 62
     2
  6
CONTINUOUS
 10
-1.845406
 20
-0.864039
  0
VERTEX
  8
PLAN_1
 62
     2
  6
CONTINUOUS
 10
-1.846953
 20
-0.866102
  0
VERTEX
  8
PLAN_1
 62
     2
  6
CONTINUOUS
 10
-1.848504
 20
-0.867654
  0
VERTEX
  8
PLAN_1
 62
     2
  6
CONTINUOUS
 10
-1.850051
 20
-0.869201
  0
VERTEX
  8
PLAN_1
 62
     2
  6
CONTINUOUS
 10
-1.851598
 20
-0.870232
  0
VERTEX
  8
PLAN_1
 62
     2
  6
CONTINUOUS
 10
-1.853150
 20
-0.870748
  0
VERTEX
  8
PLAN_1
 62
     2
  6
CONTINUOUS
 10
-1.850567
 20
-0.871783
  0
VERTEX
  8
PLAN_1
 62
     2
  6
CONTINUOUS
 10
-1.847984
 20
-0.873331
  0
VERTEX
  8
PLAN_1
 62
     2
  6
CONTINUOUS
 10
-1.845921
 20
-0.874882
  0
VERTEX
  8
PLAN_1
 62
     2
  6
CONTINUOUS
 10
-1.844374
 20
-0.876429
  0
VERTEX
  8
PLAN_1
 62
     2
  6
CONTINUOUS
 10
-1.842823
 20
-0.879012
  0
VERTEX
  8
PLAN_1
 62
     2
  6
CONTINUOUS
 10
-1.841791
 20
-0.881591
  0
VERTEX
  8
PLAN_1
 62
     2
  6
CONTINUOUS
 10
-1.841276
 20
-0.884689
  0
VERTEX
  8
PLAN_1
 62
     2
  6
CONTINUOUS
 10
-1.840760
 20
-0.887787
  0
VERTEX
  8
PLAN_1
 62
     2
  6
CONTINUOUS
 10
-1.841276
 20
-0.892433
  0
VERTEX
  8
PLAN_1
 62
     2
  6
CONTINUOUS
 10
-1.842307
 20
-0.896563
  0
VERTEX
  8
PLAN_1
 62
     2
  6
CONTINUOUS
 10
-1.844374
 20
-0.900693
  0
VERTEX
  8
PLAN_1
 62
     2
  6
CONTINUOUS
 10
-1.846953
 20
-0.904307
  0
VERTEX
  8
PLAN_1
 62
     2
  6
CONTINUOUS
 10
-1.848504
 20
-0.905858
  0
VERTEX
  8
PLAN_1
 62
     2
  6
CONTINUOUS
 10
-1.850567
 20
-0.907406
  0
VERTEX
  8
PLAN_1
 62
     2
  6
CONTINUOUS
 10
-1.852634
 20
-0.908437
  0
VERTEX
  8
PLAN_1
 62
     2
  6
CONTINUOUS
 10
-1.855213
 20
-0.909472
  0
VERTEX
  8
PLAN_1
 62
     2
  6
CONTINUOUS
 10
-1.857795
 20
-0.910504
  0
VERTEX
  8
PLAN_1
 62
     2
  6
CONTINUOUS
 10
-1.860894
 20
-0.911020
  0
VERTEX
  8
PLAN_1
 62
     2
  6
CONTINUOUS
 10
-1.863992
 20
-0.911535
  0
VERTEX
  8
PLAN_1
 62
     2
  6
CONTINUOUS
 10
-1.867091
 20
-0.911535
  0
VERTEX
  8
PLAN_1
 62
     2
  6
CONTINUOUS
 10
-1.869154
 20
-0.911535
  0
VERTEX
  8
PLAN_1
 62
     2
  6
CONTINUOUS
 10
-1.871220
 20
-0.911020
  0
VERTEX
  8
PLAN_1
 62
     2
  6
CONTINUOUS
 10
-1.872768
 20
-0.911020
  0
VERTEX
  8
PLAN_1
 62
     2
  6
CONTINUOUS
 10
-1.874835
 20
-0.910504
  0
VERTEX
  8
PLAN_1
 62
     2
  6
CONTINUOUS
 10
-1.876382
 20
-0.909988
  0
VERTEX
  8
PLAN_1
 62
     2
  6
CONTINUOUS
 10
-1.877929
 20
-0.909472
  0
VERTEX
  8
PLAN_1
 62
     2
  6
CONTINUOUS
 10
-1.879480
 20
-0.908957
  0
VERTEX
  8
PLAN_1
 62
     2
  6
CONTINUOUS
 10
-1.880512
 20
-0.908437
  0
VERTEX
  8
PLAN_1
 62
     2
  6
CONTINUOUS
 10
-1.883610
 20
-0.906374
  0
VERTEX
  8
PLAN_1
 62
     2
  6
CONTINUOUS
 10
-1.885673
 20
-0.904307
  0
VERTEX
  8
PLAN_1
 62
     2
  6
CONTINUOUS
 10
-1.887740
 20
-0.901728
  0
VERTEX
  8
PLAN_1
 62
     2
  6
CONTINUOUS
 10
-1.888772
 20
-0.899146
  0
VERTEX
  8
PLAN_1
 62
     2
  6
CONTINUOUS
 10
-1.889807
 20
-0.896563
  0
VERTEX
  8
PLAN_1
 62
     2
  6
CONTINUOUS
 10
-1.890839
 20
-0.893465
  0
VERTEX
  8
PLAN_1
 62
     2
  6
CONTINUOUS
 10
-1.891354
 20
-0.890370
  0
VERTEX
  8
PLAN_1
 62
     2
  6
CONTINUOUS
 10
-1.891870
 20
-0.887272
  0
VERTEX
  8
PLAN_1
 62
     2
  6
CONTINUOUS
 10
-1.882059
 20
-0.887272
  0
VERTEX
  8
PLAN_1
 62
     2
  6
CONTINUOUS
 10
-1.882059
 20
-0.889850
  0
VERTEX
  8
PLAN_1
 62
     2
  6
CONTINUOUS
 10
-1.881543
 20
-0.892433
  0
VERTEX
  8
PLAN_1
 62
     2
  6
CONTINUOUS
 10
-1.880512
 20
-0.895531
  0
VERTEX
  8
PLAN_1
 62
     2
  6
CONTINUOUS
 10
-1.879480
 20
-0.897598
  0
VERTEX
  8
PLAN_1
 62
     2
  6
CONTINUOUS
 10
-1.877413
 20
-0.900177
  0
VERTEX
  8
PLAN_1
 62
     2
  6
CONTINUOUS
 10
-1.874835
 20
-0.901728
  0
VERTEX
  8
PLAN_1
 62
     2
  6
CONTINUOUS
 10
-1.871220
 20
-0.902760
  0
VERTEX
  8
PLAN_1
 62
     2
  6
CONTINUOUS
 10
-1.866571
 20
-0.903276
  0
VERTEX
  8
PLAN_1
 62
     2
  6
CONTINUOUS
 10
-1.862957
 20
-0.903276
  0
VERTEX
  8
PLAN_1
 62
     2
  6
CONTINUOUS
 10
-1.860378
 20
-0.902244
  0
VERTEX
  8
PLAN_1
 62
     2
  6
CONTINUOUS
 10
-1.857280
 20
-0.901209
  0
VERTEX
  8
PLAN_1
 62
     2
  6
CONTINUOUS
 10
-1.855213
 20
-0.899146
  0
VERTEX
  8
PLAN_1
 62
     2
  6
CONTINUOUS
 10
-1.853150
 20
-0.897079
  0
VERTEX
  8
PLAN_1
 62
     2
  6
CONTINUOUS
 10
-1.851598
 20
-0.895016
  0
VERTEX
  8
PLAN_1
 62
     2
  6
CONTINUOUS
 10
-1.851083
 20
-0.891917
  0
VERTEX
  8
PLAN_1
 62
     2
  6
CONTINUOUS
 10
-1.850567
 20
-0.889335
  0
VERTEX
  8
PLAN_1
 62
     2
  6
CONTINUOUS
 10
-1.851083
 20
-0.885205
  0
VERTEX
  8
PLAN_1
 62
     2
  6
CONTINUOUS
 10
-1.852634
 20
-0.882106
  0
VERTEX
  8
PLAN_1
 62
     2
  6
CONTINUOUS
 10
-1.854181
 20
-0.879528
  0
VERTEX
  8
PLAN_1
 62
     2
  6
CONTINUOUS
 10
-1.856764
 20
-0.877976
  0
VERTEX
  8
PLAN_1
 62
     2
  6
CONTINUOUS
 10
-1.859343
 20
-0.876945
  0
VERTEX
  8
PLAN_1
 62
     2
  6
CONTINUOUS
 10
-1.862441
 20
-0.875913
  0
VERTEX
  8
PLAN_1
 62
     2
  6
CONTINUOUS
 10
-1.865024
 20
-0.875913
  0
VERTEX
  8
PLAN_1
 62
     2
  6
CONTINUOUS
 10
-1.867606
 20
-0.875913
  0
VERTEX
  8
PLAN_1
 62
     2
  6
CONTINUOUS
 10
-1.868122
 20
-0.875913
  0
VERTEX
  8
PLAN_1
 62
     2
  6
CONTINUOUS
 10
-1.868638
 20
-0.875913
  0
VERTEX
  8
PLAN_1
 62
     2
  6
CONTINUOUS
 10
-1.869154
 20
-0.875913
  0
VERTEX
  8
PLAN_1
 62
     2
  6
CONTINUOUS
 10
-1.869669
 20
-0.875913
  0
VERTEX
  8
PLAN_1
 62
     2
  6
CONTINUOUS
 10
-1.870185
 20
-0.875913
  0
VERTEX
  8
PLAN_1
 62
     2
  6
CONTINUOUS
 10
-1.870701
 20
-0.875913
  0
VERTEX
  8
PLAN_1
 62
     2
  6
CONTINUOUS
 10
-1.871220
 20
-0.875913
  0
VERTEX
  8
PLAN_1
 62
     2
  6
CONTINUOUS
 10
-1.871736
 20
-0.875913
  0
VERTEX
  8
PLAN_1
 62
     2
  6
CONTINUOUS
 10
-1.871736
 20
-0.868169
  0
SEQEND
  8
0
  0
POLYLINE
  8
PLAN_1
 62
     2
  6
CONTINUOUS
 66
     1
 40
0.003000
 41
0.003000
  0
VERTEX
  8
PLAN_1
 62
     2
  6
CONTINUOUS
 10
-1.808232
 20
-0.911535
  0
VERTEX
  8
PLAN_1
 62
     2
  6
CONTINUOUS
 10
-1.812362
 20
-0.911020
  0
VERTEX
  8
PLAN_1
 62
     2
  6
CONTINUOUS
 10
-1.815461
 20
-0.910504
  0
VERTEX
  8
PLAN_1
 62
     2
  6
CONTINUOUS
 10
-1.818559
 20
-0.909472
  0
VERTEX
  8
PLAN_1
 62
     2
  6
CONTINUOUS
 10
-1.821138
 20
-0.907921
  0
VERTEX
  8
PLAN_1
 62
     2
  6
CONTINUOUS
 10
-1.823720
 20
-0.905858
  0
VERTEX
  8
PLAN_1
 62
     2
  6
CONTINUOUS
 10
-1.825787
 20
-0.903791
  0
VERTEX
  8
PLAN_1
 62
     2
  6
CONTINUOUS
 10
-1.827335
 20
-0.901209
  0
VERTEX
  8
PLAN_1
 62
     2
  6
CONTINUOUS
 10
-1.828882
 20
-0.898630
  0
VERTEX
  8
PLAN_1
 62
     2
  6
CONTINUOUS
 10
-1.830949
 20
-0.892433
  0
VERTEX
  8
PLAN_1
 62
     2
  6
CONTINUOUS
 10
-1.832496
 20
-0.886240
  0
VERTEX
  8
PLAN_1
 62
     2
  6
CONTINUOUS
 10
-1.833016
 20
-0.880043
  0
VERTEX
  8
PLAN_1
 62
     2
  6
CONTINUOUS
 10
-1.833531
 20
-0.873846
  0
VERTEX
  8
PLAN_1
 62
     2
  6
CONTINUOUS
 10
-1.833016
 20
-0.868169
  0
VERTEX
  8
PLAN_1
 62
     2
  6
CONTINUOUS
 10
-1.832496
 20
-0.861457
  0
VERTEX
  8
PLAN_1
 62
     2
  6
CONTINUOUS
 10
-1.830949
 20
-0.855260
  0
VERTEX
  8
PLAN_1
 62
     2
  6
CONTINUOUS
 10
-1.828882
 20
-0.849583
  0
VERTEX
  8
PLAN_1
 62
     2
  6
CONTINUOUS
 10
-1.827335
 20
-0.847000
  0
VERTEX
  8
PLAN_1
 62
     2
  6
CONTINUOUS
 10
-1.825787
 20
-0.844421
  0
VERTEX
  8
PLAN_1
 62
     2
  6
CONTINUOUS
 10
-1.823720
 20
-0.841839
  0
VERTEX
  8
PLAN_1
 62
     2
  6
CONTINUOUS
 10
-1.821138
 20
-0.840287
  0
VERTEX
  8
PLAN_1
 62
     2
  6
CONTINUOUS
 10
-1.818559
 20
-0.838740
  0
VERTEX
  8
PLAN_1
 62
     2
  6
CONTINUOUS
 10
-1.815461
 20
-0.837193
  0
VERTEX
  8
PLAN_1
 62
     2
  6
CONTINUOUS
 10
-1.812362
 20
-0.836673
  0
VERTEX
  8
PLAN_1
 62
     2
  6
CONTINUOUS
 10
-1.808232
 20
-0.836157
  0
VERTEX
  8
PLAN_1
 62
     2
  6
CONTINUOUS
 10
-1.804618
 20
-0.836673
  0
VERTEX
  8
PLAN_1
 62
     2
  6
CONTINUOUS
 10
-1.801004
 20
-0.837193
  0
VERTEX
  8
PLAN_1
 62
     2
  6
CONTINUOUS
 10
-1.798421
 20
-0.838740
  0
VERTEX
  8
PLAN_1
 62
     2
  6
CONTINUOUS
 10
-1.795327
 20
-0.840287
  0
VERTEX
  8
PLAN_1
 62
     2
  6
CONTINUOUS
 10
-1.793260
 20
-0.841839
  0
VERTEX
  8
PLAN_1
 62
     2
  6
CONTINUOUS
 10
-1.791197
 20
-0.844421
  0
VERTEX
  8
PLAN_1
 62
     2
  6
CONTINUOUS
 10
-1.789646
 20
-0.847000
  0
VERTEX
  8
PLAN_1
 62
     2
  6
CONTINUOUS
 10
-1.788098
 20
-0.849583
  0
VERTEX
  8
PLAN_1
 62
     2
  6
CONTINUOUS
 10
-1.785516
 20
-0.855260
  0
VERTEX
  8
PLAN_1
 62
     2
  6
CONTINUOUS
 10
-1.784484
 20
-0.861457
  0
VERTEX
  8
PLAN_1
 62
     2
  6
CONTINUOUS
 10
-1.783453
 20
-0.868169
  0
VERTEX
  8
PLAN_1
 62
     2
  6
CONTINUOUS
 10
-1.783453
 20
-0.873846
  0
VERTEX
  8
PLAN_1
 62
     2
  6
CONTINUOUS
 10
-1.783453
 20
-0.880043
  0
VERTEX
  8
PLAN_1
 62
     2
  6
CONTINUOUS
 10
-1.784484
 20
-0.886240
  0
VERTEX
  8
PLAN_1
 62
     2
  6
CONTINUOUS
 10
-1.785516
 20
-0.892433
  0
VERTEX
  8
PLAN_1
 62
     2
  6
CONTINUOUS
 10
-1.788098
 20
-0.898630
  0
VERTEX
  8
PLAN_1
 62
     2
  6
CONTINUOUS
 10
-1.789646
 20
-0.901209
  0
VERTEX
  8
PLAN_1
 62
     2
  6
CONTINUOUS
 10
-1.791197
 20
-0.903791
  0
VERTEX
  8
PLAN_1
 62
     2
  6
CONTINUOUS
 10
-1.793260
 20
-0.905858
  0
VERTEX
  8
PLAN_1
 62
     2
  6
CONTINUOUS
 10
-1.795327
 20
-0.907921
  0
VERTEX
  8
PLAN_1
 62
     2
  6
CONTINUOUS
 10
-1.798421
 20
-0.909472
  0
VERTEX
  8
PLAN_1
 62
     2
  6
CONTINUOUS
 10
-1.801004
 20
-0.910504
  0
VERTEX
  8
PLAN_1
 62
     2
  6
CONTINUOUS
 10
-1.804618
 20
-0.911020
  0
VERTEX
  8
PLAN_1
 62
     2
  6
CONTINUOUS
 10
-1.808232
 20
-0.911535
  0
SEQEND
  8
0
  0
POLYLINE
  8
PLAN_1
 62
     2
  6
CONTINUOUS
 66
     1
 40
0.003000
 41
0.003000
  0
VERTEX
  8
PLAN_1
 62
     2
  6
CONTINUOUS
 10
-1.808232
 20
-0.844421
  0
VERTEX
  8
PLAN_1
 62
     2
  6
CONTINUOUS
 10
-1.810299
 20
-0.844937
  0
VERTEX
  8
PLAN_1
 62
     2
  6
CONTINUOUS
 10
-1.811846
 20
-0.844937
  0
VERTEX
  8
PLAN_1
 62
     2
  6
CONTINUOUS
 10
-1.813913
 20
-0.845969
  0
VERTEX
  8
PLAN_1
 62
     2
  6
CONTINUOUS
 10
-1.814945
 20
-0.846484
  0
VERTEX
  8
PLAN_1
 62
     2
  6
CONTINUOUS
 10
-1.818043
 20
-0.849067
  0
VERTEX
  8
PLAN_1
 62
     2
  6
CONTINUOUS
 10
-1.820106
 20
-0.852165
  0
VERTEX
  8
PLAN_1
 62
     2
  6
CONTINUOUS
 10
-1.821657
 20
-0.856811
  0
VERTEX
  8
PLAN_1
 62
     2
  6
CONTINUOUS
 10
-1.822689
 20
-0.861457
  0
VERTEX
  8
PLAN_1
 62
     2
  6
CONTINUOUS
 10
-1.823205
 20
-0.867654
  0
VERTEX
  8
PLAN_1
 62
     2
  6
CONTINUOUS
 10
-1.823720
 20
-0.873846
  0
VERTEX
  8
PLAN_1
 62
     2
  6
CONTINUOUS
 10
-1.823205
 20
-0.880559
  0
VERTEX
  8
PLAN_1
 62
     2
  6
CONTINUOUS
 10
-1.822689
 20
-0.886240
  0
VERTEX
  8
PLAN_1
 62
     2
  6
CONTINUOUS
 10
-1.821657
 20
-0.891402
  0
VERTEX
  8
PLAN_1
 62
     2
  6
CONTINUOUS
 10
-1.820106
 20
-0.895531
  0
VERTEX
  8
PLAN_1
 62
     2
  6
CONTINUOUS
 10
-1.818043
 20
-0.898630
  0
VERTEX
  8
PLAN_1
 62
     2
  6
CONTINUOUS
 10
-1.814945
 20
-0.901209
  0
VERTEX
  8
PLAN_1
 62
     2
  6
CONTINUOUS
 10
-1.813913
 20
-0.902244
  0
VERTEX
  8
PLAN_1
 62
     2
  6
CONTINUOUS
 10
-1.811846
 20
-0.902760
  0
VERTEX
  8
PLAN_1
 62
     2
  6
CONTINUOUS
 10
-1.810299
 20
-0.903276
  0
VERTEX
  8
PLAN_1
 62
     2
  6
CONTINUOUS
 10
-1.808232
 20
-0.903276
  0
VERTEX
  8
PLAN_1
 62
     2
  6
CONTINUOUS
 10
-1.806685
 20
-0.903276
  0
VERTEX
  8
PLAN_1
 62
     2
  6
CONTINUOUS
 10
-1.804618
 20
-0.902760
  0
VERTEX
  8
PLAN_1
 62
     2
  6
CONTINUOUS
 10
-1.803071
 20
-0.902244
  0
VERTEX
  8
PLAN_1
 62
     2
  6
CONTINUOUS
 10
-1.801520
 20
-0.901209
  0
VERTEX
  8
PLAN_1
 62
     2
  6
CONTINUOUS
 10
-1.798941
 20
-0.898630
  0
VERTEX
  8
PLAN_1
 62
     2
  6
CONTINUOUS
 10
-1.796874
 20
-0.895531
  0
VERTEX
  8
PLAN_1
 62
     2
  6
CONTINUOUS
 10
-1.795327
 20
-0.891402
  0
VERTEX
  8
PLAN_1
 62
     2
  6
CONTINUOUS
 10
-1.793776
 20
-0.886240
  0
VERTEX
  8
PLAN_1
 62
     2
  6
CONTINUOUS
 10
-1.793260
 20
-0.880559
  0
VERTEX
  8
PLAN_1
 62
     2
  6
CONTINUOUS
 10
-1.793260
 20
-0.873846
  0
VERTEX
  8
PLAN_1
 62
     2
  6
CONTINUOUS
 10
-1.793260
 20
-0.867654
  0
VERTEX
  8
PLAN_1
 62
     2
  6
CONTINUOUS
 10
-1.793776
 20
-0.861457
  0
VERTEX
  8
PLAN_1
 62
     2
  6
CONTINUOUS
 10
-1.795327
 20
-0.856811
  0
VERTEX
  8
PLAN_1
 62
     2
  6
CONTINUOUS
 10
-1.796874
 20
-0.852165
  0
VERTEX
  8
PLAN_1
 62
     2
  6
CONTINUOUS
 10
-1.798941
 20
-0.849067
  0
VERTEX
  8
PLAN_1
 62
     2
  6
CONTINUOUS
 10
-1.801520
 20
-0.846484
  0
VERTEX
  8
PLAN_1
 62
     2
  6
CONTINUOUS
 10
-1.803071
 20
-0.845969
  0
VERTEX
  8
PLAN_1
 62
     2
  6
CONTINUOUS
 10
-1.804618
 20
-0.844937
  0
VERTEX
  8
PLAN_1
 62
     2
  6
CONTINUOUS
 10
-1.806685
 20
-0.844937
  0
VERTEX
  8
PLAN_1
 62
     2
  6
CONTINUOUS
 10
-1.808232
 20
-0.844421
  0
SEQEND
  8
0
  0
POLYLINE
  8
PLAN_1
 62
     2
  6
CONTINUOUS
 66
     1
 40
0.003000
 41
0.003000
  0
VERTEX
  8
PLAN_1
 62
     2
  6
CONTINUOUS
 10
-0.999732
 20
-0.754071
  0
VERTEX
  8
PLAN_1
 62
     2
  6
CONTINUOUS
 10
-0.999217
 20
-0.754071
  0
VERTEX
  8
PLAN_1
 62
     2
  6
CONTINUOUS
 10
-0.998701
 20
-0.754071
  0
VERTEX
  8
PLAN_1
 62
     2
  6
CONTINUOUS
 10
-0.998185
 20
-0.754071
  0
VERTEX
  8
PLAN_1
 62
     2
  6
CONTINUOUS
 10
-0.997154
 20
-0.754071
  0
VERTEX
  8
PLAN_1
 62
     2
  6
CONTINUOUS
 10
-0.996634
 20
-0.754071
  0
VERTEX
  8
PLAN_1
 62
     2
  6
CONTINUOUS
 10
-0.996118
 20
-0.754071
  0
VERTEX
  8
PLAN_1
 62
     2
  6
CONTINUOUS
 10
-0.995602
 20
-0.754071
  0
VERTEX
  8
PLAN_1
 62
     2
  6
CONTINUOUS
 10
-0.995087
 20
-0.754071
  0
VERTEX
  8
PLAN_1
 62
     2
  6
CONTINUOUS
 10
-0.992504
 20
-0.754071
  0
VERTEX
  8
PLAN_1
 62
     2
  6
CONTINUOUS
 10
-0.989925
 20
-0.753555
  0
VERTEX
  8
PLAN_1
 62
     2
  6
CONTINUOUS
 10
-0.987343
 20
-0.753035
  0
VERTEX
  8
PLAN_1
 62
     2
  6
CONTINUOUS
 10
-0.985276
 20
-0.751488
  0
VERTEX
  8
PLAN_1
 62
     2
  6
CONTINUOUS
 10
-0.983728
 20
-0.749941
  0
VERTEX
  8
PLAN_1
 62
     2
  6
CONTINUOUS
 10
-0.982181
 20
-0.747874
  0
VERTEX
  8
PLAN_1
 62
     2
  6
CONTINUOUS
 10
-0.981146
 20
-0.745291
  0
VERTEX
  8
PLAN_1
 62
     2
  6
CONTINUOUS
 10
-0.981146
 20
-0.742197
  0
VERTEX
  8
PLAN_1
 62
     2
  6
CONTINUOUS
 10
-0.981146
 20
-0.740646
  0
VERTEX
  8
PLAN_1
 62
     2
  6
CONTINUOUS
 10
-0.981661
 20
-0.738583
  0
VERTEX
  8
PLAN_1
 62
     2
  6
CONTINUOUS
 10
-0.982697
 20
-0.736516
  0
VERTEX
  8
PLAN_1
 62
     2
  6
CONTINUOUS
 10
-0.983728
 20
-0.734969
  0
VERTEX
  8
PLAN_1
 62
     2
  6
CONTINUOUS
 10
-0.985276
 20
-0.733417
  0
VERTEX
  8
PLAN_1
 62
     2
  6
CONTINUOUS
 10
-0.987858
 20
-0.731870
  0
VERTEX
  8
PLAN_1
 62
     2
  6
CONTINUOUS
 10
-0.990957
 20
-0.730839
  0
VERTEX
  8
PLAN_1
 62
     2
  6
CONTINUOUS
 10
-0.994571
 20
-0.730839
  0
VERTEX
  8
PLAN_1
 62
     2
  6
CONTINUOUS
 10
-0.998701
 20
-0.731354
  0
VERTEX
  8
PLAN_1
 62
     2
  6
CONTINUOUS
 10
-1.002315
 20
-0.732386
  0
VERTEX
  8
PLAN_1
 62
     2
  6
CONTINUOUS
 10
-1.004898
 20
-0.734453
  0
VERTEX
  8
PLAN_1
 62
     2
  6
CONTINUOUS
 10
-1.006445
 20
-0.736516
  0
VERTEX
  8
PLAN_1
 62
     2
  6
CONTINUOUS
 10
-1.007476
 20
-0.739098
  0
VERTEX
  8
PLAN_1
 62
     2
  6
CONTINUOUS
 10
-1.008512
 20
-0.741677
  0
VERTEX
  8
PLAN_1
 62
     2
  6
CONTINUOUS
 10
-1.008512
 20
-0.744260
  0
VERTEX
  8
PLAN_1
 62
     2
  6
CONTINUOUS
 10
-1.009028
 20
-0.746327
  0
VERTEX
  8
PLAN_1
 62
     2
  6
CONTINUOUS
 10
-1.017803
 20
-0.746327
  0
VERTEX
  8
PLAN_1
 62
     2
  6
CONTINUOUS
 10
-1.017803
 20
-0.742197
  0
VERTEX
  8
PLAN_1
 62
     2
  6
CONTINUOUS
 10
-1.016772
 20
-0.738067
  0
VERTEX
  8
PLAN_1
 62
     2
  6
CONTINUOUS
 10
-1.015220
 20
-0.733933
  0
VERTEX
  8
PLAN_1
 62
     2
  6
CONTINUOUS
 10
-1.013157
 20
-0.730323
  0
VERTEX
  8
PLAN_1
 62
     2
  6
CONTINUOUS
 10
-1.011606
 20
-0.728772
  0
VERTEX
  8
PLAN_1
 62
     2
  6
CONTINUOUS
 10
-1.010059
 20
-0.727224
  0
VERTEX
  8
PLAN_1
 62
     2
  6
CONTINUOUS
 10
-1.007992
 20
-0.725673
  0
VERTEX
  8
PLAN_1
 62
     2
  6
CONTINUOUS
 10
-1.005929
 20
-0.724642
  0
VERTEX
  8
PLAN_1
 62
     2
  6
CONTINUOUS
 10
-1.003346
 20
-0.723610
  0
VERTEX
  8
PLAN_1
 62
     2
  6
CONTINUOUS
 10
-1.000768
 20
-0.723094
  0
VERTEX
  8
PLAN_1
 62
     2
  6
CONTINUOUS
 10
-0.997669
 20
-0.722575
  0
VERTEX
  8
PLAN_1
 62
     2
  6
CONTINUOUS
 10
-0.994055
 20
-0.722575
  0
VERTEX
  8
PLAN_1
 62
     2
  6
CONTINUOUS
 10
-0.988890
 20
-0.723094
  0
VERTEX
  8
PLAN_1
 62
     2
  6
CONTINUOUS
 10
-0.984760
 20
-0.724126
  0
VERTEX
  8
PLAN_1
 62
     2
  6
CONTINUOUS
 10
-0.980630
 20
-0.725673
  0
VERTEX
  8
PLAN_1
 62
     2
  6
CONTINUOUS
 10
-0.977531
 20
-0.727740
  0
VERTEX
  8
PLAN_1
 62
     2
  6
CONTINUOUS
 10
-0.974953
 20
-0.730839
  0
VERTEX
  8
PLAN_1
 62
     2
  6
CONTINUOUS
 10
-0.972886
 20
-0.733933
  0
VERTEX
  8
PLAN_1
 62
     2
  6
CONTINUOUS
 10
-0.971854
 20
-0.737547
  0
VERTEX
  8
PLAN_1
 62
     2
  6
CONTINUOUS
 10
-0.971339
 20
-0.741677
  0
VERTEX
  8
PLAN_1
 62
     2
  6
CONTINUOUS
 10
-0.971854
 20
-0.745291
  0
VERTEX
  8
PLAN_1
 62
     2
  6
CONTINUOUS
 10
-0.972370
 20
-0.747874
  0
VERTEX
  8
PLAN_1
 62
     2
  6
CONTINUOUS
 10
-0.973402
 20
-0.750457
  0
VERTEX
  8
PLAN_1
 62
     2
  6
CONTINUOUS
 10
-0.974953
 20
-0.752520
  0
VERTEX
  8
PLAN_1
 62
     2
  6
CONTINUOUS
 10
-0.976500
 20
-0.754071
  0
VERTEX
  8
PLAN_1
 62
     2
  6
CONTINUOUS
 10
-0.978051
 20
-0.755102
  0
VERTEX
  8
PLAN_1
 62
     2
  6
CONTINUOUS
 10
-0.979598
 20
-0.756134
  0
VERTEX
  8
PLAN_1
 62
     2
  6
CONTINUOUS
 10
-0.981146
 20
-0.756650
  0
VERTEX
  8
PLAN_1
 62
     2
  6
CONTINUOUS
 10
-0.981146
 20
-0.757169
  0
VERTEX
  8
PLAN_1
 62
     2
  6
CONTINUOUS
 10
-0.978567
 20
-0.758201
  0
VERTEX
  8
PLAN_1
 62
     2
  6
CONTINUOUS
 10
-0.975984
 20
-0.759232
  0
VERTEX
  8
PLAN_1
 62
     2
  6
CONTINUOUS
 10
-0.973917
 20
-0.760783
  0
VERTEX
  8
PLAN_1
 62
     2
  6
CONTINUOUS
 10
-0.972370
 20
-0.762846
  0
VERTEX
  8
PLAN_1
 62
     2
  6
CONTINUOUS
 10
-0.970823
 20
-0.764913
  0
VERTEX
  8
PLAN_1
 62
     2
  6
CONTINUOUS
 10
-0.969787
 20
-0.767492
  0
VERTEX
  8
PLAN_1
 62
     2
  6
CONTINUOUS
 10
-0.968756
 20
-0.770591
  0
VERTEX
  8
PLAN_1
 62
     2
  6
CONTINUOUS
 10
-0.968756
 20
-0.774205
  0
VERTEX
  8
PLAN_1
 62
     2
  6
CONTINUOUS
 10
-0.969272
 20
-0.778335
  0
VERTEX
  8
PLAN_1
 62
     2
  6
CONTINUOUS
 10
-0.970303
 20
-0.782980
  0
VERTEX
  8
PLAN_1
 62
     2
  6
CONTINUOUS
 10
-0.972370
 20
-0.786594
  0
VERTEX
  8
PLAN_1
 62
     2
  6
CONTINUOUS
 10
-0.974953
 20
-0.790209
  0
VERTEX
  8
PLAN_1
 62
     2
  6
CONTINUOUS
 10
-0.976500
 20
-0.791760
  0
VERTEX
  8
PLAN_1
 62
     2
  6
CONTINUOUS
 10
-0.978567
 20
-0.793307
  0
VERTEX
  8
PLAN_1
 62
     2
  6
CONTINUOUS
 10
-0.980630
 20
-0.794339
  0
VERTEX
  8
PLAN_1
 62
     2
  6
CONTINUOUS
 10
-0.983213
 20
-0.795890
  0
VERTEX
  8
PLAN_1
 62
     2
  6
CONTINUOUS
 10
-0.985795
 20
-0.796406
  0
VERTEX
  8
PLAN_1
 62
     2
  6
CONTINUOUS
 10
-0.988374
 20
-0.796921
  0
VERTEX
  8
PLAN_1
 62
     2
  6
CONTINUOUS
 10
-0.991988
 20
-0.797437
  0
VERTEX
  8
PLAN_1
 62
     2
  6
CONTINUOUS
 10
-0.995087
 20
-0.797437
  0
VERTEX
  8
PLAN_1
 62
     2
  6
CONTINUOUS
 10
-0.997154
 20
-0.797437
  0
VERTEX
  8
PLAN_1
 62
     2
  6
CONTINUOUS
 10
-0.999217
 20
-0.797437
  0
VERTEX
  8
PLAN_1
 62
     2
  6
CONTINUOUS
 10
-1.000768
 20
-0.796921
  0
VERTEX
  8
PLAN_1
 62
     2
  6
CONTINUOUS
 10
-1.002315
 20
-0.796921
  0
VERTEX
  8
PLAN_1
 62
     2
  6
CONTINUOUS
 10
-1.004378
 20
-0.796406
  0
VERTEX
  8
PLAN_1
 62
     2
  6
CONTINUOUS
 10
-1.005929
 20
-0.795890
  0
VERTEX
  8
PLAN_1
 62
     2
  6
CONTINUOUS
 10
-1.007476
 20
-0.794854
  0
VERTEX
  8
PLAN_1
 62
     2
  6
CONTINUOUS
 10
-1.008512
 20
-0.794339
  0
VERTEX
  8
PLAN_1
 62
     2
  6
CONTINUOUS
 10
-1.011606
 20
-0.792791
  0
VERTEX
  8
PLAN_1
 62
     2
  6
CONTINUOUS
 10
-1.013673
 20
-0.790724
  0
VERTEX
  8
PLAN_1
 62
     2
  6
CONTINUOUS
 10
-1.015220
 20
-0.788146
  0
VERTEX
  8
PLAN_1
 62
     2
  6
CONTINUOUS
 10
-1.016772
 20
-0.785563
  0
VERTEX
  8
PLAN_1
 62
     2
  6
CONTINUOUS
 10
-1.017803
 20
-0.782465
  0
VERTEX
  8
PLAN_1
 62
     2
  6
CONTINUOUS
 10
-1.018835
 20
-0.779366
  0
VERTEX
  8
PLAN_1
 62
     2
  6
CONTINUOUS
 10
-1.019350
 20
-0.776272
  0
VERTEX
  8
PLAN_1
 62
     2
  6
CONTINUOUS
 10
-1.019350
 20
-0.773173
  0
VERTEX
  8
PLAN_1
 62
     2
  6
CONTINUOUS
 10
-1.010059
 20
-0.773173
  0
VERTEX
  8
PLAN_1
 62
     2
  6
CONTINUOUS
 10
-1.010059
 20
-0.775752
  0
VERTEX
  8
PLAN_1
 62
     2
  6
CONTINUOUS
 10
-1.009543
 20
-0.778850
  0
VERTEX
  8
PLAN_1
 62
     2
  6
CONTINUOUS
 10
-1.008512
 20
-0.781433
  0
VERTEX
  8
PLAN_1
 62
     2
  6
CONTINUOUS
 10
-1.007476
 20
-0.784016
  0
VERTEX
  8
PLAN_1
 62
     2
  6
CONTINUOUS
 10
-1.005413
 20
-0.786079
  0
VERTEX
  8
PLAN_1
 62
     2
  6
CONTINUOUS
 10
-1.002831
 20
-0.787630
  0
VERTEX
  8
PLAN_1
 62
     2
  6
CONTINUOUS
 10
-0.999217
 20
-0.789177
  0
VERTEX
  8
PLAN_1
 62
     2
  6
CONTINUOUS
 10
-0.994571
 20
-0.789177
  0
VERTEX
  8
PLAN_1
 62
     2
  6
CONTINUOUS
 10
-0.990957
 20
-0.789177
  0
VERTEX
  8
PLAN_1
 62
     2
  6
CONTINUOUS
 10
-0.987858
 20
-0.788146
  0
VERTEX
  8
PLAN_1
 62
     2
  6
CONTINUOUS
 10
-0.985276
 20
-0.787110
  0
VERTEX
  8
PLAN_1
 62
     2
  6
CONTINUOUS
 10
-0.983213
 20
-0.785563
  0
VERTEX
  8
PLAN_1
 62
     2
  6
CONTINUOUS
 10
-0.981146
 20
-0.783500
  0
VERTEX
  8
PLAN_1
 62
     2
  6
CONTINUOUS
 10
-0.979598
 20
-0.780917
  0
VERTEX
  8
PLAN_1
 62
     2
  6
CONTINUOUS
 10
-0.979083
 20
-0.778335
  0
VERTEX
  8
PLAN_1
 62
     2
  6
CONTINUOUS
 10
-0.978567
 20
-0.775236
  0
VERTEX
  8
PLAN_1
 62
     2
  6
CONTINUOUS
 10
-0.979083
 20
-0.771106
  0
VERTEX
  8
PLAN_1
 62
     2
  6
CONTINUOUS
 10
-0.980114
 20
-0.768008
  0
VERTEX
  8
PLAN_1
 62
     2
  6
CONTINUOUS
 10
-0.982181
 20
-0.765429
  0
VERTEX
  8
PLAN_1
 62
     2
  6
CONTINUOUS
 10
-0.984760
 20
-0.763878
  0
VERTEX
  8
PLAN_1
 62
     2
  6
CONTINUOUS
 10
-0.987343
 20
-0.762846
  0
VERTEX
  8
PLAN_1
 62
     2
  6
CONTINUOUS
 10
-0.990441
 20
-0.762331
  0
VERTEX
  8
PLAN_1
 62
     2
  6
CONTINUOUS
 10
-0.993020
 20
-0.761815
  0
VERTEX
  8
PLAN_1
 62
     2
  6
CONTINUOUS
 10
-0.995602
 20
-0.761815
  0
VERTEX
  8
PLAN_1
 62
     2
  6
CONTINUOUS
 10
-0.996118
 20
-0.761815
  0
VERTEX
  8
PLAN_1
 62
     2
  6
CONTINUOUS
 10
-0.996634
 20
-0.761815
  0
VERTEX
  8
PLAN_1
 62
     2
  6
CONTINUOUS
 10
-0.997154
 20
-0.761815
  0
VERTEX
  8
PLAN_1
 62
     2
  6
CONTINUOUS
 10
-0.997669
 20
-0.761815
  0
VERTEX
  8
PLAN_1
 62
     2
  6
CONTINUOUS
 10
-0.998185
 20
-0.761815
  0
VERTEX
  8
PLAN_1
 62
     2
  6
CONTINUOUS
 10
-0.998701
 20
-0.761815
  0
VERTEX
  8
PLAN_1
 62
     2
  6
CONTINUOUS
 10
-0.999217
 20
-0.761815
  0
VERTEX
  8
PLAN_1
 62
     2
  6
CONTINUOUS
 10
-0.999732
 20
-0.761815
  0
VERTEX
  8
PLAN_1
 62
     2
  6
CONTINUOUS
 10
-0.999732
 20
-0.754071
  0
SEQEND
  8
0
  0
POLYLINE
  8
PLAN_1
 62
     2
  6
CONTINUOUS
 66
     1
 40
0.003000
 41
0.003000
  0
VERTEX
  8
PLAN_1
 62
     2
  6
CONTINUOUS
 10
-0.918161
 20
-0.748906
  0
VERTEX
  8
PLAN_1
 62
     2
  6
CONTINUOUS
 10
-0.918161
 20
-0.784016
  0
VERTEX
  8
PLAN_1
 62
     2
  6
CONTINUOUS
 10
-0.918161
 20
-0.785563
  0
VERTEX
  8
PLAN_1
 62
     2
  6
CONTINUOUS
 10
-0.917646
 20
-0.786594
  0
VERTEX
  8
PLAN_1
 62
     2
  6
CONTINUOUS
 10
-0.917126
 20
-0.787630
  0
VERTEX
  8
PLAN_1
 62
     2
  6
CONTINUOUS
 10
-0.916094
 20
-0.788146
  0
VERTEX
  8
PLAN_1
 62
     2
  6
CONTINUOUS
 10
-0.915063
 20
-0.788146
  0
VERTEX
  8
PLAN_1
 62
     2
  6
CONTINUOUS
 10
-0.914547
 20
-0.788146
  0
VERTEX
  8
PLAN_1
 62
     2
  6
CONTINUOUS
 10
-0.913516
 20
-0.788661
  0
VERTEX
  8
PLAN_1
 62
     2
  6
CONTINUOUS
 10
-0.912480
 20
-0.788661
  0
VERTEX
  8
PLAN_1
 62
     2
  6
CONTINUOUS
 10
-0.909382
 20
-0.788661
  0
VERTEX
  8
PLAN_1
 62
     2
  6
CONTINUOUS
 10
-0.909382
 20
-0.795890
  0
VERTEX
  8
PLAN_1
 62
     2
  6
CONTINUOUS
 10
-0.910933
 20
-0.795890
  0
VERTEX
  8
PLAN_1
 62
     2
  6
CONTINUOUS
 10
-0.911965
 20
-0.795890
  0
VERTEX
  8
PLAN_1
 62
     2
  6
CONTINUOUS
 10
-0.912996
 20
-0.795890
  0
VERTEX
  8
PLAN_1
 62
     2
  6
CONTINUOUS
 10
-0.914031
 20
-0.795890
  0
VERTEX
  8
PLAN_1
 62
     2
  6
CONTINUOUS
 10
-0.914547
 20
-0.796406
  0
VERTEX
  8
PLAN_1
 62
     2
  6
CONTINUOUS
 10
-0.915579
 20
-0.796406
  0
VERTEX
  8
PLAN_1
 62
     2
  6
CONTINUOUS
 10
-0.916094
 20
-0.796406
  0
VERTEX
  8
PLAN_1
 62
     2
  6
CONTINUOUS
 10
-0.916610
 20
-0.796406
  0
VERTEX
  8
PLAN_1
 62
     2
  6
CONTINUOUS
 10
-0.919709
 20
-0.795890
  0
VERTEX
  8
PLAN_1
 62
     2
  6
CONTINUOUS
 10
-0.921776
 20
-0.795374
  0
VERTEX
  8
PLAN_1
 62
     2
  6
CONTINUOUS
 10
-0.923839
 20
-0.794339
  0
VERTEX
  8
PLAN_1
 62
     2
  6
CONTINUOUS
 10
-0.925390
 20
-0.792791
  0
VERTEX
  8
PLAN_1
 62
     2
  6
CONTINUOUS
 10
-0.926421
 20
-0.791244
  0
VERTEX
  8
PLAN_1
 62
     2
  6
CONTINUOUS
 10
-0.926937
 20
-0.789177
  0
VERTEX
  8
PLAN_1
 62
     2
  6
CONTINUOUS
 10
-0.927453
 20
-0.787110
  0
VERTEX
  8
PLAN_1
 62
     2
  6
CONTINUOUS
 10
-0.927453
 20
-0.784531
  0
VERTEX
  8
PLAN_1
 62
     2
  6
CONTINUOUS
 10
-0.927453
 20
-0.748906
  0
VERTEX
  8
PLAN_1
 62
     2
  6
CONTINUOUS
 10
-0.934681
 20
-0.748906
  0
VERTEX
  8
PLAN_1
 62
     2
  6
CONTINUOUS
 10
-0.934681
 20
-0.741161
  0
VERTEX
  8
PLAN_1
 62
     2
  6
CONTINUOUS
 10
-0.927453
 20
-0.741161
  0
VERTEX
  8
PLAN_1
 62
     2
  6
CONTINUOUS
 10
-0.927453
 20
-0.726189
  0
VERTEX
  8
PLAN_1
 62
     2
  6
CONTINUOUS
 10
-0.918161
 20
-0.726189
  0
VERTEX
  8
PLAN_1
 62
     2
  6
CONTINUOUS
 10
-0.918161
 20
-0.741161
  0
VERTEX
  8
PLAN_1
 62
     2
  6
CONTINUOUS
 10
-0.909382
 20
-0.741161
  0
VERTEX
  8
PLAN_1
 62
     2
  6
CONTINUOUS
 10
-0.909382
 20
-0.748906
  0
VERTEX
  8
PLAN_1
 62
     2
  6
CONTINUOUS
 10
-0.918161
 20
-0.748906
  0
SEQEND
  8
0
  0
POLYLINE
  8
PLAN_1
 62
     2
  6
CONTINUOUS
 66
     1
 40
0.003000
 41
0.003000
  0
VERTEX
  8
PLAN_1
 62
     2
  6
CONTINUOUS
 10
-0.890280
 20
-0.795890
  0
VERTEX
  8
PLAN_1
 62
     2
  6
CONTINUOUS
 10
-0.899059
 20
-0.795890
  0
VERTEX
  8
PLAN_1
 62
     2
  6
CONTINUOUS
 10
-0.899059
 20
-0.741161
  0
VERTEX
  8
PLAN_1
 62
     2
  6
CONTINUOUS
 10
-0.890799
 20
-0.741161
  0
VERTEX
  8
PLAN_1
 62
     2
  6
CONTINUOUS
 10
-0.890799
 20
-0.750457
  0
VERTEX
  8
PLAN_1
 62
     2
  6
CONTINUOUS
 10
-0.890280
 20
-0.750457
  0
VERTEX
  8
PLAN_1
 62
     2
  6
CONTINUOUS
 10
-0.889248
 20
-0.747874
  0
VERTEX
  8
PLAN_1
 62
     2
  6
CONTINUOUS
 10
-0.887701
 20
-0.745811
  0
VERTEX
  8
PLAN_1
 62
     2
  6
CONTINUOUS
 10
-0.885634
 20
-0.744260
  0
VERTEX
  8
PLAN_1
 62
     2
  6
CONTINUOUS
 10
-0.884087
 20
-0.742713
  0
VERTEX
  8
PLAN_1
 62
     2
  6
CONTINUOUS
 10
-0.882020
 20
-0.741161
  0
VERTEX
  8
PLAN_1
 62
     2
  6
CONTINUOUS
 10
-0.879957
 20
-0.740646
  0
VERTEX
  8
PLAN_1
 62
     2
  6
CONTINUOUS
 10
-0.877890
 20
-0.739614
  0
VERTEX
  8
PLAN_1
 62
     2
  6
CONTINUOUS
 10
-0.875307
 20
-0.739614
  0
VERTEX
  8
PLAN_1
 62
     2
  6
CONTINUOUS
 10
-0.874791
 20
-0.739614
  0
VERTEX
  8
PLAN_1
 62
     2
  6
CONTINUOUS
 10
-0.874276
 20
-0.739614
  0
VERTEX
  8
PLAN_1
 62
     2
  6
CONTINUOUS
 10
-0.873760
 20
-0.739614
  0
VERTEX
  8
PLAN_1
 62
     2
  6
CONTINUOUS
 10
-0.873244
 20
-0.739614
  0
VERTEX
  8
PLAN_1
 62
     2
  6
CONTINUOUS
 10
-0.873244
 20
-0.740130
  0
VERTEX
  8
PLAN_1
 62
     2
  6
CONTINUOUS
 10
-0.872728
 20
-0.740130
  0
VERTEX
  8
PLAN_1
 62
     2
  6
CONTINUOUS
 10
-0.872728
 20
-0.749425
  0
VERTEX
  8
PLAN_1
 62
     2
  6
CONTINUOUS
 10
-0.876343
 20
-0.749425
  0
VERTEX
  8
PLAN_1
 62
     2
  6
CONTINUOUS
 10
-0.879441
 20
-0.749941
  0
VERTEX
  8
PLAN_1
 62
     2
  6
CONTINUOUS
 10
-0.882020
 20
-0.750457
  0
VERTEX
  8
PLAN_1
 62
     2
  6
CONTINUOUS
 10
-0.884602
 20
-0.752004
  0
VERTEX
  8
PLAN_1
 62
     2
  6
CONTINUOUS
 10
-0.886150
 20
-0.753555
  0
VERTEX
  8
PLAN_1
 62
     2
  6
CONTINUOUS
 10
-0.888217
 20
-0.756134
  0
VERTEX
  8
PLAN_1
 62
     2
  6
CONTINUOUS
 10
-0.889248
 20
-0.758201
  0
VERTEX
  8
PLAN_1
 62
     2
  6
CONTINUOUS
 10
-0.889764
 20
-0.761299
  0
VERTEX
  8
PLAN_1
 62
     2
  6
CONTINUOUS
 10
-0.890280
 20
-0.763878
  0
VERTEX
  8
PLAN_1
 62
     2
  6
CONTINUOUS
 10
-0.890280
 20
-0.795890
  0
SEQEND
  8
0
  0
POLYLINE
  8
PLAN_1
 62
     2
  6
CONTINUOUS
 66
     1
 40
0.003000
 41
0.003000
  0
VERTEX
  8
PLAN_1
 62
     2
  6
CONTINUOUS
 10
-0.843815
 20
-0.739614
  0
VERTEX
  8
PLAN_1
 62
     2
  6
CONTINUOUS
 10
-0.840717
 20
-0.739614
  0
VERTEX
  8
PLAN_1
 62
     2
  6
CONTINUOUS
 10
-0.837622
 20
-0.740130
  0
VERTEX
  8
PLAN_1
 62
     2
  6
CONTINUOUS
 10
-0.835039
 20
-0.741161
  0
VERTEX
  8
PLAN_1
 62
     2
  6
CONTINUOUS
 10
-0.832457
 20
-0.742197
  0
VERTEX
  8
PLAN_1
 62
     2
  6
CONTINUOUS
 10
-0.830394
 20
-0.743744
  0
VERTEX
  8
PLAN_1
 62
     2
  6
CONTINUOUS
 10
-0.828327
 20
-0.745291
  0
VERTEX
  8
PLAN_1
 62
     2
  6
CONTINUOUS
 10
-0.826264
 20
-0.746843
  0
VERTEX
  8
PLAN_1
 62
     2
  6
CONTINUOUS
 10
-0.824713
 20
-0.748906
  0
VERTEX
  8
PLAN_1
 62
     2
  6
CONTINUOUS
 10
-0.822130
 20
-0.753035
  0
VERTEX
  8
PLAN_1
 62
     2
  6
CONTINUOUS
 10
-0.820067
 20
-0.758201
  0
VERTEX
  8
PLAN_1
 62
     2
  6
CONTINUOUS
 10
-0.819035
 20
-0.763362
  0
VERTEX
  8
PLAN_1
 62
     2
  6
CONTINUOUS
 10
-0.818520
 20
-0.768528
  0
VERTEX
  8
PLAN_1
 62
     2
  6
CONTINUOUS
 10
-0.819035
 20
-0.773689
  0
VERTEX
  8
PLAN_1
 62
     2
  6
CONTINUOUS
 10
-0.820067
 20
-0.778850
  0
VERTEX
  8
PLAN_1
 62
     2
  6
CONTINUOUS
 10
-0.822130
 20
-0.783500
  0
VERTEX
  8
PLAN_1
 62
     2
  6
CONTINUOUS
 10
-0.824713
 20
-0.788146
  0
VERTEX
  8
PLAN_1
 62
     2
  6
CONTINUOUS
 10
-0.826264
 20
-0.790209
  0
VERTEX
  8
PLAN_1
 62
     2
  6
CONTINUOUS
 10
-0.828327
 20
-0.791760
  0
VERTEX
  8
PLAN_1
 62
     2
  6
CONTINUOUS
 10
-0.830394
 20
-0.793307
  0
VERTEX
  8
PLAN_1
 62
     2
  6
CONTINUOUS
 10
-0.832457
 20
-0.794339
  0
VERTEX
  8
PLAN_1
 62
     2
  6
CONTINUOUS
 10
-0.835039
 20
-0.795890
  0
VERTEX
  8
PLAN_1
 62
     2
  6
CONTINUOUS
 10
-0.837622
 20
-0.796406
  0
VERTEX
  8
PLAN_1
 62
     2
  6
CONTINUOUS
 10
-0.840717
 20
-0.796921
  0
VERTEX
  8
PLAN_1
 62
     2
  6
CONTINUOUS
 10
-0.843815
 20
-0.796921
  0
VERTEX
  8
PLAN_1
 62
     2
  6
CONTINUOUS
 10
-0.846913
 20
-0.796921
  0
VERTEX
  8
PLAN_1
 62
     2
  6
CONTINUOUS
 10
-0.850012
 20
-0.796406
  0
VERTEX
  8
PLAN_1
 62
     2
  6
CONTINUOUS
 10
-0.852594
 20
-0.795890
  0
VERTEX
  8
PLAN_1
 62
     2
  6
CONTINUOUS
 10
-0.855173
 20
-0.794339
  0
VERTEX
  8
PLAN_1
 62
     2
  6
CONTINUOUS
 10
-0.857240
 20
-0.793307
  0
VERTEX
  8
PLAN_1
 62
     2
  6
CONTINUOUS
 10
-0.859303
 20
-0.791760
  0
VERTEX
  8
PLAN_1
 62
     2
  6
CONTINUOUS
 10
-0.861370
 20
-0.790209
  0
VERTEX
  8
PLAN_1
 62
     2
  6
CONTINUOUS
 10
-0.862917
 20
-0.788146
  0
VERTEX
  8
PLAN_1
 62
     2
  6
CONTINUOUS
 10
-0.865500
 20
-0.783500
  0
VERTEX
  8
PLAN_1
 62
     2
  6
CONTINUOUS
 10
-0.867563
 20
-0.778850
  0
VERTEX
  8
PLAN_1
 62
     2
  6
CONTINUOUS
 10
-0.868598
 20
-0.773689
  0
VERTEX
  8
PLAN_1
 62
     2
  6
CONTINUOUS
 10
-0.869114
 20
-0.768528
  0
VERTEX
  8
PLAN_1
 62
     2
  6
CONTINUOUS
 10
-0.868598
 20
-0.763362
  0
VERTEX
  8
PLAN_1
 62
     2
  6
CONTINUOUS
 10
-0.867563
 20
-0.758201
  0
VERTEX
  8
PLAN_1
 62
     2
  6
CONTINUOUS
 10
-0.865500
 20
-0.753035
  0
VERTEX
  8
PLAN_1
 62
     2
  6
CONTINUOUS
 10
-0.862917
 20
-0.748906
  0
VERTEX
  8
PLAN_1
 62
     2
  6
CONTINUOUS
 10
-0.861370
 20
-0.746843
  0
VERTEX
  8
PLAN_1
 62
     2
  6
CONTINUOUS
 10
-0.859303
 20
-0.745291
  0
VERTEX
  8
PLAN_1
 62
     2
  6
CONTINUOUS
 10
-0.857240
 20
-0.743744
  0
VERTEX
  8
PLAN_1
 62
     2
  6
CONTINUOUS
 10
-0.855173
 20
-0.742197
  0
VERTEX
  8
PLAN_1
 62
     2
  6
CONTINUOUS
 10
-0.852594
 20
-0.741161
  0
VERTEX
  8
PLAN_1
 62
     2
  6
CONTINUOUS
 10
-0.850012
 20
-0.740130
  0
VERTEX
  8
PLAN_1
 62
     2
  6
CONTINUOUS
 10
-0.846913
 20
-0.739614
  0
VERTEX
  8
PLAN_1
 62
     2
  6
CONTINUOUS
 10
-0.843815
 20
-0.739614
  0
SEQEND
  8
0
  0
POLYLINE
  8
PLAN_1
 62
     2
  6
CONTINUOUS
 66
     1
 40
0.003000
 41
0.003000
  0
VERTEX
  8
PLAN_1
 62
     2
  6
CONTINUOUS
 10
-0.843815
 20
-0.789177
  0
VERTEX
  8
PLAN_1
 62
     2
  6
CONTINUOUS
 10
-0.841236
 20
-0.789177
  0
VERTEX
  8
PLAN_1
 62
     2
  6
CONTINUOUS
 10
-0.839169
 20
-0.788661
  0
VERTEX
  8
PLAN_1
 62
     2
  6
CONTINUOUS
 10
-0.837622
 20
-0.788146
  0
VERTEX
  8
PLAN_1
 62
     2
  6
CONTINUOUS
 10
-0.835555
 20
-0.787110
  0
VERTEX
  8
PLAN_1
 62
     2
  6
CONTINUOUS
 10
-0.832972
 20
-0.784531
  0
VERTEX
  8
PLAN_1
 62
     2
  6
CONTINUOUS
 10
-0.830909
 20
-0.781433
  0
VERTEX
  8
PLAN_1
 62
     2
  6
CONTINUOUS
 10
-0.829358
 20
-0.778335
  0
VERTEX
  8
PLAN_1
 62
     2
  6
CONTINUOUS
 10
-0.828327
 20
-0.774720
  0
VERTEX
  8
PLAN_1
 62
     2
  6
CONTINUOUS
 10
-0.828327
 20
-0.771622
  0
VERTEX
  8
PLAN_1
 62
     2
  6
CONTINUOUS
 10
-0.827811
 20
-0.768528
  0
VERTEX
  8
PLAN_1
 62
     2
  6
CONTINUOUS
 10
-0.828327
 20
-0.765429
  0
VERTEX
  8
PLAN_1
 62
     2
  6
CONTINUOUS
 10
-0.828327
 20
-0.761815
  0
VERTEX
  8
PLAN_1
 62
     2
  6
CONTINUOUS
 10
-0.829358
 20
-0.758717
  0
VERTEX
  8
PLAN_1
 62
     2
  6
CONTINUOUS
 10
-0.830909
 20
-0.755102
  0
VERTEX
  8
PLAN_1
 62
     2
  6
CONTINUOUS
 10
-0.832972
 20
-0.752004
  0
VERTEX
  8
PLAN_1
 62
     2
  6
CONTINUOUS
 10
-0.835555
 20
-0.749941
  0
VERTEX
  8
PLAN_1
 62
     2
  6
CONTINUOUS
 10
-0.837622
 20
-0.748906
  0
VERTEX
  8
PLAN_1
 62
     2
  6
CONTINUOUS
 10
-0.839169
 20
-0.748390
  0
VERTEX
  8
PLAN_1
 62
     2
  6
CONTINUOUS
 10
-0.841236
 20
-0.747874
  0
VERTEX
  8
PLAN_1
 62
     2
  6
CONTINUOUS
 10
-0.843815
 20
-0.747358
  0
VERTEX
  8
PLAN_1
 62
     2
  6
CONTINUOUS
 10
-0.845882
 20
-0.747874
  0
VERTEX
  8
PLAN_1
 62
     2
  6
CONTINUOUS
 10
-0.847945
 20
-0.748390
  0
VERTEX
  8
PLAN_1
 62
     2
  6
CONTINUOUS
 10
-0.850012
 20
-0.748906
  0
VERTEX
  8
PLAN_1
 62
     2
  6
CONTINUOUS
 10
-0.851559
 20
-0.749941
  0
VERTEX
  8
PLAN_1
 62
     2
  6
CONTINUOUS
 10
-0.854657
 20
-0.752004
  0
VERTEX
  8
PLAN_1
 62
     2
  6
CONTINUOUS
 10
-0.856724
 20
-0.755102
  0
VERTEX
  8
PLAN_1
 62
     2
  6
CONTINUOUS
 10
-0.857756
 20
-0.758717
  0
VERTEX
  8
PLAN_1
 62
     2
  6
CONTINUOUS
 10
-0.858787
 20
-0.761815
  0
VERTEX
  8
PLAN_1
 62
     2
  6
CONTINUOUS
 10
-0.859303
 20
-0.765429
  0
VERTEX
  8
PLAN_1
 62
     2
  6
CONTINUOUS
 10
-0.859303
 20
-0.768528
  0
VERTEX
  8
PLAN_1
 62
     2
  6
CONTINUOUS
 10
-0.859303
 20
-0.771622
  0
VERTEX
  8
PLAN_1
 62
     2
  6
CONTINUOUS
 10
-0.858787
 20
-0.774720
  0
VERTEX
  8
PLAN_1
 62
     2
  6
CONTINUOUS
 10
-0.857756
 20
-0.778335
  0
VERTEX
  8
PLAN_1
 62
     2
  6
CONTINUOUS
 10
-0.856724
 20
-0.781433
  0
VERTEX
  8
PLAN_1
 62
     2
  6
CONTINUOUS
 10
-0.854657
 20
-0.784531
  0
VERTEX
  8
PLAN_1
 62
     2
  6
CONTINUOUS
 10
-0.851559
 20
-0.787110
  0
VERTEX
  8
PLAN_1
 62
     2
  6
CONTINUOUS
 10
-0.850012
 20
-0.788146
  0
VERTEX
  8
PLAN_1
 62
     2
  6
CONTINUOUS
 10
-0.847945
 20
-0.788661
  0
VERTEX
  8
PLAN_1
 62
     2
  6
CONTINUOUS
 10
-0.845882
 20
-0.789177
  0
VERTEX
  8
PLAN_1
 62
     2
  6
CONTINUOUS
 10
-0.843815
 20
-0.789177
  0
SEQEND
  8
0
  0
POLYLINE
  8
PLAN_1
 62
     2
  6
CONTINUOUS
 66
     1
 40
0.003000
 41
0.003000
  0
VERTEX
  8
PLAN_1
 62
     2
  6
CONTINUOUS
 10
-0.772567
 20
-0.795890
  0
VERTEX
  8
PLAN_1
 62
     2
  6
CONTINUOUS
 10
-0.772567
 20
-0.787630
  0
VERTEX
  8
PLAN_1
 62
     2
  6
CONTINUOUS
 10
-0.774118
 20
-0.789693
  0
VERTEX
  8
PLAN_1
 62
     2
  6
CONTINUOUS
 10
-0.775665
 20
-0.791760
  0
VERTEX
  8
PLAN_1
 62
     2
  6
CONTINUOUS
 10
-0.777732
 20
-0.793307
  0
VERTEX
  8
PLAN_1
 62
     2
  6
CONTINUOUS
 10
-0.779280
 20
-0.794854
  0
VERTEX
  8
PLAN_1
 62
     2
  6
CONTINUOUS
 10
-0.781862
 20
-0.795890
  0
VERTEX
  8
PLAN_1
 62
     2
  6
CONTINUOUS
 10
-0.783925
 20
-0.796406
  0
VERTEX
  8
PLAN_1
 62
     2
  6
CONTINUOUS
 10
-0.787024
 20
-0.796921
  0
VERTEX
  8
PLAN_1
 62
     2
  6
CONTINUOUS
 10
-0.790122
 20
-0.797437
  0
VERTEX
  8
PLAN_1
 62
     2
  6
CONTINUOUS
 10
-0.793220
 20
-0.796921
  0
VERTEX
  8
PLAN_1
 62
     2
  6
CONTINUOUS
 10
-0.796319
 20
-0.796406
  0
VERTEX
  8
PLAN_1
 62
     2
  6
CONTINUOUS
 10
-0.798898
 20
-0.795374
  0
VERTEX
  8
PLAN_1
 62
     2
  6
CONTINUOUS
 10
-0.801996
 20
-0.793823
  0
VERTEX
  8
PLAN_1
 62
     2
  6
CONTINUOUS
 10
-0.804063
 20
-0.791244
  0
VERTEX
  8
PLAN_1
 62
     2
  6
CONTINUOUS
 10
-0.806126
 20
-0.788661
  0
VERTEX
  8
PLAN_1
 62
     2
  6
CONTINUOUS
 10
-0.807161
 20
-0.785047
  0
VERTEX
  8
PLAN_1
 62
     2
  6
CONTINUOUS
 10
-0.807677
 20
-0.780402
  0
VERTEX
  8
PLAN_1
 62
     2
  6
CONTINUOUS
 10
-0.807677
 20
-0.741161
  0
VERTEX
  8
PLAN_1
 62
     2
  6
CONTINUOUS
 10
-0.798382
 20
-0.741161
  0
VERTEX
  8
PLAN_1
 62
     2
  6
CONTINUOUS
 10
-0.798382
 20
-0.777303
  0
VERTEX
  8
PLAN_1
 62
     2
  6
CONTINUOUS
 10
-0.798382
 20
-0.780402
  0
VERTEX
  8
PLAN_1
 62
     2
  6
CONTINUOUS
 10
-0.797866
 20
-0.782980
  0
VERTEX
  8
PLAN_1
 62
     2
  6
CONTINUOUS
 10
-0.796835
 20
-0.785047
  0
VERTEX
  8
PLAN_1
 62
     2
  6
CONTINUOUS
 10
-0.795283
 20
-0.786594
  0
VERTEX
  8
PLAN_1
 62
     2
  6
CONTINUOUS
 10
-0.793736
 20
-0.787630
  0
VERTEX
  8
PLAN_1
 62
     2
  6
CONTINUOUS
 10
-0.792189
 20
-0.788661
  0
VERTEX
  8
PLAN_1
 62
     2
  6
CONTINUOUS
 10
-0.790122
 20
-0.789177
  0
VERTEX
  8
PLAN_1
 62
     2
  6
CONTINUOUS
 10
-0.788059
 20
-0.789177
  0
VERTEX
  8
PLAN_1
 62
     2
  6
CONTINUOUS
 10
-0.783925
 20
-0.788661
  0
VERTEX
  8
PLAN_1
 62
     2
  6
CONTINUOUS
 10
-0.780831
 20
-0.787630
  0
VERTEX
  8
PLAN_1
 62
     2
  6
CONTINUOUS
 10
-0.778248
 20
-0.785563
  0
VERTEX
  8
PLAN_1
 62
     2
  6
CONTINUOUS
 10
-0.776181
 20
-0.782980
  0
VERTEX
  8
PLAN_1
 62
     2
  6
CONTINUOUS
 10
-0.774634
 20
-0.780402
  0
VERTEX
  8
PLAN_1
 62
     2
  6
CONTINUOUS
 10
-0.773602
 20
-0.777303
  0
VERTEX
  8
PLAN_1
 62
     2
  6
CONTINUOUS
 10
-0.773087
 20
-0.774205
  0
VERTEX
  8
PLAN_1
 62
     2
  6
CONTINUOUS
 10
-0.773087
 20
-0.771106
  0
VERTEX
  8
PLAN_1
 62
     2
  6
CONTINUOUS
 10
-0.773087
 20
-0.741161
  0
VERTEX
  8
PLAN_1
 62
     2
  6
CONTINUOUS
 10
-0.763791
 20
-0.741161
  0
VERTEX
  8
PLAN_1
 62
     2
  6
CONTINUOUS
 10
-0.763791
 20
-0.795890
  0
VERTEX
  8
PLAN_1
 62
     2
  6
CONTINUOUS
 10
-0.772567
 20
-0.795890
  0
SEQEND
  8
0
  0
POLYLINE
  8
PLAN_1
 62
     2
  6
CONTINUOUS
 66
     1
 40
0.003000
 41
0.003000
  0
VERTEX
  8
PLAN_1
 62
     2
  6
CONTINUOUS
 10
-0.719390
 20
-0.756650
  0
VERTEX
  8
PLAN_1
 62
     2
  6
CONTINUOUS
 10
-0.719390
 20
-0.755102
  0
VERTEX
  8
PLAN_1
 62
     2
  6
CONTINUOUS
 10
-0.719909
 20
-0.754071
  0
VERTEX
  8
PLAN_1
 62
     2
  6
CONTINUOUS
 10
-0.720425
 20
-0.752520
  0
VERTEX
  8
PLAN_1
 62
     2
  6
CONTINUOUS
 10
-0.721457
 20
-0.750972
  0
VERTEX
  8
PLAN_1
 62
     2
  6
CONTINUOUS
 10
-0.723004
 20
-0.749425
  0
VERTEX
  8
PLAN_1
 62
     2
  6
CONTINUOUS
 10
-0.725071
 20
-0.748390
  0
VERTEX
  8
PLAN_1
 62
     2
  6
CONTINUOUS
 10
-0.728169
 20
-0.747874
  0
VERTEX
  8
PLAN_1
 62
     2
  6
CONTINUOUS
 10
-0.732299
 20
-0.747358
  0
VERTEX
  8
PLAN_1
 62
     2
  6
CONTINUOUS
 10
-0.733331
 20
-0.747874
  0
VERTEX
  8
PLAN_1
 62
     2
  6
CONTINUOUS
 10
-0.734882
 20
-0.747874
  0
VERTEX
  8
PLAN_1
 62
     2
  6
CONTINUOUS
 10
-0.736945
 20
-0.748390
  0
VERTEX
  8
PLAN_1
 62
     2
  6
CONTINUOUS
 10
-0.738492
 20
-0.748906
  0
VERTEX
  8
PLAN_1
 62
     2
  6
CONTINUOUS
 10
-0.740043
 20
-0.749941
  0
VERTEX
  8
PLAN_1
 62
     2
  6
CONTINUOUS
 10
-0.741591
 20
-0.750972
  0
VERTEX
  8
PLAN_1
 62
     2
  6
CONTINUOUS
 10
-0.742626
 20
-0.753035
  0
VERTEX
  8
PLAN_1
 62
     2
  6
CONTINUOUS
 10
-0.743142
 20
-0.755102
  0
VERTEX
  8
PLAN_1
 62
     2
  6
CONTINUOUS
 10
-0.742626
 20
-0.756650
  0
VERTEX
  8
PLAN_1
 62
     2
  6
CONTINUOUS
 10
-0.742626
 20
-0.758201
  0
VERTEX
  8
PLAN_1
 62
     2
  6
CONTINUOUS
 10
-0.741591
 20
-0.759232
  0
VERTEX
  8
PLAN_1
 62
     2
  6
CONTINUOUS
 10
-0.740559
 20
-0.759748
  0
VERTEX
  8
PLAN_1
 62
     2
  6
CONTINUOUS
 10
-0.739528
 20
-0.760783
  0
VERTEX
  8
PLAN_1
 62
     2
  6
CONTINUOUS
 10
-0.737461
 20
-0.761299
  0
VERTEX
  8
PLAN_1
 62
     2
  6
CONTINUOUS
 10
-0.735398
 20
-0.761815
  0
VERTEX
  8
PLAN_1
 62
     2
  6
CONTINUOUS
 10
-0.732815
 20
-0.762331
  0
VERTEX
  8
PLAN_1
 62
     2
  6
CONTINUOUS
 10
-0.724039
 20
-0.764913
  0
VERTEX
  8
PLAN_1
 62
     2
  6
CONTINUOUS
 10
-0.719909
 20
-0.765945
  0
VERTEX
  8
PLAN_1
 62
     2
  6
CONTINUOUS
 10
-0.716811
 20
-0.767492
  0
VERTEX
  8
PLAN_1
 62
     2
  6
CONTINUOUS
 10
-0.714228
 20
-0.768528
  0
VERTEX
  8
PLAN_1
 62
     2
  6
CONTINUOUS
 10
-0.712165
 20
-0.770075
  0
VERTEX
  8
PLAN_1
 62
     2
  6
CONTINUOUS
 10
-0.710614
 20
-0.772142
  0
VERTEX
  8
PLAN_1
 62
     2
  6
CONTINUOUS
 10
-0.709583
 20
-0.774205
  0
VERTEX
  8
PLAN_1
 62
     2
  6
CONTINUOUS
 10
-0.708551
 20
-0.776787
  0
VERTEX
  8
PLAN_1
 62
     2
  6
CONTINUOUS
 10
-0.708551
 20
-0.779366
  0
VERTEX
  8
PLAN_1
 62
     2
  6
CONTINUOUS
 10
-0.709067
 20
-0.782980
  0
VERTEX
  8
PLAN_1
 62
     2
  6
CONTINUOUS
 10
-0.710098
 20
-0.786594
  0
VERTEX
  8
PLAN_1
 62
     2
  6
CONTINUOUS
 10
-0.712165
 20
-0.789693
  0
VERTEX
  8
PLAN_1
 62
     2
  6
CONTINUOUS
 10
-0.714744
 20
-0.792276
  0
VERTEX
  8
PLAN_1
 62
     2
  6
CONTINUOUS
 10
-0.717843
 20
-0.794339
  0
VERTEX
  8
PLAN_1
 62
     2
  6
CONTINUOUS
 10
-0.721457
 20
-0.795890
  0
VERTEX
  8
PLAN_1
 62
     2
  6
CONTINUOUS
 10
-0.725587
 20
-0.796921
  0
VERTEX
  8
PLAN_1
 62
     2
  6
CONTINUOUS
 10
-0.730232
 20
-0.797437
  0
VERTEX
  8
PLAN_1
 62
     2
  6
CONTINUOUS
 10
-0.733846
 20
-0.796921
  0
VERTEX
  8
PLAN_1
 62
     2
  6
CONTINUOUS
 10
-0.737461
 20
-0.796406
  0
VERTEX
  8
PLAN_1
 62
     2
  6
CONTINUOUS
 10
-0.740043
 20
-0.795890
  0
VERTEX
  8
PLAN_1
 62
     2
  6
CONTINUOUS
 10
-0.742626
 20
-0.795374
  0
VERTEX
  8
PLAN_1
 62
     2
  6
CONTINUOUS
 10
-0.745205
 20
-0.794339
  0
VERTEX
  8
PLAN_1
 62
     2
  6
CONTINUOUS
 10
-0.746756
 20
-0.792791
  0
VERTEX
  8
PLAN_1
 62
     2
  6
CONTINUOUS
 10
-0.748303
 20
-0.791760
  0
VERTEX
  8
PLAN_1
 62
     2
  6
CONTINUOUS
 10
-0.749850
 20
-0.790209
  0
VERTEX
  8
PLAN_1
 62
     2
  6
CONTINUOUS
 10
-0.751917
 20
-0.787110
  0
VERTEX
  8
PLAN_1
 62
     2
  6
CONTINUOUS
 10
-0.752949
 20
-0.784016
  0
VERTEX
  8
PLAN_1
 62
     2
  6
CONTINUOUS
 10
-0.753465
 20
-0.780917
  0
VERTEX
  8
PLAN_1
 62
     2
  6
CONTINUOUS
 10
-0.753465
 20
-0.778335
  0
VERTEX
  8
PLAN_1
 62
     2
  6
CONTINUOUS
 10
-0.744689
 20
-0.778335
  0
VERTEX
  8
PLAN_1
 62
     2
  6
CONTINUOUS
 10
-0.744689
 20
-0.779886
  0
VERTEX
  8
PLAN_1
 62
     2
  6
CONTINUOUS
 10
-0.744173
 20
-0.781949
  0
VERTEX
  8
PLAN_1
 62
     2
  6
CONTINUOUS
 10
-0.743142
 20
-0.783500
  0
VERTEX
  8
PLAN_1
 62
     2
  6
CONTINUOUS
 10
-0.742106
 20
-0.785563
  0
VERTEX
  8
PLAN_1
 62
     2
  6
CONTINUOUS
 10
-0.740559
 20
-0.787110
  0
VERTEX
  8
PLAN_1
 62
     2
  6
CONTINUOUS
 10
-0.737976
 20
-0.788146
  0
VERTEX
  8
PLAN_1
 62
     2
  6
CONTINUOUS
 10
-0.734362
 20
-0.789177
  0
VERTEX
  8
PLAN_1
 62
     2
  6
CONTINUOUS
 10
-0.730232
 20
-0.789177
  0
VERTEX
  8
PLAN_1
 62
     2
  6
CONTINUOUS
 10
-0.727654
 20
-0.789177
  0
VERTEX
  8
PLAN_1
 62
     2
  6
CONTINUOUS
 10
-0.725587
 20
-0.788661
  0
VERTEX
  8
PLAN_1
 62
     2
  6
CONTINUOUS
 10
-0.723524
 20
-0.788146
  0
VERTEX
  8
PLAN_1
 62
     2
  6
CONTINUOUS
 10
-0.721457
 20
-0.787110
  0
VERTEX
  8
PLAN_1
 62
     2
  6
CONTINUOUS
 10
-0.719909
 20
-0.786079
  0
VERTEX
  8
PLAN_1
 62
     2
  6
CONTINUOUS
 10
-0.718874
 20
-0.784531
  0
VERTEX
  8
PLAN_1
 62
     2
  6
CONTINUOUS
 10
-0.717843
 20
-0.782980
  0
VERTEX
  8
PLAN_1
 62
     2
  6
CONTINUOUS
 10
-0.717843
 20
-0.780917
  0
VERTEX
  8
PLAN_1
 62
     2
  6
CONTINUOUS
 10
-0.717843
 20
-0.779366
  0
VERTEX
  8
PLAN_1
 62
     2
  6
CONTINUOUS
 10
-0.718358
 20
-0.777819
  0
VERTEX
  8
PLAN_1
 62
     2
  6
CONTINUOUS
 10
-0.718874
 20
-0.776787
  0
VERTEX
  8
PLAN_1
 62
     2
  6
CONTINUOUS
 10
-0.720425
 20
-0.775752
  0
VERTEX
  8
PLAN_1
 62
     2
  6
CONTINUOUS
 10
-0.721972
 20
-0.775236
  0
VERTEX
  8
PLAN_1
 62
     2
  6
CONTINUOUS
 10
-0.723524
 20
-0.774205
  0
VERTEX
  8
PLAN_1
 62
     2
  6
CONTINUOUS
 10
-0.726102
 20
-0.773689
  0
VERTEX
  8
PLAN_1
 62
     2
  6
CONTINUOUS
 10
-0.728685
 20
-0.772657
  0
VERTEX
  8
PLAN_1
 62
     2
  6
CONTINUOUS
 10
-0.739012
 20
-0.770075
  0
VERTEX
  8
PLAN_1
 62
     2
  6
CONTINUOUS
 10
-0.742106
 20
-0.769559
  0
VERTEX
  8
PLAN_1
 62
     2
  6
CONTINUOUS
 10
-0.744173
 20
-0.768528
  0
VERTEX
  8
PLAN_1
 62
     2
  6
CONTINUOUS
 10
-0.746756
 20
-0.766976
  0
VERTEX
  8
PLAN_1
 62
     2
  6
CONTINUOUS
 10
-0.748303
 20
-0.765945
  0
VERTEX
  8
PLAN_1
 62
     2
  6
CONTINUOUS
 10
-0.749850
 20
-0.763878
  0
VERTEX
  8
PLAN_1
 62
     2
  6
CONTINUOUS
 10
-0.750886
 20
-0.761815
  0
VERTEX
  8
PLAN_1
 62
     2
  6
CONTINUOUS
 10
-0.751402
 20
-0.759748
  0
VERTEX
  8
PLAN_1
 62
     2
  6
CONTINUOUS
 10
-0.751917
 20
-0.757169
  0
VERTEX
  8
PLAN_1
 62
     2
  6
CONTINUOUS
 10
-0.751402
 20
-0.753035
  0
VERTEX
  8
PLAN_1
 62
     2
  6
CONTINUOUS
 10
-0.749850
 20
-0.749425
  0
VERTEX
  8
PLAN_1
 62
     2
  6
CONTINUOUS
 10
-0.748303
 20
-0.746327
  0
VERTEX
  8
PLAN_1
 62
     2
  6
CONTINUOUS
 10
-0.745720
 20
-0.743744
  0
VERTEX
  8
PLAN_1
 62
     2
  6
CONTINUOUS
 10
-0.742626
 20
-0.742197
  0
VERTEX
  8
PLAN_1
 62
     2
  6
CONTINUOUS
 10
-0.739012
 20
-0.740646
  0
VERTEX
  8
PLAN_1
 62
     2
  6
CONTINUOUS
 10
-0.735398
 20
-0.740130
  0
VERTEX
  8
PLAN_1
 62
     2
  6
CONTINUOUS
 10
-0.731268
 20
-0.739614
  0
VERTEX
  8
PLAN_1
 62
     2
  6
CONTINUOUS
 10
-0.727654
 20
-0.739614
  0
VERTEX
  8
PLAN_1
 62
     2
  6
CONTINUOUS
 10
-0.724555
 20
-0.740130
  0
VERTEX
  8
PLAN_1
 62
     2
  6
CONTINUOUS
 10
-0.721972
 20
-0.741161
  0
VERTEX
  8
PLAN_1
 62
     2
  6
CONTINUOUS
 10
-0.719909
 20
-0.742197
  0
VERTEX
  8
PLAN_1
 62
     2
  6
CONTINUOUS
 10
-0.716295
 20
-0.744260
  0
VERTEX
  8
PLAN_1
 62
     2
  6
CONTINUOUS
 10
-0.713713
 20
-0.747358
  0
VERTEX
  8
PLAN_1
 62
     2
  6
CONTINUOUS
 10
-0.711646
 20
-0.749941
  0
VERTEX
  8
PLAN_1
 62
     2
  6
CONTINUOUS
 10
-0.711130
 20
-0.753035
  0
VERTEX
  8
PLAN_1
 62
     2
  6
CONTINUOUS
 10
-0.710614
 20
-0.755102
  0
VERTEX
  8
PLAN_1
 62
     2
  6
CONTINUOUS
 10
-0.710614
 20
-0.756650
  0
VERTEX
  8
PLAN_1
 62
     2
  6
CONTINUOUS
 10
-0.719390
 20
-0.756650
  0
SEQEND
  8
0
  0
POLYLINE
  8
PLAN_1
 62
     2
  6
CONTINUOUS
 66
     1
 40
0.003000
 41
0.003000
  0
VERTEX
  8
PLAN_1
 62
     2
  6
CONTINUOUS
 10
-0.657953
 20
-0.748906
  0
VERTEX
  8
PLAN_1
 62
     2
  6
CONTINUOUS
 10
-0.657953
 20
-0.784016
  0
VERTEX
  8
PLAN_1
 62
     2
  6
CONTINUOUS
 10
-0.657953
 20
-0.785563
  0
VERTEX
  8
PLAN_1
 62
     2
  6
CONTINUOUS
 10
-0.657437
 20
-0.786594
  0
VERTEX
  8
PLAN_1
 62
     2
  6
CONTINUOUS
 10
-0.656406
 20
-0.787630
  0
VERTEX
  8
PLAN_1
 62
     2
  6
CONTINUOUS
 10
-0.655890
 20
-0.788146
  0
VERTEX
  8
PLAN_1
 62
     2
  6
CONTINUOUS
 10
-0.654854
 20
-0.788146
  0
VERTEX
  8
PLAN_1
 62
     2
  6
CONTINUOUS
 10
-0.653823
 20
-0.788146
  0
VERTEX
  8
PLAN_1
 62
     2
  6
CONTINUOUS
 10
-0.653307
 20
-0.788661
  0
VERTEX
  8
PLAN_1
 62
     2
  6
CONTINUOUS
 10
-0.652276
 20
-0.788661
  0
VERTEX
  8
PLAN_1
 62
     2
  6
CONTINUOUS
 10
-0.649177
 20
-0.788661
  0
VERTEX
  8
PLAN_1
 62
     2
  6
CONTINUOUS
 10
-0.649177
 20
-0.795890
  0
VERTEX
  8
PLAN_1
 62
     2
  6
CONTINUOUS
 10
-0.650209
 20
-0.795890
  0
VERTEX
  8
PLAN_1
 62
     2
  6
CONTINUOUS
 10
-0.651244
 20
-0.795890
  0
VERTEX
  8
PLAN_1
 62
     2
  6
CONTINUOUS
 10
-0.652276
 20
-0.795890
  0
VERTEX
  8
PLAN_1
 62
     2
  6
CONTINUOUS
 10
-0.653307
 20
-0.795890
  0
VERTEX
  8
PLAN_1
 62
     2
  6
CONTINUOUS
 10
-0.654339
 20
-0.796406
  0
VERTEX
  8
PLAN_1
 62
     2
  6
CONTINUOUS
 10
-0.654854
 20
-0.796406
  0
VERTEX
  8
PLAN_1
 62
     2
  6
CONTINUOUS
 10
-0.655374
 20
-0.796406
  0
VERTEX
  8
PLAN_1
 62
     2
  6
CONTINUOUS
 10
-0.655890
 20
-0.796406
  0
VERTEX
  8
PLAN_1
 62
     2
  6
CONTINUOUS
 10
-0.658988
 20
-0.795890
  0
VERTEX
  8
PLAN_1
 62
     2
  6
CONTINUOUS
 10
-0.661567
 20
-0.795374
  0
VERTEX
  8
PLAN_1
 62
     2
  6
CONTINUOUS
 10
-0.663634
 20
-0.794339
  0
VERTEX
  8
PLAN_1
 62
     2
  6
CONTINUOUS
 10
-0.664665
 20
-0.792791
  0
VERTEX
  8
PLAN_1
 62
     2
  6
CONTINUOUS
 10
-0.665697
 20
-0.791244
  0
VERTEX
  8
PLAN_1
 62
     2
  6
CONTINUOUS
 10
-0.666732
 20
-0.789177
  0
VERTEX
  8
PLAN_1
 62
     2
  6
CONTINUOUS
 10
-0.666732
 20
-0.787110
  0
VERTEX
  8
PLAN_1
 62
     2
  6
CONTINUOUS
 10
-0.667248
 20
-0.784531
  0
VERTEX
  8
PLAN_1
 62
     2
  6
CONTINUOUS
 10
-0.667248
 20
-0.748906
  0
VERTEX
  8
PLAN_1
 62
     2
  6
CONTINUOUS
 10
-0.674476
 20
-0.748906
  0
VERTEX
  8
PLAN_1
 62
     2
  6
CONTINUOUS
 10
-0.674476
 20
-0.741161
  0
VERTEX
  8
PLAN_1
 62
     2
  6
CONTINUOUS
 10
-0.667248
 20
-0.741161
  0
VERTEX
  8
PLAN_1
 62
     2
  6
CONTINUOUS
 10
-0.667248
 20
-0.726189
  0
VERTEX
  8
PLAN_1
 62
     2
  6
CONTINUOUS
 10
-0.657953
 20
-0.726189
  0
VERTEX
  8
PLAN_1
 62
     2
  6
CONTINUOUS
 10
-0.657953
 20
-0.741161
  0
VERTEX
  8
PLAN_1
 62
     2
  6
CONTINUOUS
 10
-0.649177
 20
-0.741161
  0
VERTEX
  8
PLAN_1
 62
     2
  6
CONTINUOUS
 10
-0.649177
 20
-0.748906
  0
VERTEX
  8
PLAN_1
 62
     2
  6
CONTINUOUS
 10
-0.657953
 20
-0.748906
  0
SEQEND
  8
0
  0
POLYLINE
  8
PLAN_1
 62
     2
  6
CONTINUOUS
 66
     1
 40
0.003000
 41
0.003000
  0
VERTEX
  8
PLAN_1
 62
     2
  6
CONTINUOUS
 10
-0.640402
 20
-0.757685
  0
VERTEX
  8
PLAN_1
 62
     2
  6
CONTINUOUS
 10
-0.639886
 20
-0.753035
  0
VERTEX
  8
PLAN_1
 62
     2
  6
CONTINUOUS
 10
-0.638850
 20
-0.749425
  0
VERTEX
  8
PLAN_1
 62
     2
  6
CONTINUOUS
 10
-0.636787
 20
-0.746327
  0
VERTEX
  8
PLAN_1
 62
     2
  6
CONTINUOUS
 10
-0.634205
 20
-0.743744
  0
VERTEX
  8
PLAN_1
 62
     2
  6
CONTINUOUS
 10
-0.631106
 20
-0.742197
  0
VERTEX
  8
PLAN_1
 62
     2
  6
CONTINUOUS
 10
-0.626976
 20
-0.740646
  0
VERTEX
  8
PLAN_1
 62
     2
  6
CONTINUOUS
 10
-0.622846
 20
-0.740130
  0
VERTEX
  8
PLAN_1
 62
     2
  6
CONTINUOUS
 10
-0.618201
 20
-0.739614
  0
VERTEX
  8
PLAN_1
 62
     2
  6
CONTINUOUS
 10
-0.616134
 20
-0.739614
  0
VERTEX
  8
PLAN_1
 62
     2
  6
CONTINUOUS
 10
-0.613035
 20
-0.740130
  0
VERTEX
  8
PLAN_1
 62
     2
  6
CONTINUOUS
 10
-0.609941
 20
-0.740646
  0
VERTEX
  8
PLAN_1
 62
     2
  6
CONTINUOUS
 10
-0.606327
 20
-0.742197
  0
VERTEX
  8
PLAN_1
 62
     2
  6
CONTINUOUS
 10
-0.603228
 20
-0.743744
  0
VERTEX
  8
PLAN_1
 62
     2
  6
CONTINUOUS
 10
-0.600130
 20
-0.746843
  0
VERTEX
  8
PLAN_1
 62
     2
  6
CONTINUOUS
 10
-0.599098
 20
-0.748390
  0
VERTEX
  8
PLAN_1
 62
     2
  6
CONTINUOUS
 10
-0.598583
 20
-0.750457
  0
VERTEX
  8
PLAN_1
 62
     2
  6
CONTINUOUS
 10
-0.598067
 20
-0.752520
  0
VERTEX
  8
PLAN_1
 62
     2
  6
CONTINUOUS
 10
-0.598067
 20
-0.755102
  0
VERTEX
  8
PLAN_1
 62
     2
  6
CONTINUOUS
 10
-0.598067
 20
-0.786079
  0
VERTEX
  8
PLAN_1
 62
     2
  6
CONTINUOUS
 10
-0.597547
 20
-0.787110
  0
VERTEX
  8
PLAN_1
 62
     2
  6
CONTINUOUS
 10
-0.597547
 20
-0.787630
  0
VERTEX
  8
PLAN_1
 62
     2
  6
CONTINUOUS
 10
-0.597547
 20
-0.788146
  0
VERTEX
  8
PLAN_1
 62
     2
  6
CONTINUOUS
 10
-0.597031
 20
-0.788661
  0
VERTEX
  8
PLAN_1
 62
     2
  6
CONTINUOUS
 10
-0.596516
 20
-0.789177
  0
VERTEX
  8
PLAN_1
 62
     2
  6
CONTINUOUS
 10
-0.596000
 20
-0.789177
  0
VERTEX
  8
PLAN_1
 62
     2
  6
CONTINUOUS
 10
-0.595484
 20
-0.789177
  0
VERTEX
  8
PLAN_1
 62
     2
  6
CONTINUOUS
 10
-0.594969
 20
-0.789177
  0
VERTEX
  8
PLAN_1
 62
     2
  6
CONTINUOUS
 10
-0.594453
 20
-0.789177
  0
VERTEX
  8
PLAN_1
 62
     2
  6
CONTINUOUS
 10
-0.593933
 20
-0.789177
  0
VERTEX
  8
PLAN_1
 62
     2
  6
CONTINUOUS
 10
-0.593417
 20
-0.789177
  0
VERTEX
  8
PLAN_1
 62
     2
  6
CONTINUOUS
 10
-0.592902
 20
-0.789177
  0
VERTEX
  8
PLAN_1
 62
     2
  6
CONTINUOUS
 10
-0.592386
 20
-0.789177
  0
VERTEX
  8
PLAN_1
 62
     2
  6
CONTINUOUS
 10
-0.591870
 20
-0.789177
  0
VERTEX
  8
PLAN_1
 62
     2
  6
CONTINUOUS
 10
-0.591870
 20
-0.795890
  0
VERTEX
  8
PLAN_1
 62
     2
  6
CONTINUOUS
 10
-0.592386
 20
-0.795890
  0
VERTEX
  8
PLAN_1
 62
     2
  6
CONTINUOUS
 10
-0.592902
 20
-0.795890
  0
VERTEX
  8
PLAN_1
 62
     2
  6
CONTINUOUS
 10
-0.593417
 20
-0.796406
  0
VERTEX
  8
PLAN_1
 62
     2
  6
CONTINUOUS
 10
-0.593933
 20
-0.796406
  0
VERTEX
  8
PLAN_1
 62
     2
  6
CONTINUOUS
 10
-0.594969
 20
-0.796406
  0
VERTEX
  8
PLAN_1
 62
     2
  6
CONTINUOUS
 10
-0.595484
 20
-0.796406
  0
VERTEX
  8
PLAN_1
 62
     2
  6
CONTINUOUS
 10
-0.596000
 20
-0.796406
  0
VERTEX
  8
PLAN_1
 62
     2
  6
CONTINUOUS
 10
-0.597031
 20
-0.796921
  0
VERTEX
  8
PLAN_1
 62
     2
  6
CONTINUOUS
 10
-0.599614
 20
-0.796406
  0
VERTEX
  8
PLAN_1
 62
     2
  6
CONTINUOUS
 10
-0.601677
 20
-0.795890
  0
VERTEX
  8
PLAN_1
 62
     2
  6
CONTINUOUS
 10
-0.603228
 20
-0.795374
  0
VERTEX
  8
PLAN_1
 62
     2
  6
CONTINUOUS
 10
-0.604776
 20
-0.794339
  0
VERTEX
  8
PLAN_1
 62
     2
  6
CONTINUOUS
 10
-0.605291
 20
-0.792791
  0
VERTEX
  8
PLAN_1
 62
     2
  6
CONTINUOUS
 10
-0.605811
 20
-0.791244
  0
VERTEX
  8
PLAN_1
 62
     2
  6
CONTINUOUS
 10
-0.606327
 20
-0.789693
  0
VERTEX
  8
PLAN_1
 62
     2
  6
CONTINUOUS
 10
-0.606327
 20
-0.788146
  0
VERTEX
  8
PLAN_1
 62
     2
  6
CONTINUOUS
 10
-0.607874
 20
-0.789693
  0
VERTEX
  8
PLAN_1
 62
     2
  6
CONTINUOUS
 10
-0.609425
 20
-0.791244
  0
VERTEX
  8
PLAN_1
 62
     2
  6
CONTINUOUS
 10
-0.611488
 20
-0.792791
  0
VERTEX
  8
PLAN_1
 62
     2
  6
CONTINUOUS
 10
-0.613555
 20
-0.794339
  0
VERTEX
  8
PLAN_1
 62
     2
  6
CONTINUOUS
 10
-0.616134
 20
-0.795374
  0
VERTEX
  8
PLAN_1
 62
     2
  6
CONTINUOUS
 10
-0.619232
 20
-0.796406
  0
VERTEX
  8
PLAN_1
 62
     2
  6
CONTINUOUS
 10
-0.622331
 20
-0.796921
  0
VERTEX
  8
PLAN_1
 62
     2
  6
CONTINUOUS
 10
-0.625945
 20
-0.797437
  0
VERTEX
  8
PLAN_1
 62
     2
  6
CONTINUOUS
 10
-0.629559
 20
-0.796921
  0
VERTEX
  8
PLAN_1
 62
     2
  6
CONTINUOUS
 10
-0.633173
 20
-0.795890
  0
VERTEX
  8
PLAN_1
 62
     2
  6
CONTINUOUS
 10
-0.635752
 20
-0.794854
  0
VERTEX
  8
PLAN_1
 62
     2
  6
CONTINUOUS
 10
-0.638335
 20
-0.792791
  0
VERTEX
  8
PLAN_1
 62
     2
  6
CONTINUOUS
 10
-0.640402
 20
-0.790724
  0
VERTEX
  8
PLAN_1
 62
     2
  6
CONTINUOUS
 10
-0.641949
 20
-0.788146
  0
VERTEX
  8
PLAN_1
 62
     2
  6
CONTINUOUS
 10
-0.642980
 20
-0.785047
  0
VERTEX
  8
PLAN_1
 62
     2
  6
CONTINUOUS
 10
-0.642980
 20
-0.781433
  0
VERTEX
  8
PLAN_1
 62
     2
  6
CONTINUOUS
 10
-0.642980
 20
-0.779366
  0
VERTEX
  8
PLAN_1
 62
     2
  6
CONTINUOUS
 10
-0.642980
 20
-0.777303
  0
VERTEX
  8
PLAN_1
 62
     2
  6
CONTINUOUS
 10
-0.641949
 20
-0.774720
  0
VERTEX
  8
PLAN_1
 62
     2
  6
CONTINUOUS
 10
-0.640402
 20
-0.772142
  0
VERTEX
  8
PLAN_1
 62
     2
  6
CONTINUOUS
 10
-0.638335
 20
-0.769559
  0
VERTEX
  8
PLAN_1
 62
     2
  6
CONTINUOUS
 10
-0.635752
 20
-0.767492
  0
VERTEX
  8
PLAN_1
 62
     2
  6
CONTINUOUS
 10
-0.631622
 20
-0.765429
  0
VERTEX
  8
PLAN_1
 62
     2
  6
CONTINUOUS
 10
-0.626461
 20
-0.764394
  0
VERTEX
  8
PLAN_1
 62
     2
  6
CONTINUOUS
 10
-0.611488
 20
-0.762331
  0
VERTEX
  8
PLAN_1
 62
     2
  6
CONTINUOUS
 10
-0.610972
 20
-0.762331
  0
VERTEX
  8
PLAN_1
 62
     2
  6
CONTINUOUS
 10
-0.609941
 20
-0.762331
  0
VERTEX
  8
PLAN_1
 62
     2
  6
CONTINUOUS
 10
-0.608906
 20
-0.761815
  0
VERTEX
  8
PLAN_1
 62
     2
  6
CONTINUOUS
 10
-0.608390
 20
-0.761299
  0
VERTEX
  8
PLAN_1
 62
     2
  6
CONTINUOUS
 10
-0.607874
 20
-0.760264
  0
VERTEX
  8
PLAN_1
 62
     2
  6
CONTINUOUS
 10
-0.607358
 20
-0.759232
  0
VERTEX
  8
PLAN_1
 62
     2
  6
CONTINUOUS
 10
-0.606843
 20
-0.757685
  0
VERTEX
  8
PLAN_1
 62
     2
  6
CONTINUOUS
 10
-0.606843
 20
-0.756134
  0
VERTEX
  8
PLAN_1
 62
     2
  6
CONTINUOUS
 10
-0.606843
 20
-0.754071
  0
VERTEX
  8
PLAN_1
 62
     2
  6
CONTINUOUS
 10
-0.607358
 20
-0.752520
  0
VERTEX
  8
PLAN_1
 62
     2
  6
CONTINUOUS
 10
-0.608390
 20
-0.750972
  0
VERTEX
  8
PLAN_1
 62
     2
  6
CONTINUOUS
 10
-0.609941
 20
-0.749425
  0
VERTEX
  8
PLAN_1
 62
     2
  6
CONTINUOUS
 10
-0.611488
 20
-0.748390
  0
VERTEX
  8
PLAN_1
 62
     2
  6
CONTINUOUS
 10
-0.614071
 20
-0.747874
  0
VERTEX
  8
PLAN_1
 62
     2
  6
CONTINUOUS
 10
-0.616650
 20
-0.747358
  0
VERTEX
  8
PLAN_1
 62
     2
  6
CONTINUOUS
 10
-0.619748
 20
-0.747358
  0
VERTEX
  8
PLAN_1
 62
     2
  6
CONTINUOUS
 10
-0.622846
 20
-0.747358
  0
VERTEX
  8
PLAN_1
 62
     2
  6
CONTINUOUS
 10
-0.625945
 20
-0.748390
  0
VERTEX
  8
PLAN_1
 62
     2
  6
CONTINUOUS
 10
-0.628008
 20
-0.749425
  0
VERTEX
  8
PLAN_1
 62
     2
  6
CONTINUOUS
 10
-0.629559
 20
-0.750972
  0
VERTEX
  8
PLAN_1
 62
     2
  6
CONTINUOUS
 10
-0.630591
 20
-0.752520
  0
VERTEX
  8
PLAN_1
 62
     2
  6
CONTINUOUS
 10
-0.631106
 20
-0.754587
  0
VERTEX
  8
PLAN_1
 62
     2
  6
CONTINUOUS
 10
-0.631622
 20
-0.756134
  0
VERTEX
  8
PLAN_1
 62
     2
  6
CONTINUOUS
 10
-0.632138
 20
-0.757685
  0
VERTEX
  8
PLAN_1
 62
     2
  6
CONTINUOUS
 10
-0.640402
 20
-0.757685
  0
SEQEND
  8
0
  0
POLYLINE
  8
PLAN_1
 62
     2
  6
CONTINUOUS
 66
     1
 40
0.003000
 41
0.003000
  0
VERTEX
  8
PLAN_1
 62
     2
  6
CONTINUOUS
 10
-0.606843
 20
-0.768008
  0
VERTEX
  8
PLAN_1
 62
     2
  6
CONTINUOUS
 10
-0.607358
 20
-0.768528
  0
VERTEX
  8
PLAN_1
 62
     2
  6
CONTINUOUS
 10
-0.608390
 20
-0.768528
  0
VERTEX
  8
PLAN_1
 62
     2
  6
CONTINUOUS
 10
-0.609425
 20
-0.769043
  0
VERTEX
  8
PLAN_1
 62
     2
  6
CONTINUOUS
 10
-0.610972
 20
-0.769559
  0
VERTEX
  8
PLAN_1
 62
     2
  6
CONTINUOUS
 10
-0.612520
 20
-0.770075
  0
VERTEX
  8
PLAN_1
 62
     2
  6
CONTINUOUS
 10
-0.615102
 20
-0.770075
  0
VERTEX
  8
PLAN_1
 62
     2
  6
CONTINUOUS
 10
-0.618201
 20
-0.770591
  0
VERTEX
  8
PLAN_1
 62
     2
  6
CONTINUOUS
 10
-0.621815
 20
-0.771106
  0
VERTEX
  8
PLAN_1
 62
     2
  6
CONTINUOUS
 10
-0.623878
 20
-0.771622
  0
VERTEX
  8
PLAN_1
 62
     2
  6
CONTINUOUS
 10
-0.625945
 20
-0.772142
  0
VERTEX
  8
PLAN_1
 62
     2
  6
CONTINUOUS
 10
-0.627492
 20
-0.772657
  0
VERTEX
  8
PLAN_1
 62
     2
  6
CONTINUOUS
 10
-0.629559
 20
-0.773173
  0
VERTEX
  8
PLAN_1
 62
     2
  6
CONTINUOUS
 10
-0.631106
 20
-0.774720
  0
VERTEX
  8
PLAN_1
 62
     2
  6
CONTINUOUS
 10
-0.632657
 20
-0.775752
  0
VERTEX
  8
PLAN_1
 62
     2
  6
CONTINUOUS
 10
-0.633173
 20
-0.777819
  0
VERTEX
  8
PLAN_1
 62
     2
  6
CONTINUOUS
 10
-0.633689
 20
-0.779886
  0
VERTEX
  8
PLAN_1
 62
     2
  6
CONTINUOUS
 10
-0.633689
 20
-0.782465
  0
VERTEX
  8
PLAN_1
 62
     2
  6
CONTINUOUS
 10
-0.633173
 20
-0.784016
  0
VERTEX
  8
PLAN_1
 62
     2
  6
CONTINUOUS
 10
-0.632657
 20
-0.785563
  0
VERTEX
  8
PLAN_1
 62
     2
  6
CONTINUOUS
 10
-0.631106
 20
-0.787110
  0
VERTEX
  8
PLAN_1
 62
     2
  6
CONTINUOUS
 10
-0.630075
 20
-0.788146
  0
VERTEX
  8
PLAN_1
 62
     2
  6
CONTINUOUS
 10
-0.628528
 20
-0.789177
  0
VERTEX
  8
PLAN_1
 62
     2
  6
CONTINUOUS
 10
-0.626461
 20
-0.789693
  0
VERTEX
  8
PLAN_1
 62
     2
  6
CONTINUOUS
 10
-0.623878
 20
-0.789693
  0
VERTEX
  8
PLAN_1
 62
     2
  6
CONTINUOUS
 10
-0.620780
 20
-0.789177
  0
VERTEX
  8
PLAN_1
 62
     2
  6
CONTINUOUS
 10
-0.617685
 20
-0.788661
  0
VERTEX
  8
PLAN_1
 62
     2
  6
CONTINUOUS
 10
-0.614587
 20
-0.787630
  0
VERTEX
  8
PLAN_1
 62
     2
  6
CONTINUOUS
 10
-0.612004
 20
-0.786079
  0
VERTEX
  8
PLAN_1
 62
     2
  6
CONTINUOUS
 10
-0.609941
 20
-0.784016
  0
VERTEX
  8
PLAN_1
 62
     2
  6
CONTINUOUS
 10
-0.608390
 20
-0.781949
  0
VERTEX
  8
PLAN_1
 62
     2
  6
CONTINUOUS
 10
-0.607358
 20
-0.779366
  0
VERTEX
  8
PLAN_1
 62
     2
  6
CONTINUOUS
 10
-0.606843
 20
-0.776787
  0
VERTEX
  8
PLAN_1
 62
     2
  6
CONTINUOUS
 10
-0.606843
 20
-0.768008
  0
SEQEND
  8
0
  0
POLYLINE
  8
PLAN_1
 62
     2
  6
CONTINUOUS
 66
     1
 40
0.003000
 41
0.003000
  0
VERTEX
  8
PLAN_1
 62
     2
  6
CONTINUOUS
 10
-0.571736
 20
-0.795890
  0
VERTEX
  8
PLAN_1
 62
     2
  6
CONTINUOUS
 10
-0.581028
 20
-0.795890
  0
VERTEX
  8
PLAN_1
 62
     2
  6
CONTINUOUS
 10
-0.581028
 20
-0.741161
  0
VERTEX
  8
PLAN_1
 62
     2
  6
CONTINUOUS
 10
-0.572252
 20
-0.741161
  0
VERTEX
  8
PLAN_1
 62
     2
  6
CONTINUOUS
 10
-0.572252
 20
-0.750457
  0
VERTEX
  8
PLAN_1
 62
     2
  6
CONTINUOUS
 10
-0.570701
 20
-0.747874
  0
VERTEX
  8
PLAN_1
 62
     2
  6
CONTINUOUS
 10
-0.569154
 20
-0.745811
  0
VERTEX
  8
PLAN_1
 62
     2
  6
CONTINUOUS
 10
-0.567602
 20
-0.744260
  0
VERTEX
  8
PLAN_1
 62
     2
  6
CONTINUOUS
 10
-0.565539
 20
-0.742713
  0
VERTEX
  8
PLAN_1
 62
     2
  6
CONTINUOUS
 10
-0.563992
 20
-0.741161
  0
VERTEX
  8
PLAN_1
 62
     2
  6
CONTINUOUS
 10
-0.561925
 20
-0.740646
  0
VERTEX
  8
PLAN_1
 62
     2
  6
CONTINUOUS
 10
-0.559343
 20
-0.739614
  0
VERTEX
  8
PLAN_1
 62
     2
  6
CONTINUOUS
 10
-0.556764
 20
-0.739614
  0
VERTEX
  8
PLAN_1
 62
     2
  6
CONTINUOUS
 10
-0.556248
 20
-0.739614
  0
VERTEX
  8
PLAN_1
 62
     2
  6
CONTINUOUS
 10
-0.555728
 20
-0.739614
  0
VERTEX
  8
PLAN_1
 62
     2
  6
CONTINUOUS
 10
-0.555213
 20
-0.739614
  0
VERTEX
  8
PLAN_1
 62
     2
  6
CONTINUOUS
 10
-0.554697
 20
-0.740130
  0
VERTEX
  8
PLAN_1
 62
     2
  6
CONTINUOUS
 10
-0.554697
 20
-0.749425
  0
VERTEX
  8
PLAN_1
 62
     2
  6
CONTINUOUS
 10
-0.557795
 20
-0.749425
  0
VERTEX
  8
PLAN_1
 62
     2
  6
CONTINUOUS
 10
-0.560894
 20
-0.749941
  0
VERTEX
  8
PLAN_1
 62
     2
  6
CONTINUOUS
 10
-0.563472
 20
-0.750457
  0
VERTEX
  8
PLAN_1
 62
     2
  6
CONTINUOUS
 10
-0.566055
 20
-0.752004
  0
VERTEX
  8
PLAN_1
 62
     2
  6
CONTINUOUS
 10
-0.568122
 20
-0.753555
  0
VERTEX
  8
PLAN_1
 62
     2
  6
CONTINUOUS
 10
-0.569669
 20
-0.756134
  0
VERTEX
  8
PLAN_1
 62
     2
  6
CONTINUOUS
 10
-0.570701
 20
-0.758201
  0
VERTEX
  8
PLAN_1
 62
     2
  6
CONTINUOUS
 10
-0.571736
 20
-0.761299
  0
VERTEX
  8
PLAN_1
 62
     2
  6
CONTINUOUS
 10
-0.571736
 20
-0.763878
  0
VERTEX
  8
PLAN_1
 62
     2
  6
CONTINUOUS
 10
-0.571736
 20
-0.795890
  0
SEQEND
  8
0
  0
POLYLINE
  8
PLAN_1
 62
     2
  6
CONTINUOUS
 66
     1
 40
0.003000
 41
0.003000
  0
VERTEX
  8
PLAN_1
 62
     2
  6
CONTINUOUS
 10
-0.549020
 20
-0.757685
  0
VERTEX
  8
PLAN_1
 62
     2
  6
CONTINUOUS
 10
-0.548500
 20
-0.753035
  0
VERTEX
  8
PLAN_1
 62
     2
  6
CONTINUOUS
 10
-0.546953
 20
-0.749425
  0
VERTEX
  8
PLAN_1
 62
     2
  6
CONTINUOUS
 10
-0.545406
 20
-0.746327
  0
VERTEX
  8
PLAN_1
 62
     2
  6
CONTINUOUS
 10
-0.542823
 20
-0.743744
  0
VERTEX
  8
PLAN_1
 62
     2
  6
CONTINUOUS
 10
-0.539209
 20
-0.742197
  0
VERTEX
  8
PLAN_1
 62
     2
  6
CONTINUOUS
 10
-0.535594
 20
-0.740646
  0
VERTEX
  8
PLAN_1
 62
     2
  6
CONTINUOUS
 10
-0.531465
 20
-0.740130
  0
VERTEX
  8
PLAN_1
 62
     2
  6
CONTINUOUS
 10
-0.526303
 20
-0.739614
  0
VERTEX
  8
PLAN_1
 62
     2
  6
CONTINUOUS
 10
-0.524236
 20
-0.739614
  0
VERTEX
  8
PLAN_1
 62
     2
  6
CONTINUOUS
 10
-0.521654
 20
-0.740130
  0
VERTEX
  8
PLAN_1
 62
     2
  6
CONTINUOUS
 10
-0.518039
 20
-0.740646
  0
VERTEX
  8
PLAN_1
 62
     2
  6
CONTINUOUS
 10
-0.514945
 20
-0.742197
  0
VERTEX
  8
PLAN_1
 62
     2
  6
CONTINUOUS
 10
-0.511331
 20
-0.743744
  0
VERTEX
  8
PLAN_1
 62
     2
  6
CONTINUOUS
 10
-0.508748
 20
-0.746843
  0
VERTEX
  8
PLAN_1
 62
     2
  6
CONTINUOUS
 10
-0.507717
 20
-0.748390
  0
VERTEX
  8
PLAN_1
 62
     2
  6
CONTINUOUS
 10
-0.507201
 20
-0.750457
  0
VERTEX
  8
PLAN_1
 62
     2
  6
CONTINUOUS
 10
-0.506681
 20
-0.752520
  0
VERTEX
  8
PLAN_1
 62
     2
  6
CONTINUOUS
 10
-0.506165
 20
-0.755102
  0
VERTEX
  8
PLAN_1
 62
     2
  6
CONTINUOUS
 10
-0.506165
 20
-0.786079
  0
VERTEX
  8
PLAN_1
 62
     2
  6
CONTINUOUS
 10
-0.506165
 20
-0.787110
  0
VERTEX
  8
PLAN_1
 62
     2
  6
CONTINUOUS
 10
-0.506165
 20
-0.787630
  0
VERTEX
  8
PLAN_1
 62
     2
  6
CONTINUOUS
 10
-0.505650
 20
-0.788146
  0
VERTEX
  8
PLAN_1
 62
     2
  6
CONTINUOUS
 10
-0.505650
 20
-0.788661
  0
VERTEX
  8
PLAN_1
 62
     2
  6
CONTINUOUS
 10
-0.505134
 20
-0.789177
  0
VERTEX
  8
PLAN_1
 62
     2
  6
CONTINUOUS
 10
-0.504618
 20
-0.789177
  0
VERTEX
  8
PLAN_1
 62
     2
  6
CONTINUOUS
 10
-0.504102
 20
-0.789177
  0
VERTEX
  8
PLAN_1
 62
     2
  6
CONTINUOUS
 10
-0.503071
 20
-0.789177
  0
VERTEX
  8
PLAN_1
 62
     2
  6
CONTINUOUS
 10
-0.502551
 20
-0.789177
  0
VERTEX
  8
PLAN_1
 62
     2
  6
CONTINUOUS
 10
-0.502035
 20
-0.789177
  0
VERTEX
  8
PLAN_1
 62
     2
  6
CONTINUOUS
 10
-0.501520
 20
-0.789177
  0
VERTEX
  8
PLAN_1
 62
     2
  6
CONTINUOUS
 10
-0.501004
 20
-0.789177
  0
VERTEX
  8
PLAN_1
 62
     2
  6
CONTINUOUS
 10
-0.500488
 20
-0.789177
  0
VERTEX
  8
PLAN_1
 62
     2
  6
CONTINUOUS
 10
-0.500488
 20
-0.795890
  0
VERTEX
  8
PLAN_1
 62
     2
  6
CONTINUOUS
 10
-0.501004
 20
-0.795890
  0
VERTEX
  8
PLAN_1
 62
     2
  6
CONTINUOUS
 10
-0.501520
 20
-0.795890
  0
VERTEX
  8
PLAN_1
 62
     2
  6
CONTINUOUS
 10
-0.502035
 20
-0.796406
  0
VERTEX
  8
PLAN_1
 62
     2
  6
CONTINUOUS
 10
-0.502551
 20
-0.796406
  0
VERTEX
  8
PLAN_1
 62
     2
  6
CONTINUOUS
 10
-0.503071
 20
-0.796406
  0
VERTEX
  8
PLAN_1
 62
     2
  6
CONTINUOUS
 10
-0.503587
 20
-0.796406
  0
VERTEX
  8
PLAN_1
 62
     2
  6
CONTINUOUS
 10
-0.504618
 20
-0.796406
  0
VERTEX
  8
PLAN_1
 62
     2
  6
CONTINUOUS
 10
-0.505134
 20
-0.796921
  0
VERTEX
  8
PLAN_1
 62
     2
  6
CONTINUOUS
 10
-0.508232
 20
-0.796406
  0
VERTEX
  8
PLAN_1
 62
     2
  6
CONTINUOUS
 10
-0.510295
 20
-0.795890
  0
VERTEX
  8
PLAN_1
 62
     2
  6
CONTINUOUS
 10
-0.511846
 20
-0.795374
  0
VERTEX
  8
PLAN_1
 62
     2
  6
CONTINUOUS
 10
-0.512878
 20
-0.794339
  0
VERTEX
  8
PLAN_1
 62
     2
  6
CONTINUOUS
 10
-0.513909
 20
-0.792791
  0
VERTEX
  8
PLAN_1
 62
     2
  6
CONTINUOUS
 10
-0.514429
 20
-0.791244
  0
VERTEX
  8
PLAN_1
 62
     2
  6
CONTINUOUS
 10
-0.514945
 20
-0.789693
  0
VERTEX
  8
PLAN_1
 62
     2
  6
CONTINUOUS
 10
-0.514945
 20
-0.788146
  0
VERTEX
  8
PLAN_1
 62
     2
  6
CONTINUOUS
 10
-0.516492
 20
-0.789693
  0
VERTEX
  8
PLAN_1
 62
     2
  6
CONTINUOUS
 10
-0.518039
 20
-0.791244
  0
VERTEX
  8
PLAN_1
 62
     2
  6
CONTINUOUS
 10
-0.520106
 20
-0.792791
  0
VERTEX
  8
PLAN_1
 62
     2
  6
CONTINUOUS
 10
-0.522173
 20
-0.794339
  0
VERTEX
  8
PLAN_1
 62
     2
  6
CONTINUOUS
 10
-0.524752
 20
-0.795374
  0
VERTEX
  8
PLAN_1
 62
     2
  6
CONTINUOUS
 10
-0.527335
 20
-0.796406
  0
VERTEX
  8
PLAN_1
 62
     2
  6
CONTINUOUS
 10
-0.530949
 20
-0.796921
  0
VERTEX
  8
PLAN_1
 62
     2
  6
CONTINUOUS
 10
-0.534563
 20
-0.797437
  0
VERTEX
  8
PLAN_1
 62
     2
  6
CONTINUOUS
 10
-0.538177
 20
-0.796921
  0
VERTEX
  8
PLAN_1
 62
     2
  6
CONTINUOUS
 10
-0.541276
 20
-0.795890
  0
VERTEX
  8
PLAN_1
 62
     2
  6
CONTINUOUS
 10
-0.544370
 20
-0.794854
  0
VERTEX
  8
PLAN_1
 62
     2
  6
CONTINUOUS
 10
-0.546953
 20
-0.792791
  0
VERTEX
  8
PLAN_1
 62
     2
  6
CONTINUOUS
 10
-0.549020
 20
-0.790724
  0
VERTEX
  8
PLAN_1
 62
     2
  6
CONTINUOUS
 10
-0.550567
 20
-0.788146
  0
VERTEX
  8
PLAN_1
 62
     2
  6
CONTINUOUS
 10
-0.551083
 20
-0.785047
  0
VERTEX
  8
PLAN_1
 62
     2
  6
CONTINUOUS
 10
-0.551598
 20
-0.781433
  0
VERTEX
  8
PLAN_1
 62
     2
  6
CONTINUOUS
 10
-0.551598
 20
-0.779366
  0
VERTEX
  8
PLAN_1
 62
     2
  6
CONTINUOUS
 10
-0.551083
 20
-0.777303
  0
VERTEX
  8
PLAN_1
 62
     2
  6
CONTINUOUS
 10
-0.550567
 20
-0.774720
  0
VERTEX
  8
PLAN_1
 62
     2
  6
CONTINUOUS
 10
-0.549020
 20
-0.772142
  0
VERTEX
  8
PLAN_1
 62
     2
  6
CONTINUOUS
 10
-0.546953
 20
-0.769559
  0
VERTEX
  8
PLAN_1
 62
     2
  6
CONTINUOUS
 10
-0.543854
 20
-0.767492
  0
VERTEX
  8
PLAN_1
 62
     2
  6
CONTINUOUS
 10
-0.540240
 20
-0.765429
  0
VERTEX
  8
PLAN_1
 62
     2
  6
CONTINUOUS
 10
-0.535079
 20
-0.764394
  0
VERTEX
  8
PLAN_1
 62
     2
  6
CONTINUOUS
 10
-0.520106
 20
-0.762331
  0
VERTEX
  8
PLAN_1
 62
     2
  6
CONTINUOUS
 10
-0.519075
 20
-0.762331
  0
VERTEX
  8
PLAN_1
 62
     2
  6
CONTINUOUS
 10
-0.518559
 20
-0.762331
  0
VERTEX
  8
PLAN_1
 62
     2
  6
CONTINUOUS
 10
-0.517524
 20
-0.761815
  0
VERTEX
  8
PLAN_1
 62
     2
  6
CONTINUOUS
 10
-0.517008
 20
-0.761299
  0
VERTEX
  8
PLAN_1
 62
     2
  6
CONTINUOUS
 10
-0.515976
 20
-0.760264
  0
VERTEX
  8
PLAN_1
 62
     2
  6
CONTINUOUS
 10
-0.515461
 20
-0.759232
  0
VERTEX
  8
PLAN_1
 62
     2
  6
CONTINUOUS
 10
-0.515461
 20
-0.757685
  0
VERTEX
  8
PLAN_1
 62
     2
  6
CONTINUOUS
 10
-0.515461
 20
-0.756134
  0
VERTEX
  8
PLAN_1
 62
     2
  6
CONTINUOUS
 10
-0.515461
 20
-0.754071
  0
VERTEX
  8
PLAN_1
 62
     2
  6
CONTINUOUS
 10
-0.515976
 20
-0.752520
  0
VERTEX
  8
PLAN_1
 62
     2
  6
CONTINUOUS
 10
-0.517008
 20
-0.750972
  0
VERTEX
  8
PLAN_1
 62
     2
  6
CONTINUOUS
 10
-0.518559
 20
-0.749425
  0
VERTEX
  8
PLAN_1
 62
     2
  6
CONTINUOUS
 10
-0.520106
 20
-0.748390
  0
VERTEX
  8
PLAN_1
 62
     2
  6
CONTINUOUS
 10
-0.522173
 20
-0.747874
  0
VERTEX
  8
PLAN_1
 62
     2
  6
CONTINUOUS
 10
-0.525268
 20
-0.747358
  0
VERTEX
  8
PLAN_1
 62
     2
  6
CONTINUOUS
 10
-0.527850
 20
-0.747358
  0
VERTEX
  8
PLAN_1
 62
     2
  6
CONTINUOUS
 10
-0.531465
 20
-0.747358
  0
VERTEX
  8
PLAN_1
 62
     2
  6
CONTINUOUS
 10
-0.534047
 20
-0.748390
  0
VERTEX
  8
PLAN_1
 62
     2
  6
CONTINUOUS
 10
-0.536626
 20
-0.749425
  0
VERTEX
  8
PLAN_1
 62
     2
  6
CONTINUOUS
 10
-0.538177
 20
-0.750972
  0
VERTEX
  8
PLAN_1
 62
     2
  6
CONTINUOUS
 10
-0.539209
 20
-0.752520
  0
VERTEX
  8
PLAN_1
 62
     2
  6
CONTINUOUS
 10
-0.539724
 20
-0.754587
  0
VERTEX
  8
PLAN_1
 62
     2
  6
CONTINUOUS
 10
-0.540240
 20
-0.756134
  0
VERTEX
  8
PLAN_1
 62
     2
  6
CONTINUOUS
 10
-0.540756
 20
-0.757685
  0
VERTEX
  8
PLAN_1
 62
     2
  6
CONTINUOUS
 10
-0.549020
 20
-0.757685
  0
SEQEND
  8
0
  0
POLYLINE
  8
PLAN_1
 62
     2
  6
CONTINUOUS
 66
     1
 40
0.003000
 41
0.003000
  0
VERTEX
  8
PLAN_1
 62
     2
  6
CONTINUOUS
 10
-0.515461
 20
-0.768008
  0
VERTEX
  8
PLAN_1
 62
     2
  6
CONTINUOUS
 10
-0.515976
 20
-0.768528
  0
VERTEX
  8
PLAN_1
 62
     2
  6
CONTINUOUS
 10
-0.517008
 20
-0.768528
  0
VERTEX
  8
PLAN_1
 62
     2
  6
CONTINUOUS
 10
-0.518039
 20
-0.769043
  0
VERTEX
  8
PLAN_1
 62
     2
  6
CONTINUOUS
 10
-0.519075
 20
-0.769559
  0
VERTEX
  8
PLAN_1
 62
     2
  6
CONTINUOUS
 10
-0.521138
 20
-0.770075
  0
VERTEX
  8
PLAN_1
 62
     2
  6
CONTINUOUS
 10
-0.523720
 20
-0.770075
  0
VERTEX
  8
PLAN_1
 62
     2
  6
CONTINUOUS
 10
-0.526819
 20
-0.770591
  0
VERTEX
  8
PLAN_1
 62
     2
  6
CONTINUOUS
 10
-0.530433
 20
-0.771106
  0
VERTEX
  8
PLAN_1
 62
     2
  6
CONTINUOUS
 10
-0.532496
 20
-0.771622
  0
VERTEX
  8
PLAN_1
 62
     2
  6
CONTINUOUS
 10
-0.534047
 20
-0.772142
  0
VERTEX
  8
PLAN_1
 62
     2
  6
CONTINUOUS
 10
-0.536110
 20
-0.772657
  0
VERTEX
  8
PLAN_1
 62
     2
  6
CONTINUOUS
 10
-0.538177
 20
-0.773173
  0
VERTEX
  8
PLAN_1
 62
     2
  6
CONTINUOUS
 10
-0.539724
 20
-0.774720
  0
VERTEX
  8
PLAN_1
 62
     2
  6
CONTINUOUS
 10
-0.540756
 20
-0.775752
  0
VERTEX
  8
PLAN_1
 62
     2
  6
CONTINUOUS
 10
-0.541791
 20
-0.777819
  0
VERTEX
  8
PLAN_1
 62
     2
  6
CONTINUOUS
 10
-0.542307
 20
-0.779886
  0
VERTEX
  8
PLAN_1
 62
     2
  6
CONTINUOUS
 10
-0.542307
 20
-0.782465
  0
VERTEX
  8
PLAN_1
 62
     2
  6
CONTINUOUS
 10
-0.541791
 20
-0.784016
  0
VERTEX
  8
PLAN_1
 62
     2
  6
CONTINUOUS
 10
-0.540756
 20
-0.785563
  0
VERTEX
  8
PLAN_1
 62
     2
  6
CONTINUOUS
 10
-0.539724
 20
-0.787110
  0
VERTEX
  8
PLAN_1
 62
     2
  6
CONTINUOUS
 10
-0.538693
 20
-0.788146
  0
VERTEX
  8
PLAN_1
 62
     2
  6
CONTINUOUS
 10
-0.536626
 20
-0.789177
  0
VERTEX
  8
PLAN_1
 62
     2
  6
CONTINUOUS
 10
-0.534563
 20
-0.789693
  0
VERTEX
  8
PLAN_1
 62
     2
  6
CONTINUOUS
 10
-0.532496
 20
-0.789693
  0
VERTEX
  8
PLAN_1
 62
     2
  6
CONTINUOUS
 10
-0.528882
 20
-0.789177
  0
VERTEX
  8
PLAN_1
 62
     2
  6
CONTINUOUS
 10
-0.526303
 20
-0.788661
  0
VERTEX
  8
PLAN_1
 62
     2
  6
CONTINUOUS
 10
-0.523205
 20
-0.787630
  0
VERTEX
  8
PLAN_1
 62
     2
  6
CONTINUOUS
 10
-0.520622
 20
-0.786079
  0
VERTEX
  8
PLAN_1
 62
     2
  6
CONTINUOUS
 10
-0.518559
 20
-0.784016
  0
VERTEX
  8
PLAN_1
 62
     2
  6
CONTINUOUS
 10
-0.517008
 20
-0.781949
  0
VERTEX
  8
PLAN_1
 62
     2
  6
CONTINUOUS
 10
-0.515976
 20
-0.779366
  0
VERTEX
  8
PLAN_1
 62
     2
  6
CONTINUOUS
 10
-0.515461
 20
-0.776787
  0
VERTEX
  8
PLAN_1
 62
     2
  6
CONTINUOUS
 10
-0.515461
 20
-0.768008
  0
SEQEND
  8
0
  0
POLYLINE
  8
PLAN_1
 62
     2
  6
CONTINUOUS
 66
     1
 40
0.003000
 41
0.003000
  0
VERTEX
  8
PLAN_1
 62
     2
  6
CONTINUOUS
 10
-0.455055
 20
-0.795890
  0
VERTEX
  8
PLAN_1
 62
     2
  6
CONTINUOUS
 10
-0.455055
 20
-0.787630
  0
VERTEX
  8
PLAN_1
 62
     2
  6
CONTINUOUS
 10
-0.455571
 20
-0.787630
  0
VERTEX
  8
PLAN_1
 62
     2
  6
CONTINUOUS
 10
-0.457118
 20
-0.789693
  0
VERTEX
  8
PLAN_1
 62
     2
  6
CONTINUOUS
 10
-0.458669
 20
-0.791760
  0
VERTEX
  8
PLAN_1
 62
     2
  6
CONTINUOUS
 10
-0.460217
 20
-0.793307
  0
VERTEX
  8
PLAN_1
 62
     2
  6
CONTINUOUS
 10
-0.462283
 20
-0.794854
  0
VERTEX
  8
PLAN_1
 62
     2
  6
CONTINUOUS
 10
-0.464346
 20
-0.795890
  0
VERTEX
  8
PLAN_1
 62
     2
  6
CONTINUOUS
 10
-0.466929
 20
-0.796406
  0
VERTEX
  8
PLAN_1
 62
     2
  6
CONTINUOUS
 10
-0.469512
 20
-0.796921
  0
VERTEX
  8
PLAN_1
 62
     2
  6
CONTINUOUS
 10
-0.472606
 20
-0.797437
  0
VERTEX
  8
PLAN_1
 62
     2
  6
CONTINUOUS
 10
-0.475705
 20
-0.796921
  0
VERTEX
  8
PLAN_1
 62
     2
  6
CONTINUOUS
 10
-0.478803
 20
-0.796406
  0
VERTEX
  8
PLAN_1
 62
     2
  6
CONTINUOUS
 10
-0.481902
 20
-0.795374
  0
VERTEX
  8
PLAN_1
 62
     2
  6
CONTINUOUS
 10
-0.484484
 20
-0.793823
  0
VERTEX
  8
PLAN_1
 62
     2
  6
CONTINUOUS
 10
-0.487063
 20
-0.791244
  0
VERTEX
  8
PLAN_1
 62
     2
  6
CONTINUOUS
 10
-0.488614
 20
-0.788661
  0
VERTEX
  8
PLAN_1
 62
     2
  6
CONTINUOUS
 10
-0.490161
 20
-0.785047
  0
VERTEX
  8
PLAN_1
 62
     2
  6
CONTINUOUS
 10
-0.490677
 20
-0.780402
  0
VERTEX
  8
PLAN_1
 62
     2
  6
CONTINUOUS
 10
-0.490677
 20
-0.741161
  0
VERTEX
  8
PLAN_1
 62
     2
  6
CONTINUOUS
 10
-0.481386
 20
-0.741161
  0
VERTEX
  8
PLAN_1
 62
     2
  6
CONTINUOUS
 10
-0.481386
 20
-0.777303
  0
VERTEX
  8
PLAN_1
 62
     2
  6
CONTINUOUS
 10
-0.480870
 20
-0.780402
  0
VERTEX
  8
PLAN_1
 62
     2
  6
CONTINUOUS
 10
-0.480354
 20
-0.782980
  0
VERTEX
  8
PLAN_1
 62
     2
  6
CONTINUOUS
 10
-0.479319
 20
-0.785047
  0
VERTEX
  8
PLAN_1
 62
     2
  6
CONTINUOUS
 10
-0.478287
 20
-0.786594
  0
VERTEX
  8
PLAN_1
 62
     2
  6
CONTINUOUS
 10
-0.476740
 20
-0.787630
  0
VERTEX
  8
PLAN_1
 62
     2
  6
CONTINUOUS
 10
-0.474673
 20
-0.788661
  0
VERTEX
  8
PLAN_1
 62
     2
  6
CONTINUOUS
 10
-0.473126
 20
-0.789177
  0
VERTEX
  8
PLAN_1
 62
     2
  6
CONTINUOUS
 10
-0.470543
 20
-0.789177
  0
VERTEX
  8
PLAN_1
 62
     2
  6
CONTINUOUS
 10
-0.466929
 20
-0.788661
  0
VERTEX
  8
PLAN_1
 62
     2
  6
CONTINUOUS
 10
-0.463315
 20
-0.787630
  0
VERTEX
  8
PLAN_1
 62
     2
  6
CONTINUOUS
 10
-0.460732
 20
-0.785563
  0
VERTEX
  8
PLAN_1
 62
     2
  6
CONTINUOUS
 10
-0.459185
 20
-0.782980
  0
VERTEX
  8
PLAN_1
 62
     2
  6
CONTINUOUS
 10
-0.457638
 20
-0.780402
  0
VERTEX
  8
PLAN_1
 62
     2
  6
CONTINUOUS
 10
-0.456602
 20
-0.777303
  0
VERTEX
  8
PLAN_1
 62
     2
  6
CONTINUOUS
 10
-0.456087
 20
-0.774205
  0
VERTEX
  8
PLAN_1
 62
     2
  6
CONTINUOUS
 10
-0.455571
 20
-0.771106
  0
VERTEX
  8
PLAN_1
 62
     2
  6
CONTINUOUS
 10
-0.455571
 20
-0.741161
  0
VERTEX
  8
PLAN_1
 62
     2
  6
CONTINUOUS
 10
-0.446795
 20
-0.741161
  0
VERTEX
  8
PLAN_1
 62
     2
  6
CONTINUOUS
 10
-0.446795
 20
-0.795890
  0
VERTEX
  8
PLAN_1
 62
     2
  6
CONTINUOUS
 10
-0.455055
 20
-0.795890
  0
SEQEND
  8
0
  0
POLYLINE
  8
PLAN_1
 62
     2
  6
CONTINUOUS
 66
     1
 40
0.003000
 41
0.003000
  0
VERTEX
  8
PLAN_1
 62
     2
  6
CONTINUOUS
 10
-0.387937
 20
-0.795890
  0
VERTEX
  8
PLAN_1
 62
     2
  6
CONTINUOUS
 10
-0.396197
 20
-0.795890
  0
VERTEX
  8
PLAN_1
 62
     2
  6
CONTINUOUS
 10
-0.396197
 20
-0.788146
  0
VERTEX
  8
PLAN_1
 62
     2
  6
CONTINUOUS
 10
-0.396717
 20
-0.788146
  0
VERTEX
  8
PLAN_1
 62
     2
  6
CONTINUOUS
 10
-0.398264
 20
-0.790724
  0
VERTEX
  8
PLAN_1
 62
     2
  6
CONTINUOUS
 10
-0.399811
 20
-0.792791
  0
VERTEX
  8
PLAN_1
 62
     2
  6
CONTINUOUS
 10
-0.401878
 20
-0.794339
  0
VERTEX
  8
PLAN_1
 62
     2
  6
CONTINUOUS
 10
-0.403941
 20
-0.795374
  0
VERTEX
  8
PLAN_1
 62
     2
  6
CONTINUOUS
 10
-0.406008
 20
-0.796406
  0
VERTEX
  8
PLAN_1
 62
     2
  6
CONTINUOUS
 10
-0.408075
 20
-0.796921
  0
VERTEX
  8
PLAN_1
 62
     2
  6
CONTINUOUS
 10
-0.410138
 20
-0.796921
  0
VERTEX
  8
PLAN_1
 62
     2
  6
CONTINUOUS
 10
-0.412205
 20
-0.797437
  0
VERTEX
  8
PLAN_1
 62
     2
  6
CONTINUOUS
 10
-0.415299
 20
-0.796921
  0
VERTEX
  8
PLAN_1
 62
     2
  6
CONTINUOUS
 10
-0.418398
 20
-0.796406
  0
VERTEX
  8
PLAN_1
 62
     2
  6
CONTINUOUS
 10
-0.420980
 20
-0.795374
  0
VERTEX
  8
PLAN_1
 62
     2
  6
CONTINUOUS
 10
-0.423563
 20
-0.794339
  0
VERTEX
  8
PLAN_1
 62
     2
  6
CONTINUOUS
 10
-0.425626
 20
-0.792791
  0
VERTEX
  8
PLAN_1
 62
     2
  6
CONTINUOUS
 10
-0.427693
 20
-0.791244
  0
VERTEX
  8
PLAN_1
 62
     2
  6
CONTINUOUS
 10
-0.429240
 20
-0.789177
  0
VERTEX
  8
PLAN_1
 62
     2
  6
CONTINUOUS
 10
-0.430787
 20
-0.787110
  0
VERTEX
  8
PLAN_1
 62
     2
  6
CONTINUOUS
 10
-0.433370
 20
-0.781949
  0
VERTEX
  8
PLAN_1
 62
     2
  6
CONTINUOUS
 10
-0.434921
 20
-0.777303
  0
VERTEX
  8
PLAN_1
 62
     2
  6
CONTINUOUS
 10
-0.435953
 20
-0.771622
  0
VERTEX
  8
PLAN_1
 62
     2
  6
CONTINUOUS
 10
-0.435953
 20
-0.766976
  0
VERTEX
  8
PLAN_1
 62
     2
  6
CONTINUOUS
 10
-0.435437
 20
-0.761299
  0
VERTEX
  8
PLAN_1
 62
     2
  6
CONTINUOUS
 10
-0.434402
 20
-0.756134
  0
VERTEX
  8
PLAN_1
 62
     2
  6
CONTINUOUS
 10
-0.432854
 20
-0.751488
  0
VERTEX
  8
PLAN_1
 62
     2
  6
CONTINUOUS
 10
-0.430272
 20
-0.747358
  0
VERTEX
  8
PLAN_1
 62
     2
  6
CONTINUOUS
 10
-0.428724
 20
-0.745811
  0
VERTEX
  8
PLAN_1
 62
     2
  6
CONTINUOUS
 10
-0.426657
 20
-0.744260
  0
VERTEX
  8
PLAN_1
 62
     2
  6
CONTINUOUS
 10
-0.425110
 20
-0.742713
  0
VERTEX
  8
PLAN_1
 62
     2
  6
CONTINUOUS
 10
-0.423043
 20
-0.741677
  0
VERTEX
  8
PLAN_1
 62
     2
  6
CONTINUOUS
 10
-0.420980
 20
-0.740646
  0
VERTEX
  8
PLAN_1
 62
     2
  6
CONTINUOUS
 10
-0.418398
 20
-0.740130
  0
VERTEX
  8
PLAN_1
 62
     2
  6
CONTINUOUS
 10
-0.415819
 20
-0.739614
  0
VERTEX
  8
PLAN_1
 62
     2
  6
CONTINUOUS
 10
-0.413236
 20
-0.739614
  0
VERTEX
  8
PLAN_1
 62
     2
  6
CONTINUOUS
 10
-0.409622
 20
-0.740130
  0
VERTEX
  8
PLAN_1
 62
     2
  6
CONTINUOUS
 10
-0.407039
 20
-0.740646
  0
VERTEX
  8
PLAN_1
 62
     2
  6
CONTINUOUS
 10
-0.404461
 20
-0.741677
  0
VERTEX
  8
PLAN_1
 62
     2
  6
CONTINUOUS
 10
-0.402394
 20
-0.743228
  0
VERTEX
  8
PLAN_1
 62
     2
  6
CONTINUOUS
 10
-0.400327
 20
-0.744776
  0
VERTEX
  8
PLAN_1
 62
     2
  6
CONTINUOUS
 10
-0.399295
 20
-0.746327
  0
VERTEX
  8
PLAN_1
 62
     2
  6
CONTINUOUS
 10
-0.397748
 20
-0.747874
  0
VERTEX
  8
PLAN_1
 62
     2
  6
CONTINUOUS
 10
-0.397232
 20
-0.748906
  0
VERTEX
  8
PLAN_1
 62
     2
  6
CONTINUOUS
 10
-0.396717
 20
-0.748390
  0
VERTEX
  8
PLAN_1
 62
     2
  6
CONTINUOUS
 10
-0.396717
 20
-0.721028
  0
VERTEX
  8
PLAN_1
 62
     2
  6
CONTINUOUS
 10
-0.387937
 20
-0.721028
  0
VERTEX
  8
PLAN_1
 62
     2
  6
CONTINUOUS
 10
-0.387937
 20
-0.795890
  0
SEQEND
  8
0
  0
POLYLINE
  8
PLAN_1
 62
     2
  6
CONTINUOUS
 66
     1
 40
0.003000
 41
0.003000
  0
VERTEX
  8
PLAN_1
 62
     2
  6
CONTINUOUS
 10
-0.411685
 20
-0.789177
  0
VERTEX
  8
PLAN_1
 62
     2
  6
CONTINUOUS
 10
-0.409622
 20
-0.789177
  0
VERTEX
  8
PLAN_1
 62
     2
  6
CONTINUOUS
 10
-0.407039
 20
-0.788661
  0
VERTEX
  8
PLAN_1
 62
     2
  6
CONTINUOUS
 10
-0.404461
 20
-0.787110
  0
VERTEX
  8
PLAN_1
 62
     2
  6
CONTINUOUS
 10
-0.402394
 20
-0.785563
  0
VERTEX
  8
PLAN_1
 62
     2
  6
CONTINUOUS
 10
-0.400327
 20
-0.782980
  0
VERTEX
  8
PLAN_1
 62
     2
  6
CONTINUOUS
 10
-0.398264
 20
-0.779886
  0
VERTEX
  8
PLAN_1
 62
     2
  6
CONTINUOUS
 10
-0.397232
 20
-0.775752
  0
VERTEX
  8
PLAN_1
 62
     2
  6
CONTINUOUS
 10
-0.396717
 20
-0.771106
  0
VERTEX
  8
PLAN_1
 62
     2
  6
CONTINUOUS
 10
-0.397232
 20
-0.767492
  0
VERTEX
  8
PLAN_1
 62
     2
  6
CONTINUOUS
 10
-0.397232
 20
-0.763878
  0
VERTEX
  8
PLAN_1
 62
     2
  6
CONTINUOUS
 10
-0.398264
 20
-0.759748
  0
VERTEX
  8
PLAN_1
 62
     2
  6
CONTINUOUS
 10
-0.399295
 20
-0.756134
  0
VERTEX
  8
PLAN_1
 62
     2
  6
CONTINUOUS
 10
-0.401362
 20
-0.753035
  0
VERTEX
  8
PLAN_1
 62
     2
  6
CONTINUOUS
 10
-0.403941
 20
-0.750457
  0
VERTEX
  8
PLAN_1
 62
     2
  6
CONTINUOUS
 10
-0.405492
 20
-0.749425
  0
VERTEX
  8
PLAN_1
 62
     2
  6
CONTINUOUS
 10
-0.407039
 20
-0.748390
  0
VERTEX
  8
PLAN_1
 62
     2
  6
CONTINUOUS
 10
-0.409106
 20
-0.747874
  0
VERTEX
  8
PLAN_1
 62
     2
  6
CONTINUOUS
 10
-0.411685
 20
-0.747874
  0
VERTEX
  8
PLAN_1
 62
     2
  6
CONTINUOUS
 10
-0.414268
 20
-0.747874
  0
VERTEX
  8
PLAN_1
 62
     2
  6
CONTINUOUS
 10
-0.416335
 20
-0.748390
  0
VERTEX
  8
PLAN_1
 62
     2
  6
CONTINUOUS
 10
-0.418398
 20
-0.749425
  0
VERTEX
  8
PLAN_1
 62
     2
  6
CONTINUOUS
 10
-0.419949
 20
-0.749941
  0
VERTEX
  8
PLAN_1
 62
     2
  6
CONTINUOUS
 10
-0.422528
 20
-0.752520
  0
VERTEX
  8
PLAN_1
 62
     2
  6
CONTINUOUS
 10
-0.424594
 20
-0.755618
  0
VERTEX
  8
PLAN_1
 62
     2
  6
CONTINUOUS
 10
-0.425626
 20
-0.758717
  0
VERTEX
  8
PLAN_1
 62
     2
  6
CONTINUOUS
 10
-0.426142
 20
-0.762331
  0
VERTEX
  8
PLAN_1
 62
     2
  6
CONTINUOUS
 10
-0.426657
 20
-0.765429
  0
VERTEX
  8
PLAN_1
 62
     2
  6
CONTINUOUS
 10
-0.426657
 20
-0.768528
  0
VERTEX
  8
PLAN_1
 62
     2
  6
CONTINUOUS
 10
-0.426142
 20
-0.772657
  0
VERTEX
  8
PLAN_1
 62
     2
  6
CONTINUOUS
 10
-0.425626
 20
-0.776787
  0
VERTEX
  8
PLAN_1
 62
     2
  6
CONTINUOUS
 10
-0.424594
 20
-0.780402
  0
VERTEX
  8
PLAN_1
 62
     2
  6
CONTINUOUS
 10
-0.423043
 20
-0.783500
  0
VERTEX
  8
PLAN_1
 62
     2
  6
CONTINUOUS
 10
-0.420980
 20
-0.785563
  0
VERTEX
  8
PLAN_1
 62
     2
  6
CONTINUOUS
 10
-0.418398
 20
-0.787630
  0
VERTEX
  8
PLAN_1
 62
     2
  6
CONTINUOUS
 10
-0.415299
 20
-0.788661
  0
VERTEX
  8
PLAN_1
 62
     2
  6
CONTINUOUS
 10
-0.411685
 20
-0.789177
  0
SEQEND
  8
0
  0
SOLID
  8
PLAN_1
 62
     2
 10
-0.350248
 20
-0.733933
 11
-0.357476
 21
-0.733933
 12
-0.336827
 22
-0.719480
 13
-0.348185
 23
-0.719480
  0
POLYLINE
  8
PLAN_1
 62
     2
  6
CONTINUOUS
 66
     1
 40
0.003000
 41
0.003000
  0
VERTEX
  8
PLAN_1
 62
     2
  6
CONTINUOUS
 10
-0.350248
 20
-0.733933
  0
VERTEX
  8
PLAN_1
 62
     2
  6
CONTINUOUS
 10
-0.357476
 20
-0.733933
  0
VERTEX
  8
PLAN_1
 62
     2
  6
CONTINUOUS
 10
-0.348185
 20
-0.719480
  0
VERTEX
  8
PLAN_1
 62
     2
  6
CONTINUOUS
 10
-0.336827
 20
-0.719480
  0
VERTEX
  8
PLAN_1
 62
     2
  6
CONTINUOUS
 10
-0.350248
 20
-0.733933
  0
SEQEND
  8
0
  0
POLYLINE
  8
PLAN_1
 62
     2
  6
CONTINUOUS
 66
     1
 40
0.003000
 41
0.003000
  0
VERTEX
  8
PLAN_1
 62
     2
  6
CONTINUOUS
 10
-0.328567
 20
-0.778335
  0
VERTEX
  8
PLAN_1
 62
     2
  6
CONTINUOUS
 10
-0.329083
 20
-0.779886
  0
VERTEX
  8
PLAN_1
 62
     2
  6
CONTINUOUS
 10
-0.329598
 20
-0.781433
  0
VERTEX
  8
PLAN_1
 62
     2
  6
CONTINUOUS
 10
-0.330114
 20
-0.782980
  0
VERTEX
  8
PLAN_1
 62
     2
  6
CONTINUOUS
 10
-0.331146
 20
-0.785047
  0
VERTEX
  8
PLAN_1
 62
     2
  6
CONTINUOUS
 10
-0.332697
 20
-0.787630
  0
VERTEX
  8
PLAN_1
 62
     2
  6
CONTINUOUS
 10
-0.334244
 20
-0.789693
  0
VERTEX
  8
PLAN_1
 62
     2
  6
CONTINUOUS
 10
-0.336311
 20
-0.791760
  0
VERTEX
  8
PLAN_1
 62
     2
  6
CONTINUOUS
 10
-0.338374
 20
-0.793307
  0
VERTEX
  8
PLAN_1
 62
     2
  6
CONTINUOUS
 10
-0.339406
 20
-0.794339
  0
VERTEX
  8
PLAN_1
 62
     2
  6
CONTINUOUS
 10
-0.340441
 20
-0.794854
  0
VERTEX
  8
PLAN_1
 62
     2
  6
CONTINUOUS
 10
-0.341988
 20
-0.795374
  0
VERTEX
  8
PLAN_1
 62
     2
  6
CONTINUOUS
 10
-0.343539
 20
-0.795890
  0
VERTEX
  8
PLAN_1
 62
     2
  6
CONTINUOUS
 10
-0.345602
 20
-0.796406
  0
VERTEX
  8
PLAN_1
 62
     2
  6
CONTINUOUS
 10
-0.347669
 20
-0.796921
  0
VERTEX
  8
PLAN_1
 62
     2
  6
CONTINUOUS
 10
-0.350248
 20
-0.796921
  0
VERTEX
  8
PLAN_1
 62
     2
  6
CONTINUOUS
 10
-0.353346
 20
-0.797437
  0
VERTEX
  8
PLAN_1
 62
     2
  6
CONTINUOUS
 10
-0.355929
 20
-0.796921
  0
VERTEX
  8
PLAN_1
 62
     2
  6
CONTINUOUS
 10
-0.358508
 20
-0.796921
  0
VERTEX
  8
PLAN_1
 62
     2
  6
CONTINUOUS
 10
-0.361091
 20
-0.795890
  0
VERTEX
  8
PLAN_1
 62
     2
  6
CONTINUOUS
 10
-0.363673
 20
-0.795374
  0
VERTEX
  8
PLAN_1
 62
     2
  6
CONTINUOUS
 10
-0.365736
 20
-0.793823
  0
VERTEX
  8
PLAN_1
 62
     2
  6
CONTINUOUS
 10
-0.367803
 20
-0.792791
  0
VERTEX
  8
PLAN_1
 62
     2
  6
CONTINUOUS
 10
-0.369350
 20
-0.791244
  0
VERTEX
  8
PLAN_1
 62
     2
  6
CONTINUOUS
 10
-0.370902
 20
-0.789693
  0
VERTEX
  8
PLAN_1
 62
     2
  6
CONTINUOUS
 10
-0.374000
 20
-0.785563
  0
VERTEX
  8
PLAN_1
 62
     2
  6
CONTINUOUS
 10
-0.376063
 20
-0.780917
  0
VERTEX
  8
PLAN_1
 62
     2
  6
CONTINUOUS
 10
-0.377094
 20
-0.775752
  0
VERTEX
  8
PLAN_1
 62
     2
  6
CONTINUOUS
 10
-0.377610
 20
-0.770075
  0
VERTEX
  8
PLAN_1
 62
     2
  6
CONTINUOUS
 10
-0.377094
 20
-0.763878
  0
VERTEX
  8
PLAN_1
 62
     2
  6
CONTINUOUS
 10
-0.376063
 20
-0.758201
  0
VERTEX
  8
PLAN_1
 62
     2
  6
CONTINUOUS
 10
-0.375031
 20
-0.755618
  0
VERTEX
  8
PLAN_1
 62
     2
  6
CONTINUOUS
 10
-0.374000
 20
-0.753035
  0
VERTEX
  8
PLAN_1
 62
     2
  6
CONTINUOUS
 10
-0.372965
 20
-0.750457
  0
VERTEX
  8
PLAN_1
 62
     2
  6
CONTINUOUS
 10
-0.371417
 20
-0.748390
  0
VERTEX
  8
PLAN_1
 62
     2
  6
CONTINUOUS
 10
-0.369350
 20
-0.746327
  0
VERTEX
  8
PLAN_1
 62
     2
  6
CONTINUOUS
 10
-0.367803
 20
-0.744776
  0
VERTEX
  8
PLAN_1
 62
     2
  6
CONTINUOUS
 10
-0.365736
 20
-0.743228
  0
VERTEX
  8
PLAN_1
 62
     2
  6
CONTINUOUS
 10
-0.363157
 20
-0.742197
  0
VERTEX
  8
PLAN_1
 62
     2
  6
CONTINUOUS
 10
-0.360575
 20
-0.741161
  0
VERTEX
  8
PLAN_1
 62
     2
  6
CONTINUOUS
 10
-0.357992
 20
-0.740130
  0
VERTEX
  8
PLAN_1
 62
     2
  6
CONTINUOUS
 10
-0.354898
 20
-0.739614
  0
VERTEX
  8
PLAN_1
 62
     2
  6
CONTINUOUS
 10
-0.351283
 20
-0.739614
  0
VERTEX
  8
PLAN_1
 62
     2
  6
CONTINUOUS
 10
-0.348701
 20
-0.739614
  0
VERTEX
  8
PLAN_1
 62
     2
  6
CONTINUOUS
 10
-0.346118
 20
-0.740130
  0
VERTEX
  8
PLAN_1
 62
     2
  6
CONTINUOUS
 10
-0.343539
 20
-0.741161
  0
VERTEX
  8
PLAN_1
 62
     2
  6
CONTINUOUS
 10
-0.340957
 20
-0.741677
  0
VERTEX
  8
PLAN_1
 62
     2
  6
CONTINUOUS
 10
-0.338890
 20
-0.743228
  0
VERTEX
  8
PLAN_1
 62
     2
  6
CONTINUOUS
 10
-0.337343
 20
-0.744776
  0
VERTEX
  8
PLAN_1
 62
     2
  6
CONTINUOUS
 10
-0.335276
 20
-0.746327
  0
VERTEX
  8
PLAN_1
 62
     2
  6
CONTINUOUS
 10
-0.333728
 20
-0.748390
  0
VERTEX
  8
PLAN_1
 62
     2
  6
CONTINUOUS
 10
-0.331146
 20
-0.753035
  0
VERTEX
  8
PLAN_1
 62
     2
  6
CONTINUOUS
 10
-0.329598
 20
-0.758201
  0
VERTEX
  8
PLAN_1
 62
     2
  6
CONTINUOUS
 10
-0.328567
 20
-0.764394
  0
VERTEX
  8
PLAN_1
 62
     2
  6
CONTINUOUS
 10
-0.328047
 20
-0.771622
  0
VERTEX
  8
PLAN_1
 62
     2
  6
CONTINUOUS
 10
-0.367803
 20
-0.771622
  0
VERTEX
  8
PLAN_1
 62
     2
  6
CONTINUOUS
 10
-0.367287
 20
-0.775236
  0
VERTEX
  8
PLAN_1
 62
     2
  6
CONTINUOUS
 10
-0.366772
 20
-0.778850
  0
VERTEX
  8
PLAN_1
 62
     2
  6
CONTINUOUS
 10
-0.365736
 20
-0.781949
  0
VERTEX
  8
PLAN_1
 62
     2
  6
CONTINUOUS
 10
-0.363673
 20
-0.784531
  0
VERTEX
  8
PLAN_1
 62
     2
  6
CONTINUOUS
 10
-0.361606
 20
-0.786594
  0
VERTEX
  8
PLAN_1
 62
     2
  6
CONTINUOUS
 10
-0.359028
 20
-0.788146
  0
VERTEX
  8
PLAN_1
 62
     2
  6
CONTINUOUS
 10
-0.355929
 20
-0.789177
  0
VERTEX
  8
PLAN_1
 62
     2
  6
CONTINUOUS
 10
-0.351799
 20
-0.789177
  0
VERTEX
  8
PLAN_1
 62
     2
  6
CONTINUOUS
 10
-0.348701
 20
-0.789177
  0
VERTEX
  8
PLAN_1
 62
     2
  6
CONTINUOUS
 10
-0.346118
 20
-0.788146
  0
VERTEX
  8
PLAN_1
 62
     2
  6
CONTINUOUS
 10
-0.344055
 20
-0.787110
  0
VERTEX
  8
PLAN_1
 62
     2
  6
CONTINUOUS
 10
-0.341988
 20
-0.785563
  0
VERTEX
  8
PLAN_1
 62
     2
  6
CONTINUOUS
 10
-0.340441
 20
-0.783500
  0
VERTEX
  8
PLAN_1
 62
     2
  6
CONTINUOUS
 10
-0.338890
 20
-0.781949
  0
VERTEX
  8
PLAN_1
 62
     2
  6
CONTINUOUS
 10
-0.338374
 20
-0.780402
  0
VERTEX
  8
PLAN_1
 62
     2
  6
CONTINUOUS
 10
-0.337858
 20
-0.778335
  0
VERTEX
  8
PLAN_1
 62
     2
  6
CONTINUOUS
 10
-0.328567
 20
-0.778335
  0
SEQEND
  8
0
  0
POLYLINE
  8
PLAN_1
 62
     2
  6
CONTINUOUS
 66
     1
 40
0.003000
 41
0.003000
  0
VERTEX
  8
PLAN_1
 62
     2
  6
CONTINUOUS
 10
-0.337343
 20
-0.763878
  0
VERTEX
  8
PLAN_1
 62
     2
  6
CONTINUOUS
 10
-0.337858
 20
-0.760783
  0
VERTEX
  8
PLAN_1
 62
     2
  6
CONTINUOUS
 10
-0.338374
 20
-0.758201
  0
VERTEX
  8
PLAN_1
 62
     2
  6
CONTINUOUS
 10
-0.339406
 20
-0.755102
  0
VERTEX
  8
PLAN_1
 62
     2
  6
CONTINUOUS
 10
-0.340957
 20
-0.753035
  0
VERTEX
  8
PLAN_1
 62
     2
  6
CONTINUOUS
 10
-0.343020
 20
-0.750972
  0
VERTEX
  8
PLAN_1
 62
     2
  6
CONTINUOUS
 10
-0.345602
 20
-0.749425
  0
VERTEX
  8
PLAN_1
 62
     2
  6
CONTINUOUS
 10
-0.348701
 20
-0.748390
  0
VERTEX
  8
PLAN_1
 62
     2
  6
CONTINUOUS
 10
-0.352831
 20
-0.747874
  0
VERTEX
  8
PLAN_1
 62
     2
  6
CONTINUOUS
 10
-0.355929
 20
-0.748390
  0
VERTEX
  8
PLAN_1
 62
     2
  6
CONTINUOUS
 10
-0.358508
 20
-0.749425
  0
VERTEX
  8
PLAN_1
 62
     2
  6
CONTINUOUS
 10
-0.361091
 20
-0.750972
  0
VERTEX
  8
PLAN_1
 62
     2
  6
CONTINUOUS
 10
-0.363157
 20
-0.753035
  0
VERTEX
  8
PLAN_1
 62
     2
  6
CONTINUOUS
 10
-0.365220
 20
-0.755102
  0
VERTEX
  8
PLAN_1
 62
     2
  6
CONTINUOUS
 10
-0.366772
 20
-0.758201
  0
VERTEX
  8
PLAN_1
 62
     2
  6
CONTINUOUS
 10
-0.367287
 20
-0.760783
  0
VERTEX
  8
PLAN_1
 62
     2
  6
CONTINUOUS
 10
-0.367803
 20
-0.763878
  0
VERTEX
  8
PLAN_1
 62
     2
  6
CONTINUOUS
 10
-0.337343
 20
-0.763878
  0
SEQEND
  8
0
  0
POLYLINE
  8
PLAN_1
 62
     2
  6
CONTINUOUS
 66
     1
 40
0.003000
 41
0.003000
  0
VERTEX
  8
PLAN_1
 62
     2
  6
CONTINUOUS
 10
-0.286228
 20
-0.756650
  0
VERTEX
  8
PLAN_1
 62
     2
  6
CONTINUOUS
 10
-0.286228
 20
-0.755102
  0
VERTEX
  8
PLAN_1
 62
     2
  6
CONTINUOUS
 10
-0.286748
 20
-0.754071
  0
VERTEX
  8
PLAN_1
 62
     2
  6
CONTINUOUS
 10
-0.287264
 20
-0.752520
  0
VERTEX
  8
PLAN_1
 62
     2
  6
CONTINUOUS
 10
-0.288295
 20
-0.750972
  0
VERTEX
  8
PLAN_1
 62
     2
  6
CONTINUOUS
 10
-0.289843
 20
-0.749425
  0
VERTEX
  8
PLAN_1
 62
     2
  6
CONTINUOUS
 10
-0.292425
 20
-0.748390
  0
VERTEX
  8
PLAN_1
 62
     2
  6
CONTINUOUS
 10
-0.295008
 20
-0.747874
  0
VERTEX
  8
PLAN_1
 62
     2
  6
CONTINUOUS
 10
-0.299138
 20
-0.747358
  0
VERTEX
  8
PLAN_1
 62
     2
  6
CONTINUOUS
 10
-0.300169
 20
-0.747874
  0
VERTEX
  8
PLAN_1
 62
     2
  6
CONTINUOUS
 10
-0.301720
 20
-0.747874
  0
VERTEX
  8
PLAN_1
 62
     2
  6
CONTINUOUS
 10
-0.303783
 20
-0.748390
  0
VERTEX
  8
PLAN_1
 62
     2
  6
CONTINUOUS
 10
-0.305331
 20
-0.748906
  0
VERTEX
  8
PLAN_1
 62
     2
  6
CONTINUOUS
 10
-0.307398
 20
-0.749941
  0
VERTEX
  8
PLAN_1
 62
     2
  6
CONTINUOUS
 10
-0.308429
 20
-0.750972
  0
VERTEX
  8
PLAN_1
 62
     2
  6
CONTINUOUS
 10
-0.309465
 20
-0.753035
  0
VERTEX
  8
PLAN_1
 62
     2
  6
CONTINUOUS
 10
-0.309980
 20
-0.755102
  0
VERTEX
  8
PLAN_1
 62
     2
  6
CONTINUOUS
 10
-0.309980
 20
-0.756650
  0
VERTEX
  8
PLAN_1
 62
     2
  6
CONTINUOUS
 10
-0.309465
 20
-0.758201
  0
VERTEX
  8
PLAN_1
 62
     2
  6
CONTINUOUS
 10
-0.308429
 20
-0.759232
  0
VERTEX
  8
PLAN_1
 62
     2
  6
CONTINUOUS
 10
-0.307398
 20
-0.759748
  0
VERTEX
  8
PLAN_1
 62
     2
  6
CONTINUOUS
 10
-0.306366
 20
-0.760783
  0
VERTEX
  8
PLAN_1
 62
     2
  6
CONTINUOUS
 10
-0.304299
 20
-0.761299
  0
VERTEX
  8
PLAN_1
 62
     2
  6
CONTINUOUS
 10
-0.302236
 20
-0.761815
  0
VERTEX
  8
PLAN_1
 62
     2
  6
CONTINUOUS
 10
-0.300169
 20
-0.762331
  0
VERTEX
  8
PLAN_1
 62
     2
  6
CONTINUOUS
 10
-0.290878
 20
-0.764913
  0
VERTEX
  8
PLAN_1
 62
     2
  6
CONTINUOUS
 10
-0.286748
 20
-0.765945
  0
VERTEX
  8
PLAN_1
 62
     2
  6
CONTINUOUS
 10
-0.283650
 20
-0.767492
  0
VERTEX
  8
PLAN_1
 62
     2
  6
CONTINUOUS
 10
-0.281067
 20
-0.768528
  0
VERTEX
  8
PLAN_1
 62
     2
  6
CONTINUOUS
 10
-0.279004
 20
-0.770075
  0
VERTEX
  8
PLAN_1
 62
     2
  6
CONTINUOUS
 10
-0.277453
 20
-0.772142
  0
VERTEX
  8
PLAN_1
 62
     2
  6
CONTINUOUS
 10
-0.276421
 20
-0.774205
  0
VERTEX
  8
PLAN_1
 62
     2
  6
CONTINUOUS
 10
-0.275906
 20
-0.776787
  0
VERTEX
  8
PLAN_1
 62
     2
  6
CONTINUOUS
 10
-0.275390
 20
-0.779366
  0
VERTEX
  8
PLAN_1
 62
     2
  6
CONTINUOUS
 10
-0.275906
 20
-0.782980
  0
VERTEX
  8
PLAN_1
 62
     2
  6
CONTINUOUS
 10
-0.277453
 20
-0.786594
  0
VERTEX
  8
PLAN_1
 62
     2
  6
CONTINUOUS
 10
-0.279004
 20
-0.789693
  0
VERTEX
  8
PLAN_1
 62
     2
  6
CONTINUOUS
 10
-0.281583
 20
-0.792276
  0
VERTEX
  8
PLAN_1
 62
     2
  6
CONTINUOUS
 10
-0.284681
 20
-0.794339
  0
VERTEX
  8
PLAN_1
 62
     2
  6
CONTINUOUS
 10
-0.288295
 20
-0.795890
  0
VERTEX
  8
PLAN_1
 62
     2
  6
CONTINUOUS
 10
-0.292425
 20
-0.796921
  0
VERTEX
  8
PLAN_1
 62
     2
  6
CONTINUOUS
 10
-0.297071
 20
-0.797437
  0
VERTEX
  8
PLAN_1
 62
     2
  6
CONTINUOUS
 10
-0.300685
 20
-0.796921
  0
VERTEX
  8
PLAN_1
 62
     2
  6
CONTINUOUS
 10
-0.304299
 20
-0.796406
  0
VERTEX
  8
PLAN_1
 62
     2
  6
CONTINUOUS
 10
-0.307398
 20
-0.795890
  0
VERTEX
  8
PLAN_1
 62
     2
  6
CONTINUOUS
 10
-0.309980
 20
-0.795374
  0
VERTEX
  8
PLAN_1
 62
     2
  6
CONTINUOUS
 10
-0.312043
 20
-0.794339
  0
VERTEX
  8
PLAN_1
 62
     2
  6
CONTINUOUS
 10
-0.314110
 20
-0.792791
  0
VERTEX
  8
PLAN_1
 62
     2
  6
CONTINUOUS
 10
-0.315657
 20
-0.791760
  0
VERTEX
  8
PLAN_1
 62
     2
  6
CONTINUOUS
 10
-0.316689
 20
-0.790209
  0
VERTEX
  8
PLAN_1
 62
     2
  6
CONTINUOUS
 10
-0.318756
 20
-0.787110
  0
VERTEX
  8
PLAN_1
 62
     2
  6
CONTINUOUS
 10
-0.319787
 20
-0.784016
  0
VERTEX
  8
PLAN_1
 62
     2
  6
CONTINUOUS
 10
-0.320303
 20
-0.780917
  0
VERTEX
  8
PLAN_1
 62
     2
  6
CONTINUOUS
 10
-0.320303
 20
-0.778335
  0
VERTEX
  8
PLAN_1
 62
     2
  6
CONTINUOUS
 10
-0.311528
 20
-0.778335
  0
VERTEX
  8
PLAN_1
 62
     2
  6
CONTINUOUS
 10
-0.311528
 20
-0.779886
  0
VERTEX
  8
PLAN_1
 62
     2
  6
CONTINUOUS
 10
-0.311012
 20
-0.781949
  0
VERTEX
  8
PLAN_1
 62
     2
  6
CONTINUOUS
 10
-0.310496
 20
-0.783500
  0
VERTEX
  8
PLAN_1
 62
     2
  6
CONTINUOUS
 10
-0.308945
 20
-0.785563
  0
VERTEX
  8
PLAN_1
 62
     2
  6
CONTINUOUS
 10
-0.307398
 20
-0.787110
  0
VERTEX
  8
PLAN_1
 62
     2
  6
CONTINUOUS
 10
-0.304815
 20
-0.788146
  0
VERTEX
  8
PLAN_1
 62
     2
  6
CONTINUOUS
 10
-0.301720
 20
-0.789177
  0
VERTEX
  8
PLAN_1
 62
     2
  6
CONTINUOUS
 10
-0.297071
 20
-0.789177
  0
VERTEX
  8
PLAN_1
 62
     2
  6
CONTINUOUS
 10
-0.295008
 20
-0.789177
  0
VERTEX
  8
PLAN_1
 62
     2
  6
CONTINUOUS
 10
-0.292425
 20
-0.788661
  0
VERTEX
  8
PLAN_1
 62
     2
  6
CONTINUOUS
 10
-0.290362
 20
-0.788146
  0
VERTEX
  8
PLAN_1
 62
     2
  6
CONTINUOUS
 10
-0.288295
 20
-0.787110
  0
VERTEX
  8
PLAN_1
 62
     2
  6
CONTINUOUS
 10
-0.286748
 20
-0.786079
  0
VERTEX
  8
PLAN_1
 62
     2
  6
CONTINUOUS
 10
-0.285713
 20
-0.784531
  0
VERTEX
  8
PLAN_1
 62
     2
  6
CONTINUOUS
 10
-0.285197
 20
-0.782980
  0
VERTEX
  8
PLAN_1
 62
     2
  6
CONTINUOUS
 10
-0.284681
 20
-0.780917
  0
VERTEX
  8
PLAN_1
 62
     2
  6
CONTINUOUS
 10
-0.284681
 20
-0.779366
  0
VERTEX
  8
PLAN_1
 62
     2
  6
CONTINUOUS
 10
-0.285197
 20
-0.777819
  0
VERTEX
  8
PLAN_1
 62
     2
  6
CONTINUOUS
 10
-0.286228
 20
-0.776787
  0
VERTEX
  8
PLAN_1
 62
     2
  6
CONTINUOUS
 10
-0.287264
 20
-0.775752
  0
VERTEX
  8
PLAN_1
 62
     2
  6
CONTINUOUS
 10
-0.288811
 20
-0.775236
  0
VERTEX
  8
PLAN_1
 62
     2
  6
CONTINUOUS
 10
-0.290362
 20
-0.774205
  0
VERTEX
  8
PLAN_1
 62
     2
  6
CONTINUOUS
 10
-0.292941
 20
-0.773689
  0
VERTEX
  8
PLAN_1
 62
     2
  6
CONTINUOUS
 10
-0.295524
 20
-0.772657
  0
VERTEX
  8
PLAN_1
 62
     2
  6
CONTINUOUS
 10
-0.306366
 20
-0.770075
  0
VERTEX
  8
PLAN_1
 62
     2
  6
CONTINUOUS
 10
-0.308945
 20
-0.769559
  0
VERTEX
  8
PLAN_1
 62
     2
  6
CONTINUOUS
 10
-0.311528
 20
-0.768528
  0
VERTEX
  8
PLAN_1
 62
     2
  6
CONTINUOUS
 10
-0.313594
 20
-0.766976
  0
VERTEX
  8
PLAN_1
 62
     2
  6
CONTINUOUS
 10
-0.315142
 20
-0.765945
  0
VERTEX
  8
PLAN_1
 62
     2
  6
CONTINUOUS
 10
-0.316689
 20
-0.763878
  0
VERTEX
  8
PLAN_1
 62
     2
  6
CONTINUOUS
 10
-0.317724
 20
-0.761815
  0
VERTEX
  8
PLAN_1
 62
     2
  6
CONTINUOUS
 10
-0.318756
 20
-0.759748
  0
VERTEX
  8
PLAN_1
 62
     2
  6
CONTINUOUS
 10
-0.318756
 20
-0.757169
  0
VERTEX
  8
PLAN_1
 62
     2
  6
CONTINUOUS
 10
-0.318240
 20
-0.753035
  0
VERTEX
  8
PLAN_1
 62
     2
  6
CONTINUOUS
 10
-0.317209
 20
-0.749425
  0
VERTEX
  8
PLAN_1
 62
     2
  6
CONTINUOUS
 10
-0.315142
 20
-0.746327
  0
VERTEX
  8
PLAN_1
 62
     2
  6
CONTINUOUS
 10
-0.312559
 20
-0.743744
  0
VERTEX
  8
PLAN_1
 62
     2
  6
CONTINUOUS
 10
-0.309465
 20
-0.742197
  0
VERTEX
  8
PLAN_1
 62
     2
  6
CONTINUOUS
 10
-0.305850
 20
-0.740646
  0
VERTEX
  8
PLAN_1
 62
     2
  6
CONTINUOUS
 10
-0.302236
 20
-0.740130
  0
VERTEX
  8
PLAN_1
 62
     2
  6
CONTINUOUS
 10
-0.298106
 20
-0.739614
  0
VERTEX
  8
PLAN_1
 62
     2
  6
CONTINUOUS
 10
-0.294492
 20
-0.739614
  0
VERTEX
  8
PLAN_1
 62
     2
  6
CONTINUOUS
 10
-0.291909
 20
-0.740130
  0
VERTEX
  8
PLAN_1
 62
     2
  6
CONTINUOUS
 10
-0.288811
 20
-0.741161
  0
VERTEX
  8
PLAN_1
 62
     2
  6
CONTINUOUS
 10
-0.286748
 20
-0.742197
  0
VERTEX
  8
PLAN_1
 62
     2
  6
CONTINUOUS
 10
-0.283134
 20
-0.744260
  0
VERTEX
  8
PLAN_1
 62
     2
  6
CONTINUOUS
 10
-0.280551
 20
-0.747358
  0
VERTEX
  8
PLAN_1
 62
     2
  6
CONTINUOUS
 10
-0.279004
 20
-0.749941
  0
VERTEX
  8
PLAN_1
 62
     2
  6
CONTINUOUS
 10
-0.277969
 20
-0.753035
  0
VERTEX
  8
PLAN_1
 62
     2
  6
CONTINUOUS
 10
-0.277453
 20
-0.755102
  0
VERTEX
  8
PLAN_1
 62
     2
  6
CONTINUOUS
 10
-0.277453
 20
-0.756650
  0
VERTEX
  8
PLAN_1
 62
     2
  6
CONTINUOUS
 10
-0.286228
 20
-0.756650
  0
SEQEND
  8
0
  0
POLYLINE
  8
PLAN_1
 62
     2
  6
CONTINUOUS
 66
     1
 40
0.003000
 41
0.003000
  0
VERTEX
  8
PLAN_1
 62
     2
  6
CONTINUOUS
 10
-0.236665
 20
-0.741161
  0
VERTEX
  8
PLAN_1
 62
     2
  6
CONTINUOUS
 10
-0.228406
 20
-0.741161
  0
VERTEX
  8
PLAN_1
 62
     2
  6
CONTINUOUS
 10
-0.228406
 20
-0.748906
  0
VERTEX
  8
PLAN_1
 62
     2
  6
CONTINUOUS
 10
-0.227890
 20
-0.748906
  0
VERTEX
  8
PLAN_1
 62
     2
  6
CONTINUOUS
 10
-0.226858
 20
-0.747874
  0
VERTEX
  8
PLAN_1
 62
     2
  6
CONTINUOUS
 10
-0.225827
 20
-0.746327
  0
VERTEX
  8
PLAN_1
 62
     2
  6
CONTINUOUS
 10
-0.224276
 20
-0.744776
  0
VERTEX
  8
PLAN_1
 62
     2
  6
CONTINUOUS
 10
-0.222728
 20
-0.743228
  0
VERTEX
  8
PLAN_1
 62
     2
  6
CONTINUOUS
 10
-0.220661
 20
-0.741677
  0
VERTEX
  8
PLAN_1
 62
     2
  6
CONTINUOUS
 10
-0.218083
 20
-0.740646
  0
VERTEX
  8
PLAN_1
 62
     2
  6
CONTINUOUS
 10
-0.214984
 20
-0.740130
  0
VERTEX
  8
PLAN_1
 62
     2
  6
CONTINUOUS
 10
-0.211886
 20
-0.739614
  0
VERTEX
  8
PLAN_1
 62
     2
  6
CONTINUOUS
 10
-0.209303
 20
-0.739614
  0
VERTEX
  8
PLAN_1
 62
     2
  6
CONTINUOUS
 10
-0.206724
 20
-0.740130
  0
VERTEX
  8
PLAN_1
 62
     2
  6
CONTINUOUS
 10
-0.204142
 20
-0.740646
  0
VERTEX
  8
PLAN_1
 62
     2
  6
CONTINUOUS
 10
-0.202075
 20
-0.741677
  0
VERTEX
  8
PLAN_1
 62
     2
  6
CONTINUOUS
 10
-0.200012
 20
-0.742713
  0
VERTEX
  8
PLAN_1
 62
     2
  6
CONTINUOUS
 10
-0.197945
 20
-0.744260
  0
VERTEX
  8
PLAN_1
 62
     2
  6
CONTINUOUS
 10
-0.196398
 20
-0.745811
  0
VERTEX
  8
PLAN_1
 62
     2
  6
CONTINUOUS
 10
-0.194846
 20
-0.747358
  0
VERTEX
  8
PLAN_1
 62
     2
  6
CONTINUOUS
 10
-0.192268
 20
-0.751488
  0
VERTEX
  8
PLAN_1
 62
     2
  6
CONTINUOUS
 10
-0.190717
 20
-0.756134
  0
VERTEX
  8
PLAN_1
 62
     2
  6
CONTINUOUS
 10
-0.189169
 20
-0.761299
  0
VERTEX
  8
PLAN_1
 62
     2
  6
CONTINUOUS
 10
-0.189169
 20
-0.766976
  0
VERTEX
  8
PLAN_1
 62
     2
  6
CONTINUOUS
 10
-0.189169
 20
-0.771622
  0
VERTEX
  8
PLAN_1
 62
     2
  6
CONTINUOUS
 10
-0.190201
 20
-0.777303
  0
VERTEX
  8
PLAN_1
 62
     2
  6
CONTINUOUS
 10
-0.191752
 20
-0.781949
  0
VERTEX
  8
PLAN_1
 62
     2
  6
CONTINUOUS
 10
-0.193815
 20
-0.787110
  0
VERTEX
  8
PLAN_1
 62
     2
  6
CONTINUOUS
 10
-0.195366
 20
-0.789177
  0
VERTEX
  8
PLAN_1
 62
     2
  6
CONTINUOUS
 10
-0.197429
 20
-0.791244
  0
VERTEX
  8
PLAN_1
 62
     2
  6
CONTINUOUS
 10
-0.198976
 20
-0.792791
  0
VERTEX
  8
PLAN_1
 62
     2
  6
CONTINUOUS
 10
-0.201559
 20
-0.794339
  0
VERTEX
  8
PLAN_1
 62
     2
  6
CONTINUOUS
 10
-0.204142
 20
-0.795374
  0
VERTEX
  8
PLAN_1
 62
     2
  6
CONTINUOUS
 10
-0.206724
 20
-0.796406
  0
VERTEX
  8
PLAN_1
 62
     2
  6
CONTINUOUS
 10
-0.209819
 20
-0.796921
  0
VERTEX
  8
PLAN_1
 62
     2
  6
CONTINUOUS
 10
-0.212917
 20
-0.797437
  0
VERTEX
  8
PLAN_1
 62
     2
  6
CONTINUOUS
 10
-0.215500
 20
-0.796921
  0
VERTEX
  8
PLAN_1
 62
     2
  6
CONTINUOUS
 10
-0.218083
 20
-0.796406
  0
VERTEX
  8
PLAN_1
 62
     2
  6
CONTINUOUS
 10
-0.220146
 20
-0.795890
  0
VERTEX
  8
PLAN_1
 62
     2
  6
CONTINUOUS
 10
-0.222213
 20
-0.794854
  0
VERTEX
  8
PLAN_1
 62
     2
  6
CONTINUOUS
 10
-0.223760
 20
-0.793823
  0
VERTEX
  8
PLAN_1
 62
     2
  6
CONTINUOUS
 10
-0.225307
 20
-0.792791
  0
VERTEX
  8
PLAN_1
 62
     2
  6
CONTINUOUS
 10
-0.226343
 20
-0.791244
  0
VERTEX
  8
PLAN_1
 62
     2
  6
CONTINUOUS
 10
-0.227374
 20
-0.789693
  0
VERTEX
  8
PLAN_1
 62
     2
  6
CONTINUOUS
 10
-0.227890
 20
-0.789693
  0
VERTEX
  8
PLAN_1
 62
     2
  6
CONTINUOUS
 10
-0.227890
 20
-0.817055
  0
VERTEX
  8
PLAN_1
 62
     2
  6
CONTINUOUS
 10
-0.236665
 20
-0.817055
  0
VERTEX
  8
PLAN_1
 62
     2
  6
CONTINUOUS
 10
-0.236665
 20
-0.741161
  0
SEQEND
  8
0
  0
POLYLINE
  8
PLAN_1
 62
     2
  6
CONTINUOUS
 66
     1
 40
0.003000
 41
0.003000
  0
VERTEX
  8
PLAN_1
 62
     2
  6
CONTINUOUS
 10
-0.212917
 20
-0.789177
  0
VERTEX
  8
PLAN_1
 62
     2
  6
CONTINUOUS
 10
-0.209819
 20
-0.788661
  0
VERTEX
  8
PLAN_1
 62
     2
  6
CONTINUOUS
 10
-0.206724
 20
-0.787630
  0
VERTEX
  8
PLAN_1
 62
     2
  6
CONTINUOUS
 10
-0.204142
 20
-0.785563
  0
VERTEX
  8
PLAN_1
 62
     2
  6
CONTINUOUS
 10
-0.202075
 20
-0.783500
  0
VERTEX
  8
PLAN_1
 62
     2
  6
CONTINUOUS
 10
-0.200528
 20
-0.780402
  0
VERTEX
  8
PLAN_1
 62
     2
  6
CONTINUOUS
 10
-0.199496
 20
-0.776787
  0
VERTEX
  8
PLAN_1
 62
     2
  6
CONTINUOUS
 10
-0.198976
 20
-0.772657
  0
VERTEX
  8
PLAN_1
 62
     2
  6
CONTINUOUS
 10
-0.198461
 20
-0.768528
  0
VERTEX
  8
PLAN_1
 62
     2
  6
CONTINUOUS
 10
-0.198461
 20
-0.765429
  0
VERTEX
  8
PLAN_1
 62
     2
  6
CONTINUOUS
 10
-0.198976
 20
-0.762331
  0
VERTEX
  8
PLAN_1
 62
     2
  6
CONTINUOUS
 10
-0.199496
 20
-0.758717
  0
VERTEX
  8
PLAN_1
 62
     2
  6
CONTINUOUS
 10
-0.200528
 20
-0.755618
  0
VERTEX
  8
PLAN_1
 62
     2
  6
CONTINUOUS
 10
-0.202591
 20
-0.752520
  0
VERTEX
  8
PLAN_1
 62
     2
  6
CONTINUOUS
 10
-0.205173
 20
-0.749941
  0
VERTEX
  8
PLAN_1
 62
     2
  6
CONTINUOUS
 10
-0.206724
 20
-0.749425
  0
VERTEX
  8
PLAN_1
 62
     2
  6
CONTINUOUS
 10
-0.208787
 20
-0.748390
  0
VERTEX
  8
PLAN_1
 62
     2
  6
CONTINUOUS
 10
-0.210854
 20
-0.747874
  0
VERTEX
  8
PLAN_1
 62
     2
  6
CONTINUOUS
 10
-0.213433
 20
-0.747874
  0
VERTEX
  8
PLAN_1
 62
     2
  6
CONTINUOUS
 10
-0.215500
 20
-0.747874
  0
VERTEX
  8
PLAN_1
 62
     2
  6
CONTINUOUS
 10
-0.217563
 20
-0.748390
  0
VERTEX
  8
PLAN_1
 62
     2
  6
CONTINUOUS
 10
-0.219630
 20
-0.749425
  0
VERTEX
  8
PLAN_1
 62
     2
  6
CONTINUOUS
 10
-0.221177
 20
-0.750457
  0
VERTEX
  8
PLAN_1
 62
     2
  6
CONTINUOUS
 10
-0.223760
 20
-0.753035
  0
VERTEX
  8
PLAN_1
 62
     2
  6
CONTINUOUS
 10
-0.225827
 20
-0.756134
  0
VERTEX
  8
PLAN_1
 62
     2
  6
CONTINUOUS
 10
-0.226858
 20
-0.759748
  0
VERTEX
  8
PLAN_1
 62
     2
  6
CONTINUOUS
 10
-0.227374
 20
-0.763878
  0
VERTEX
  8
PLAN_1
 62
     2
  6
CONTINUOUS
 10
-0.227890
 20
-0.767492
  0
VERTEX
  8
PLAN_1
 62
     2
  6
CONTINUOUS
 10
-0.227890
 20
-0.771106
  0
VERTEX
  8
PLAN_1
 62
     2
  6
CONTINUOUS
 10
-0.227890
 20
-0.775752
  0
VERTEX
  8
PLAN_1
 62
     2
  6
CONTINUOUS
 10
-0.226343
 20
-0.779886
  0
VERTEX
  8
PLAN_1
 62
     2
  6
CONTINUOUS
 10
-0.224791
 20
-0.782980
  0
VERTEX
  8
PLAN_1
 62
     2
  6
CONTINUOUS
 10
-0.222728
 20
-0.785563
  0
VERTEX
  8
PLAN_1
 62
     2
  6
CONTINUOUS
 10
-0.220661
 20
-0.787110
  0
VERTEX
  8
PLAN_1
 62
     2
  6
CONTINUOUS
 10
-0.218083
 20
-0.788661
  0
VERTEX
  8
PLAN_1
 62
     2
  6
CONTINUOUS
 10
-0.215500
 20
-0.789177
  0
VERTEX
  8
PLAN_1
 62
     2
  6
CONTINUOUS
 10
-0.212917
 20
-0.789177
  0
SEQEND
  8
0
  0
POLYLINE
  8
PLAN_1
 62
     2
  6
CONTINUOUS
 66
     1
 40
0.003000
 41
0.003000
  0
VERTEX
  8
PLAN_1
 62
     2
  6
CONTINUOUS
 10
-0.156126
 20
-0.739614
  0
VERTEX
  8
PLAN_1
 62
     2
  6
CONTINUOUS
 10
-0.153028
 20
-0.739614
  0
VERTEX
  8
PLAN_1
 62
     2
  6
CONTINUOUS
 10
-0.149933
 20
-0.740130
  0
VERTEX
  8
PLAN_1
 62
     2
  6
CONTINUOUS
 10
-0.147350
 20
-0.741161
  0
VERTEX
  8
PLAN_1
 62
     2
  6
CONTINUOUS
 10
-0.144768
 20
-0.742197
  0
VERTEX
  8
PLAN_1
 62
     2
  6
CONTINUOUS
 10
-0.142705
 20
-0.743744
  0
VERTEX
  8
PLAN_1
 62
     2
  6
CONTINUOUS
 10
-0.140638
 20
-0.745291
  0
VERTEX
  8
PLAN_1
 62
     2
  6
CONTINUOUS
 10
-0.138575
 20
-0.746843
  0
VERTEX
  8
PLAN_1
 62
     2
  6
CONTINUOUS
 10
-0.137024
 20
-0.748906
  0
VERTEX
  8
PLAN_1
 62
     2
  6
CONTINUOUS
 10
-0.133925
 20
-0.753035
  0
VERTEX
  8
PLAN_1
 62
     2
  6
CONTINUOUS
 10
-0.132378
 20
-0.758201
  0
VERTEX
  8
PLAN_1
 62
     2
  6
CONTINUOUS
 10
-0.131346
 20
-0.763362
  0
VERTEX
  8
PLAN_1
 62
     2
  6
CONTINUOUS
 10
-0.130831
 20
-0.768528
  0
VERTEX
  8
PLAN_1
 62
     2
  6
CONTINUOUS
 10
-0.131346
 20
-0.773689
  0
VERTEX
  8
PLAN_1
 62
     2
  6
CONTINUOUS
 10
-0.132378
 20
-0.778850
  0
VERTEX
  8
PLAN_1
 62
     2
  6
CONTINUOUS
 10
-0.133925
 20
-0.783500
  0
VERTEX
  8
PLAN_1
 62
     2
  6
CONTINUOUS
 10
-0.137024
 20
-0.788146
  0
VERTEX
  8
PLAN_1
 62
     2
  6
CONTINUOUS
 10
-0.138575
 20
-0.790209
  0
VERTEX
  8
PLAN_1
 62
     2
  6
CONTINUOUS
 10
-0.140638
 20
-0.791760
  0
VERTEX
  8
PLAN_1
 62
     2
  6
CONTINUOUS
 10
-0.142705
 20
-0.793307
  0
VERTEX
  8
PLAN_1
 62
     2
  6
CONTINUOUS
 10
-0.144768
 20
-0.794339
  0
VERTEX
  8
PLAN_1
 62
     2
  6
CONTINUOUS
 10
-0.147350
 20
-0.795890
  0
VERTEX
  8
PLAN_1
 62
     2
  6
CONTINUOUS
 10
-0.149933
 20
-0.796406
  0
VERTEX
  8
PLAN_1
 62
     2
  6
CONTINUOUS
 10
-0.153028
 20
-0.796921
  0
VERTEX
  8
PLAN_1
 62
     2
  6
CONTINUOUS
 10
-0.156126
 20
-0.796921
  0
VERTEX
  8
PLAN_1
 62
     2
  6
CONTINUOUS
 10
-0.159224
 20
-0.796921
  0
VERTEX
  8
PLAN_1
 62
     2
  6
CONTINUOUS
 10
-0.162323
 20
-0.796406
  0
VERTEX
  8
PLAN_1
 62
     2
  6
CONTINUOUS
 10
-0.164906
 20
-0.795890
  0
VERTEX
  8
PLAN_1
 62
     2
  6
CONTINUOUS
 10
-0.167484
 20
-0.794339
  0
VERTEX
  8
PLAN_1
 62
     2
  6
CONTINUOUS
 10
-0.169551
 20
-0.793307
  0
VERTEX
  8
PLAN_1
 62
     2
  6
CONTINUOUS
 10
-0.171614
 20
-0.791760
  0
VERTEX
  8
PLAN_1
 62
     2
  6
CONTINUOUS
 10
-0.173681
 20
-0.790209
  0
VERTEX
  8
PLAN_1
 62
     2
  6
CONTINUOUS
 10
-0.175228
 20
-0.788146
  0
VERTEX
  8
PLAN_1
 62
     2
  6
CONTINUOUS
 10
-0.177811
 20
-0.783500
  0
VERTEX
  8
PLAN_1
 62
     2
  6
CONTINUOUS
 10
-0.179874
 20
-0.778850
  0
VERTEX
  8
PLAN_1
 62
     2
  6
CONTINUOUS
 10
-0.180909
 20
-0.773689
  0
VERTEX
  8
PLAN_1
 62
     2
  6
CONTINUOUS
 10
-0.181425
 20
-0.768528
  0
VERTEX
  8
PLAN_1
 62
     2
  6
CONTINUOUS
 10
-0.180909
 20
-0.763362
  0
VERTEX
  8
PLAN_1
 62
     2
  6
CONTINUOUS
 10
-0.179874
 20
-0.758201
  0
VERTEX
  8
PLAN_1
 62
     2
  6
CONTINUOUS
 10
-0.177811
 20
-0.753035
  0
VERTEX
  8
PLAN_1
 62
     2
  6
CONTINUOUS
 10
-0.175228
 20
-0.748906
  0
VERTEX
  8
PLAN_1
 62
     2
  6
CONTINUOUS
 10
-0.173681
 20
-0.746843
  0
VERTEX
  8
PLAN_1
 62
     2
  6
CONTINUOUS
 10
-0.171614
 20
-0.745291
  0
VERTEX
  8
PLAN_1
 62
     2
  6
CONTINUOUS
 10
-0.169551
 20
-0.743744
  0
VERTEX
  8
PLAN_1
 62
     2
  6
CONTINUOUS
 10
-0.167484
 20
-0.742197
  0
VERTEX
  8
PLAN_1
 62
     2
  6
CONTINUOUS
 10
-0.164906
 20
-0.741161
  0
VERTEX
  8
PLAN_1
 62
     2
  6
CONTINUOUS
 10
-0.162323
 20
-0.740130
  0
VERTEX
  8
PLAN_1
 62
     2
  6
CONTINUOUS
 10
-0.159224
 20
-0.739614
  0
VERTEX
  8
PLAN_1
 62
     2
  6
CONTINUOUS
 10
-0.156126
 20
-0.739614
  0
SEQEND
  8
0
  0
POLYLINE
  8
PLAN_1
 62
     2
  6
CONTINUOUS
 66
     1
 40
0.003000
 41
0.003000
  0
VERTEX
  8
PLAN_1
 62
     2
  6
CONTINUOUS
 10
-0.156126
 20
-0.789177
  0
VERTEX
  8
PLAN_1
 62
     2
  6
CONTINUOUS
 10
-0.153547
 20
-0.789177
  0
VERTEX
  8
PLAN_1
 62
     2
  6
CONTINUOUS
 10
-0.151480
 20
-0.788661
  0
VERTEX
  8
PLAN_1
 62
     2
  6
CONTINUOUS
 10
-0.149933
 20
-0.788146
  0
VERTEX
  8
PLAN_1
 62
     2
  6
CONTINUOUS
 10
-0.147866
 20
-0.787110
  0
VERTEX
  8
PLAN_1
 62
     2
  6
CONTINUOUS
 10
-0.145283
 20
-0.784531
  0
VERTEX
  8
PLAN_1
 62
     2
  6
CONTINUOUS
 10
-0.143220
 20
-0.781433
  0
VERTEX
  8
PLAN_1
 62
     2
  6
CONTINUOUS
 10
-0.141669
 20
-0.778335
  0
VERTEX
  8
PLAN_1
 62
     2
  6
CONTINUOUS
 10
-0.140638
 20
-0.774720
  0
VERTEX
  8
PLAN_1
 62
     2
  6
CONTINUOUS
 10
-0.140122
 20
-0.771622
  0
VERTEX
  8
PLAN_1
 62
     2
  6
CONTINUOUS
 10
-0.140122
 20
-0.768528
  0
VERTEX
  8
PLAN_1
 62
     2
  6
CONTINUOUS
 10
-0.140122
 20
-0.765429
  0
VERTEX
  8
PLAN_1
 62
     2
  6
CONTINUOUS
 10
-0.140638
 20
-0.761815
  0
VERTEX
  8
PLAN_1
 62
     2
  6
CONTINUOUS
 10
-0.141669
 20
-0.758717
  0
VERTEX
  8
PLAN_1
 62
     2
  6
CONTINUOUS
 10
-0.143220
 20
-0.755102
  0
VERTEX
  8
PLAN_1
 62
     2
  6
CONTINUOUS
 10
-0.145283
 20
-0.752004
  0
VERTEX
  8
PLAN_1
 62
     2
  6
CONTINUOUS
 10
-0.147866
 20
-0.749941
  0
VERTEX
  8
PLAN_1
 62
     2
  6
CONTINUOUS
 10
-0.149933
 20
-0.748906
  0
VERTEX
  8
PLAN_1
 62
     2
  6
CONTINUOUS
 10
-0.151480
 20
-0.748390
  0
VERTEX
  8
PLAN_1
 62
     2
  6
CONTINUOUS
 10
-0.153547
 20
-0.747874
  0
VERTEX
  8
PLAN_1
 62
     2
  6
CONTINUOUS
 10
-0.156126
 20
-0.747358
  0
VERTEX
  8
PLAN_1
 62
     2
  6
CONTINUOUS
 10
-0.158193
 20
-0.747874
  0
VERTEX
  8
PLAN_1
 62
     2
  6
CONTINUOUS
 10
-0.160256
 20
-0.748390
  0
VERTEX
  8
PLAN_1
 62
     2
  6
CONTINUOUS
 10
-0.162323
 20
-0.748906
  0
VERTEX
  8
PLAN_1
 62
     2
  6
CONTINUOUS
 10
-0.163870
 20
-0.749941
  0
VERTEX
  8
PLAN_1
 62
     2
  6
CONTINUOUS
 10
-0.166969
 20
-0.752004
  0
VERTEX
  8
PLAN_1
 62
     2
  6
CONTINUOUS
 10
-0.169035
 20
-0.755102
  0
VERTEX
  8
PLAN_1
 62
     2
  6
CONTINUOUS
 10
-0.170067
 20
-0.758717
  0
VERTEX
  8
PLAN_1
 62
     2
  6
CONTINUOUS
 10
-0.171098
 20
-0.761815
  0
VERTEX
  8
PLAN_1
 62
     2
  6
CONTINUOUS
 10
-0.171614
 20
-0.765429
  0
VERTEX
  8
PLAN_1
 62
     2
  6
CONTINUOUS
 10
-0.171614
 20
-0.768528
  0
VERTEX
  8
PLAN_1
 62
     2
  6
CONTINUOUS
 10
-0.171614
 20
-0.771622
  0
VERTEX
  8
PLAN_1
 62
     2
  6
CONTINUOUS
 10
-0.171098
 20
-0.774720
  0
VERTEX
  8
PLAN_1
 62
     2
  6
CONTINUOUS
 10
-0.170067
 20
-0.778335
  0
VERTEX
  8
PLAN_1
 62
     2
  6
CONTINUOUS
 10
-0.169035
 20
-0.781433
  0
VERTEX
  8
PLAN_1
 62
     2
  6
CONTINUOUS
 10
-0.166969
 20
-0.784531
  0
VERTEX
  8
PLAN_1
 62
     2
  6
CONTINUOUS
 10
-0.163870
 20
-0.787110
  0
VERTEX
  8
PLAN_1
 62
     2
  6
CONTINUOUS
 10
-0.162323
 20
-0.788146
  0
VERTEX
  8
PLAN_1
 62
     2
  6
CONTINUOUS
 10
-0.160256
 20
-0.788661
  0
VERTEX
  8
PLAN_1
 62
     2
  6
CONTINUOUS
 10
-0.158193
 20
-0.789177
  0
VERTEX
  8
PLAN_1
 62
     2
  6
CONTINUOUS
 10
-0.156126
 20
-0.789177
  0
SEQEND
  8
0
  0
POLYLINE
  8
PLAN_1
 62
     2
  6
CONTINUOUS
 66
     1
 40
0.003000
 41
0.003000
  0
VERTEX
  8
PLAN_1
 62
     2
  6
CONTINUOUS
 10
-0.084878
 20
-0.795890
  0
VERTEX
  8
PLAN_1
 62
     2
  6
CONTINUOUS
 10
-0.084878
 20
-0.787630
  0
VERTEX
  8
PLAN_1
 62
     2
  6
CONTINUOUS
 10
-0.086429
 20
-0.789693
  0
VERTEX
  8
PLAN_1
 62
     2
  6
CONTINUOUS
 10
-0.087976
 20
-0.791760
  0
VERTEX
  8
PLAN_1
 62
     2
  6
CONTINUOUS
 10
-0.090043
 20
-0.793307
  0
VERTEX
  8
PLAN_1
 62
     2
  6
CONTINUOUS
 10
-0.091591
 20
-0.794854
  0
VERTEX
  8
PLAN_1
 62
     2
  6
CONTINUOUS
 10
-0.094173
 20
-0.795890
  0
VERTEX
  8
PLAN_1
 62
     2
  6
CONTINUOUS
 10
-0.096236
 20
-0.796406
  0
VERTEX
  8
PLAN_1
 62
     2
  6
CONTINUOUS
 10
-0.099335
 20
-0.796921
  0
VERTEX
  8
PLAN_1
 62
     2
  6
CONTINUOUS
 10
-0.102433
 20
-0.797437
  0
VERTEX
  8
PLAN_1
 62
     2
  6
CONTINUOUS
 10
-0.105531
 20
-0.796921
  0
VERTEX
  8
PLAN_1
 62
     2
  6
CONTINUOUS
 10
-0.108630
 20
-0.796406
  0
VERTEX
  8
PLAN_1
 62
     2
  6
CONTINUOUS
 10
-0.111209
 20
-0.795374
  0
VERTEX
  8
PLAN_1
 62
     2
  6
CONTINUOUS
 10
-0.114307
 20
-0.793823
  0
VERTEX
  8
PLAN_1
 62
     2
  6
CONTINUOUS
 10
-0.116374
 20
-0.791244
  0
VERTEX
  8
PLAN_1
 62
     2
  6
CONTINUOUS
 10
-0.118437
 20
-0.788661
  0
VERTEX
  8
PLAN_1
 62
     2
  6
CONTINUOUS
 10
-0.119472
 20
-0.785047
  0
VERTEX
  8
PLAN_1
 62
     2
  6
CONTINUOUS
 10
-0.119988
 20
-0.780402
  0
VERTEX
  8
PLAN_1
 62
     2
  6
CONTINUOUS
 10
-0.119988
 20
-0.741161
  0
VERTEX
  8
PLAN_1
 62
     2
  6
CONTINUOUS
 10
-0.110693
 20
-0.741161
  0
VERTEX
  8
PLAN_1
 62
     2
  6
CONTINUOUS
 10
-0.110693
 20
-0.777303
  0
VERTEX
  8
PLAN_1
 62
     2
  6
CONTINUOUS
 10
-0.110693
 20
-0.780402
  0
VERTEX
  8
PLAN_1
 62
     2
  6
CONTINUOUS
 10
-0.110177
 20
-0.782980
  0
VERTEX
  8
PLAN_1
 62
     2
  6
CONTINUOUS
 10
-0.109146
 20
-0.785047
  0
VERTEX
  8
PLAN_1
 62
     2
  6
CONTINUOUS
 10
-0.107594
 20
-0.786594
  0
VERTEX
  8
PLAN_1
 62
     2
  6
CONTINUOUS
 10
-0.106047
 20
-0.787630
  0
VERTEX
  8
PLAN_1
 62
     2
  6
CONTINUOUS
 10
-0.104500
 20
-0.788661
  0
VERTEX
  8
PLAN_1
 62
     2
  6
CONTINUOUS
 10
-0.102433
 20
-0.789177
  0
VERTEX
  8
PLAN_1
 62
     2
  6
CONTINUOUS
 10
-0.100370
 20
-0.789177
  0
VERTEX
  8
PLAN_1
 62
     2
  6
CONTINUOUS
 10
-0.096236
 20
-0.788661
  0
VERTEX
  8
PLAN_1
 62
     2
  6
CONTINUOUS
 10
-0.093142
 20
-0.787630
  0
VERTEX
  8
PLAN_1
 62
     2
  6
CONTINUOUS
 10
-0.090559
 20
-0.785563
  0
VERTEX
  8
PLAN_1
 62
     2
  6
CONTINUOUS
 10
-0.088492
 20
-0.782980
  0
VERTEX
  8
PLAN_1
 62
     2
  6
CONTINUOUS
 10
-0.086945
 20
-0.780402
  0
VERTEX
  8
PLAN_1
 62
     2
  6
CONTINUOUS
 10
-0.085913
 20
-0.777303
  0
VERTEX
  8
PLAN_1
 62
     2
  6
CONTINUOUS
 10
-0.085398
 20
-0.774205
  0
VERTEX
  8
PLAN_1
 62
     2
  6
CONTINUOUS
 10
-0.085398
 20
-0.771106
  0
VERTEX
  8
PLAN_1
 62
     2
  6
CONTINUOUS
 10
-0.085398
 20
-0.741161
  0
VERTEX
  8
PLAN_1
 62
     2
  6
CONTINUOUS
 10
-0.076102
 20
-0.741161
  0
VERTEX
  8
PLAN_1
 62
     2
  6
CONTINUOUS
 10
-0.076102
 20
-0.795890
  0
VERTEX
  8
PLAN_1
 62
     2
  6
CONTINUOUS
 10
-0.084878
 20
-0.795890
  0
SEQEND
  8
0
  0
POLYLINE
  8
PLAN_1
 62
     2
  6
CONTINUOUS
 66
     1
 40
0.003000
 41
0.003000
  0
VERTEX
  8
PLAN_1
 62
     2
  6
CONTINUOUS
 10
-0.051839
 20
-0.795890
  0
VERTEX
  8
PLAN_1
 62
     2
  6
CONTINUOUS
 10
-0.061130
 20
-0.795890
  0
VERTEX
  8
PLAN_1
 62
     2
  6
CONTINUOUS
 10
-0.061130
 20
-0.741161
  0
VERTEX
  8
PLAN_1
 62
     2
  6
CONTINUOUS
 10
-0.052354
 20
-0.741161
  0
VERTEX
  8
PLAN_1
 62
     2
  6
CONTINUOUS
 10
-0.052354
 20
-0.750457
  0
VERTEX
  8
PLAN_1
 62
     2
  6
CONTINUOUS
 10
-0.050803
 20
-0.747874
  0
VERTEX
  8
PLAN_1
 62
     2
  6
CONTINUOUS
 10
-0.049256
 20
-0.745811
  0
VERTEX
  8
PLAN_1
 62
     2
  6
CONTINUOUS
 10
-0.047709
 20
-0.744260
  0
VERTEX
  8
PLAN_1
 62
     2
  6
CONTINUOUS
 10
-0.045642
 20
-0.742713
  0
VERTEX
  8
PLAN_1
 62
     2
  6
CONTINUOUS
 10
-0.044094
 20
-0.741161
  0
VERTEX
  8
PLAN_1
 62
     2
  6
CONTINUOUS
 10
-0.042028
 20
-0.740646
  0
VERTEX
  8
PLAN_1
 62
     2
  6
CONTINUOUS
 10
-0.039445
 20
-0.739614
  0
VERTEX
  8
PLAN_1
 62
     2
  6
CONTINUOUS
 10
-0.036866
 20
-0.739614
  0
VERTEX
  8
PLAN_1
 62
     2
  6
CONTINUOUS
 10
-0.036350
 20
-0.739614
  0
VERTEX
  8
PLAN_1
 62
     2
  6
CONTINUOUS
 10
-0.035835
 20
-0.739614
  0
VERTEX
  8
PLAN_1
 62
     2
  6
CONTINUOUS
 10
-0.035315
 20
-0.739614
  0
VERTEX
  8
PLAN_1
 62
     2
  6
CONTINUOUS
 10
-0.034799
 20
-0.740130
  0
VERTEX
  8
PLAN_1
 62
     2
  6
CONTINUOUS
 10
-0.034799
 20
-0.749425
  0
VERTEX
  8
PLAN_1
 62
     2
  6
CONTINUOUS
 10
-0.037898
 20
-0.749425
  0
VERTEX
  8
PLAN_1
 62
     2
  6
CONTINUOUS
 10
-0.040996
 20
-0.749941
  0
VERTEX
  8
PLAN_1
 62
     2
  6
CONTINUOUS
 10
-0.043579
 20
-0.750457
  0
VERTEX
  8
PLAN_1
 62
     2
  6
CONTINUOUS
 10
-0.046157
 20
-0.752004
  0
VERTEX
  8
PLAN_1
 62
     2
  6
CONTINUOUS
 10
-0.048224
 20
-0.753555
  0
VERTEX
  8
PLAN_1
 62
     2
  6
CONTINUOUS
 10
-0.049772
 20
-0.756134
  0
VERTEX
  8
PLAN_1
 62
     2
  6
CONTINUOUS
 10
-0.050803
 20
-0.758201
  0
VERTEX
  8
PLAN_1
 62
     2
  6
CONTINUOUS
 10
-0.051839
 20
-0.761299
  0
VERTEX
  8
PLAN_1
 62
     2
  6
CONTINUOUS
 10
-0.051839
 20
-0.763878
  0
VERTEX
  8
PLAN_1
 62
     2
  6
CONTINUOUS
 10
-0.051839
 20
-0.795890
  0
SEQEND
  8
0
  0
POLYLINE
  8
PLAN_1
 62
     2
  6
CONTINUOUS
 66
     1
 40
0.003000
 41
0.003000
  0
VERTEX
  8
PLAN_1
 62
     2
  6
CONTINUOUS
 10
-1.017287
 20
-0.866102
  0
VERTEX
  8
PLAN_1
 62
     2
  6
CONTINUOUS
 10
-1.008512
 20
-0.866102
  0
VERTEX
  8
PLAN_1
 62
     2
  6
CONTINUOUS
 10
-1.008512
 20
-0.873846
  0
VERTEX
  8
PLAN_1
 62
     2
  6
CONTINUOUS
 10
-1.007992
 20
-0.873846
  0
VERTEX
  8
PLAN_1
 62
     2
  6
CONTINUOUS
 10
-1.007476
 20
-0.872815
  0
VERTEX
  8
PLAN_1
 62
     2
  6
CONTINUOUS
 10
-1.005929
 20
-0.871268
  0
VERTEX
  8
PLAN_1
 62
     2
  6
CONTINUOUS
 10
-1.004898
 20
-0.869717
  0
VERTEX
  8
PLAN_1
 62
     2
  6
CONTINUOUS
 10
-1.002831
 20
-0.868169
  0
VERTEX
  8
PLAN_1
 62
     2
  6
CONTINUOUS
 10
-1.000768
 20
-0.866618
  0
VERTEX
  8
PLAN_1
 62
     2
  6
CONTINUOUS
 10
-0.998185
 20
-0.865587
  0
VERTEX
  8
PLAN_1
 62
     2
  6
CONTINUOUS
 10
-0.995602
 20
-0.865071
  0
VERTEX
  8
PLAN_1
 62
     2
  6
CONTINUOUS
 10
-0.991988
 20
-0.864555
  0
VERTEX
  8
PLAN_1
 62
     2
  6
CONTINUOUS
 10
-0.989409
 20
-0.864555
  0
VERTEX
  8
PLAN_1
 62
     2
  6
CONTINUOUS
 10
-0.986827
 20
-0.865071
  0
VERTEX
  8
PLAN_1
 62
     2
  6
CONTINUOUS
 10
-0.984760
 20
-0.866102
  0
VERTEX
  8
PLAN_1
 62
     2
  6
CONTINUOUS
 10
-0.982181
 20
-0.866618
  0
VERTEX
  8
PLAN_1
 62
     2
  6
CONTINUOUS
 10
-0.980114
 20
-0.867654
  0
VERTEX
  8
PLAN_1
 62
     2
  6
CONTINUOUS
 10
-0.978567
 20
-0.869201
  0
VERTEX
  8
PLAN_1
 62
     2
  6
CONTINUOUS
 10
-0.976500
 20
-0.870748
  0
VERTEX
  8
PLAN_1
 62
     2
  6
CONTINUOUS
 10
-0.975469
 20
-0.872299
  0
VERTEX
  8
PLAN_1
 62
     2
  6
CONTINUOUS
 10
-0.972886
 20
-0.876429
  0
VERTEX
  8
PLAN_1
 62
     2
  6
CONTINUOUS
 10
-0.970823
 20
-0.881075
  0
VERTEX
  8
PLAN_1
 62
     2
  6
CONTINUOUS
 10
-0.969787
 20
-0.886240
  0
VERTEX
  8
PLAN_1
 62
     2
  6
CONTINUOUS
 10
-0.969272
 20
-0.891917
  0
VERTEX
  8
PLAN_1
 62
     2
  6
CONTINUOUS
 10
-0.969787
 20
-0.897079
  0
VERTEX
  8
PLAN_1
 62
     2
  6
CONTINUOUS
 10
-0.970303
 20
-0.902244
  0
VERTEX
  8
PLAN_1
 62
     2
  6
CONTINUOUS
 10
-0.971854
 20
-0.906890
  0
VERTEX
  8
PLAN_1
 62
     2
  6
CONTINUOUS
 10
-0.974437
 20
-0.912051
  0
VERTEX
  8
PLAN_1
 62
     2
  6
CONTINUOUS
 10
-0.975984
 20
-0.914118
  0
VERTEX
  8
PLAN_1
 62
     2
  6
CONTINUOUS
 10
-0.977531
 20
-0.916181
  0
VERTEX
  8
PLAN_1
 62
     2
  6
CONTINUOUS
 10
-0.979598
 20
-0.917732
  0
VERTEX
  8
PLAN_1
 62
     2
  6
CONTINUOUS
 10
-0.981661
 20
-0.919280
  0
VERTEX
  8
PLAN_1
 62
     2
  6
CONTINUOUS
 10
-0.984244
 20
-0.920315
  0
VERTEX
  8
PLAN_1
 62
     2
  6
CONTINUOUS
 10
-0.986827
 20
-0.921346
  0
VERTEX
  8
PLAN_1
 62
     2
  6
CONTINUOUS
 10
-0.989925
 20
-0.921862
  0
VERTEX
  8
PLAN_1
 62
     2
  6
CONTINUOUS
 10
-0.993020
 20
-0.922378
  0
VERTEX
  8
PLAN_1
 62
     2
  6
CONTINUOUS
 10
-0.995602
 20
-0.921862
  0
VERTEX
  8
PLAN_1
 62
     2
  6
CONTINUOUS
 10
-0.998185
 20
-0.921346
  0
VERTEX
  8
PLAN_1
 62
     2
  6
CONTINUOUS
 10
-1.000248
 20
-0.920831
  0
VERTEX
  8
PLAN_1
 62
     2
  6
CONTINUOUS
 10
-1.002315
 20
-0.919795
  0
VERTEX
  8
PLAN_1
 62
     2
  6
CONTINUOUS
 10
-1.003862
 20
-0.918764
  0
VERTEX
  8
PLAN_1
 62
     2
  6
CONTINUOUS
 10
-1.005413
 20
-0.917732
  0
VERTEX
  8
PLAN_1
 62
     2
  6
CONTINUOUS
 10
-1.006445
 20
-0.916181
  0
VERTEX
  8
PLAN_1
 62
     2
  6
CONTINUOUS
 10
-1.007476
 20
-0.914634
  0
VERTEX
  8
PLAN_1
 62
     2
  6
CONTINUOUS
 10
-1.007992
 20
-0.914634
  0
VERTEX
  8
PLAN_1
 62
     2
  6
CONTINUOUS
 10
-1.007992
 20
-0.941996
  0
VERTEX
  8
PLAN_1
 62
     2
  6
CONTINUOUS
 10
-1.017287
 20
-0.941996
  0
VERTEX
  8
PLAN_1
 62
     2
  6
CONTINUOUS
 10
-1.017287
 20
-0.866102
  0
SEQEND
  8
0
  0
POLYLINE
  8
PLAN_1
 62
     2
  6
CONTINUOUS
 66
     1
 40
0.003000
 41
0.003000
  0
VERTEX
  8
PLAN_1
 62
     2
  6
CONTINUOUS
 10
-0.993539
 20
-0.914118
  0
VERTEX
  8
PLAN_1
 62
     2
  6
CONTINUOUS
 10
-0.989925
 20
-0.914118
  0
VERTEX
  8
PLAN_1
 62
     2
  6
CONTINUOUS
 10
-0.986827
 20
-0.912567
  0
VERTEX
  8
PLAN_1
 62
     2
  6
CONTINUOUS
 10
-0.984244
 20
-0.911020
  0
VERTEX
  8
PLAN_1
 62
     2
  6
CONTINUOUS
 10
-0.982181
 20
-0.908437
  0
VERTEX
  8
PLAN_1
 62
     2
  6
CONTINUOUS
 10
-0.980630
 20
-0.905343
  0
VERTEX
  8
PLAN_1
 62
     2
  6
CONTINUOUS
 10
-0.979598
 20
-0.901728
  0
VERTEX
  8
PLAN_1
 62
     2
  6
CONTINUOUS
 10
-0.979083
 20
-0.897598
  0
VERTEX
  8
PLAN_1
 62
     2
  6
CONTINUOUS
 10
-0.978567
 20
-0.893465
  0
VERTEX
  8
PLAN_1
 62
     2
  6
CONTINUOUS
 10
-0.978567
 20
-0.890370
  0
VERTEX
  8
PLAN_1
 62
     2
  6
CONTINUOUS
 10
-0.979083
 20
-0.887272
  0
VERTEX
  8
PLAN_1
 62
     2
  6
CONTINUOUS
 10
-0.979598
 20
-0.883657
  0
VERTEX
  8
PLAN_1
 62
     2
  6
CONTINUOUS
 10
-0.981146
 20
-0.880559
  0
VERTEX
  8
PLAN_1
 62
     2
  6
CONTINUOUS
 10
-0.982697
 20
-0.877461
  0
VERTEX
  8
PLAN_1
 62
     2
  6
CONTINUOUS
 10
-0.985276
 20
-0.874882
  0
VERTEX
  8
PLAN_1
 62
     2
  6
CONTINUOUS
 10
-0.986827
 20
-0.874362
  0
VERTEX
  8
PLAN_1
 62
     2
  6
CONTINUOUS
 10
-0.988890
 20
-0.873331
  0
VERTEX
  8
PLAN_1
 62
     2
  6
CONTINUOUS
 10
-0.990957
 20
-0.872815
  0
VERTEX
  8
PLAN_1
 62
     2
  6
CONTINUOUS
 10
-0.993539
 20
-0.872815
  0
VERTEX
  8
PLAN_1
 62
     2
  6
CONTINUOUS
 10
-0.996118
 20
-0.872815
  0
VERTEX
  8
PLAN_1
 62
     2
  6
CONTINUOUS
 10
-0.998185
 20
-0.873331
  0
VERTEX
  8
PLAN_1
 62
     2
  6
CONTINUOUS
 10
-0.999732
 20
-0.874362
  0
VERTEX
  8
PLAN_1
 62
     2
  6
CONTINUOUS
 10
-1.001283
 20
-0.875398
  0
VERTEX
  8
PLAN_1
 62
     2
  6
CONTINUOUS
 10
-1.003862
 20
-0.877976
  0
VERTEX
  8
PLAN_1
 62
     2
  6
CONTINUOUS
 10
-1.005929
 20
-0.881075
  0
VERTEX
  8
PLAN_1
 62
     2
  6
CONTINUOUS
 10
-1.006961
 20
-0.884689
  0
VERTEX
  8
PLAN_1
 62
     2
  6
CONTINUOUS
 10
-1.007992
 20
-0.888819
  0
VERTEX
  8
PLAN_1
 62
     2
  6
CONTINUOUS
 10
-1.007992
 20
-0.892433
  0
VERTEX
  8
PLAN_1
 62
     2
  6
CONTINUOUS
 10
-1.008512
 20
-0.896047
  0
VERTEX
  8
PLAN_1
 62
     2
  6
CONTINUOUS
 10
-1.007992
 20
-0.900693
  0
VERTEX
  8
PLAN_1
 62
     2
  6
CONTINUOUS
 10
-1.006961
 20
-0.904823
  0
VERTEX
  8
PLAN_1
 62
     2
  6
CONTINUOUS
 10
-1.004898
 20
-0.907921
  0
VERTEX
  8
PLAN_1
 62
     2
  6
CONTINUOUS
 10
-1.002831
 20
-0.910504
  0
VERTEX
  8
PLAN_1
 62
     2
  6
CONTINUOUS
 10
-1.000768
 20
-0.912051
  0
VERTEX
  8
PLAN_1
 62
     2
  6
CONTINUOUS
 10
-0.998185
 20
-0.913602
  0
VERTEX
  8
PLAN_1
 62
     2
  6
CONTINUOUS
 10
-0.995602
 20
-0.914118
  0
VERTEX
  8
PLAN_1
 62
     2
  6
CONTINUOUS
 10
-0.993539
 20
-0.914118
  0
SEQEND
  8
0
  0
POLYLINE
  8
PLAN_1
 62
     2
  6
CONTINUOUS
 66
     1
 40
0.003000
 41
0.003000
  0
VERTEX
  8
PLAN_1
 62
     2
  6
CONTINUOUS
 10
-0.948106
 20
-0.920831
  0
VERTEX
  8
PLAN_1
 62
     2
  6
CONTINUOUS
 10
-0.957398
 20
-0.920831
  0
VERTEX
  8
PLAN_1
 62
     2
  6
CONTINUOUS
 10
-0.957398
 20
-0.866102
  0
VERTEX
  8
PLAN_1
 62
     2
  6
CONTINUOUS
 10
-0.948622
 20
-0.866102
  0
VERTEX
  8
PLAN_1
 62
     2
  6
CONTINUOUS
 10
-0.948622
 20
-0.875398
  0
VERTEX
  8
PLAN_1
 62
     2
  6
CONTINUOUS
 10
-0.948106
 20
-0.875398
  0
VERTEX
  8
PLAN_1
 62
     2
  6
CONTINUOUS
 10
-0.947071
 20
-0.872815
  0
VERTEX
  8
PLAN_1
 62
     2
  6
CONTINUOUS
 10
-0.945524
 20
-0.870748
  0
VERTEX
  8
PLAN_1
 62
     2
  6
CONTINUOUS
 10
-0.943457
 20
-0.869201
  0
VERTEX
  8
PLAN_1
 62
     2
  6
CONTINUOUS
 10
-0.941909
 20
-0.867654
  0
VERTEX
  8
PLAN_1
 62
     2
  6
CONTINUOUS
 10
-0.939843
 20
-0.866102
  0
VERTEX
  8
PLAN_1
 62
     2
  6
CONTINUOUS
 10
-0.937780
 20
-0.865587
  0
VERTEX
  8
PLAN_1
 62
     2
  6
CONTINUOUS
 10
-0.935713
 20
-0.865071
  0
VERTEX
  8
PLAN_1
 62
     2
  6
CONTINUOUS
 10
-0.933134
 20
-0.864555
  0
VERTEX
  8
PLAN_1
 62
     2
  6
CONTINUOUS
 10
-0.932618
 20
-0.864555
  0
VERTEX
  8
PLAN_1
 62
     2
  6
CONTINUOUS
 10
-0.932098
 20
-0.864555
  0
VERTEX
  8
PLAN_1
 62
     2
  6
CONTINUOUS
 10
-0.931583
 20
-0.864555
  0
VERTEX
  8
PLAN_1
 62
     2
  6
CONTINUOUS
 10
-0.931067
 20
-0.865071
  0
VERTEX
  8
PLAN_1
 62
     2
  6
CONTINUOUS
 10
-0.930551
 20
-0.865071
  0
VERTEX
  8
PLAN_1
 62
     2
  6
CONTINUOUS
 10
-0.930551
 20
-0.874362
  0
VERTEX
  8
PLAN_1
 62
     2
  6
CONTINUOUS
 10
-0.934165
 20
-0.874362
  0
VERTEX
  8
PLAN_1
 62
     2
  6
CONTINUOUS
 10
-0.937264
 20
-0.874882
  0
VERTEX
  8
PLAN_1
 62
     2
  6
CONTINUOUS
 10
-0.939843
 20
-0.875398
  0
VERTEX
  8
PLAN_1
 62
     2
  6
CONTINUOUS
 10
-0.942425
 20
-0.876945
  0
VERTEX
  8
PLAN_1
 62
     2
  6
CONTINUOUS
 10
-0.944492
 20
-0.878496
  0
VERTEX
  8
PLAN_1
 62
     2
  6
CONTINUOUS
 10
-0.946039
 20
-0.881075
  0
VERTEX
  8
PLAN_1
 62
     2
  6
CONTINUOUS
 10
-0.947071
 20
-0.883142
  0
VERTEX
  8
PLAN_1
 62
     2
  6
CONTINUOUS
 10
-0.947591
 20
-0.886240
  0
VERTEX
  8
PLAN_1
 62
     2
  6
CONTINUOUS
 10
-0.948106
 20
-0.888819
  0
VERTEX
  8
PLAN_1
 62
     2
  6
CONTINUOUS
 10
-0.948106
 20
-0.920831
  0
SEQEND
  8
0
  0
POLYLINE
  8
PLAN_1
 62
     2
  6
CONTINUOUS
 66
     1
 40
0.003000
 41
0.003000
  0
VERTEX
  8
PLAN_1
 62
     2
  6
CONTINUOUS
 10
-0.877374
 20
-0.903791
  0
VERTEX
  8
PLAN_1
 62
     2
  6
CONTINUOUS
 10
-0.877890
 20
-0.904823
  0
VERTEX
  8
PLAN_1
 62
     2
  6
CONTINUOUS
 10
-0.878406
 20
-0.906374
  0
VERTEX
  8
PLAN_1
 62
     2
  6
CONTINUOUS
 10
-0.878921
 20
-0.908437
  0
VERTEX
  8
PLAN_1
 62
     2
  6
CONTINUOUS
 10
-0.879957
 20
-0.910504
  0
VERTEX
  8
PLAN_1
 62
     2
  6
CONTINUOUS
 10
-0.881504
 20
-0.912567
  0
VERTEX
  8
PLAN_1
 62
     2
  6
CONTINUOUS
 10
-0.883055
 20
-0.914634
  0
VERTEX
  8
PLAN_1
 62
     2
  6
CONTINUOUS
 10
-0.885118
 20
-0.916701
  0
VERTEX
  8
PLAN_1
 62
     2
  6
CONTINUOUS
 10
-0.887185
 20
-0.918248
  0
VERTEX
  8
PLAN_1
 62
     2
  6
CONTINUOUS
 10
-0.888217
 20
-0.919280
  0
VERTEX
  8
PLAN_1
 62
     2
  6
CONTINUOUS
 10
-0.889248
 20
-0.919795
  0
VERTEX
  8
PLAN_1
 62
     2
  6
CONTINUOUS
 10
-0.890799
 20
-0.920315
  0
VERTEX
  8
PLAN_1
 62
     2
  6
CONTINUOUS
 10
-0.892346
 20
-0.920831
  0
VERTEX
  8
PLAN_1
 62
     2
  6
CONTINUOUS
 10
-0.894413
 20
-0.921346
  0
VERTEX
  8
PLAN_1
 62
     2
  6
CONTINUOUS
 10
-0.896476
 20
-0.921862
  0
VERTEX
  8
PLAN_1
 62
     2
  6
CONTINUOUS
 10
-0.899059
 20
-0.921862
  0
VERTEX
  8
PLAN_1
 62
     2
  6
CONTINUOUS
 10
-0.902157
 20
-0.922378
  0
VERTEX
  8
PLAN_1
 62
     2
  6
CONTINUOUS
 10
-0.904736
 20
-0.921862
  0
VERTEX
  8
PLAN_1
 62
     2
  6
CONTINUOUS
 10
-0.907319
 20
-0.921862
  0
VERTEX
  8
PLAN_1
 62
     2
  6
CONTINUOUS
 10
-0.909902
 20
-0.920831
  0
VERTEX
  8
PLAN_1
 62
     2
  6
CONTINUOUS
 10
-0.912480
 20
-0.920315
  0
VERTEX
  8
PLAN_1
 62
     2
  6
CONTINUOUS
 10
-0.914547
 20
-0.919280
  0
VERTEX
  8
PLAN_1
 62
     2
  6
CONTINUOUS
 10
-0.916610
 20
-0.917732
  0
VERTEX
  8
PLAN_1
 62
     2
  6
CONTINUOUS
 10
-0.918161
 20
-0.916181
  0
VERTEX
  8
PLAN_1
 62
     2
  6
CONTINUOUS
 10
-0.919709
 20
-0.914634
  0
VERTEX
  8
PLAN_1
 62
     2
  6
CONTINUOUS
 10
-0.922807
 20
-0.910504
  0
VERTEX
  8
PLAN_1
 62
     2
  6
CONTINUOUS
 10
-0.924874
 20
-0.905858
  0
VERTEX
  8
PLAN_1
 62
     2
  6
CONTINUOUS
 10
-0.925906
 20
-0.900693
  0
VERTEX
  8
PLAN_1
 62
     2
  6
CONTINUOUS
 10
-0.926421
 20
-0.895016
  0
VERTEX
  8
PLAN_1
 62
     2
  6
CONTINUOUS
 10
-0.925906
 20
-0.888819
  0
VERTEX
  8
PLAN_1
 62
     2
  6
CONTINUOUS
 10
-0.924874
 20
-0.883142
  0
VERTEX
  8
PLAN_1
 62
     2
  6
CONTINUOUS
 10
-0.923839
 20
-0.880559
  0
VERTEX
  8
PLAN_1
 62
     2
  6
CONTINUOUS
 10
-0.922807
 20
-0.877976
  0
VERTEX
  8
PLAN_1
 62
     2
  6
CONTINUOUS
 10
-0.921776
 20
-0.875398
  0
VERTEX
  8
PLAN_1
 62
     2
  6
CONTINUOUS
 10
-0.920224
 20
-0.873331
  0
VERTEX
  8
PLAN_1
 62
     2
  6
CONTINUOUS
 10
-0.918161
 20
-0.871783
  0
VERTEX
  8
PLAN_1
 62
     2
  6
CONTINUOUS
 10
-0.916610
 20
-0.869717
  0
VERTEX
  8
PLAN_1
 62
     2
  6
CONTINUOUS
 10
-0.914547
 20
-0.868169
  0
VERTEX
  8
PLAN_1
 62
     2
  6
CONTINUOUS
 10
-0.911965
 20
-0.867138
  0
VERTEX
  8
PLAN_1
 62
     2
  6
CONTINUOUS
 10
-0.909382
 20
-0.866102
  0
VERTEX
  8
PLAN_1
 62
     2
  6
CONTINUOUS
 10
-0.906803
 20
-0.865071
  0
VERTEX
  8
PLAN_1
 62
     2
  6
CONTINUOUS
 10
-0.903705
 20
-0.864555
  0
VERTEX
  8
PLAN_1
 62
     2
  6
CONTINUOUS
 10
-0.900091
 20
-0.864555
  0
VERTEX
  8
PLAN_1
 62
     2
  6
CONTINUOUS
 10
-0.897508
 20
-0.864555
  0
VERTEX
  8
PLAN_1
 62
     2
  6
CONTINUOUS
 10
-0.894929
 20
-0.865071
  0
VERTEX
  8
PLAN_1
 62
     2
  6
CONTINUOUS
 10
-0.892346
 20
-0.866102
  0
VERTEX
  8
PLAN_1
 62
     2
  6
CONTINUOUS
 10
-0.889764
 20
-0.867138
  0
VERTEX
  8
PLAN_1
 62
     2
  6
CONTINUOUS
 10
-0.887701
 20
-0.868169
  0
VERTEX
  8
PLAN_1
 62
     2
  6
CONTINUOUS
 10
-0.886150
 20
-0.869717
  0
VERTEX
  8
PLAN_1
 62
     2
  6
CONTINUOUS
 10
-0.884087
 20
-0.871268
  0
VERTEX
  8
PLAN_1
 62
     2
  6
CONTINUOUS
 10
-0.882535
 20
-0.873331
  0
VERTEX
  8
PLAN_1
 62
     2
  6
CONTINUOUS
 10
-0.879957
 20
-0.877976
  0
VERTEX
  8
PLAN_1
 62
     2
  6
CONTINUOUS
 10
-0.878406
 20
-0.883142
  0
VERTEX
  8
PLAN_1
 62
     2
  6
CONTINUOUS
 10
-0.877374
 20
-0.889335
  0
VERTEX
  8
PLAN_1
 62
     2
  6
CONTINUOUS
 10
-0.876858
 20
-0.896563
  0
VERTEX
  8
PLAN_1
 62
     2
  6
CONTINUOUS
 10
-0.916610
 20
-0.896563
  0
VERTEX
  8
PLAN_1
 62
     2
  6
CONTINUOUS
 10
-0.916094
 20
-0.900177
  0
VERTEX
  8
PLAN_1
 62
     2
  6
CONTINUOUS
 10
-0.915579
 20
-0.903791
  0
VERTEX
  8
PLAN_1
 62
     2
  6
CONTINUOUS
 10
-0.914547
 20
-0.906890
  0
VERTEX
  8
PLAN_1
 62
     2
  6
CONTINUOUS
 10
-0.912480
 20
-0.909472
  0
VERTEX
  8
PLAN_1
 62
     2
  6
CONTINUOUS
 10
-0.910417
 20
-0.911535
  0
VERTEX
  8
PLAN_1
 62
     2
  6
CONTINUOUS
 10
-0.907835
 20
-0.913087
  0
VERTEX
  8
PLAN_1
 62
     2
  6
CONTINUOUS
 10
-0.904220
 20
-0.914118
  0
VERTEX
  8
PLAN_1
 62
     2
  6
CONTINUOUS
 10
-0.900606
 20
-0.914118
  0
VERTEX
  8
PLAN_1
 62
     2
  6
CONTINUOUS
 10
-0.897508
 20
-0.914118
  0
VERTEX
  8
PLAN_1
 62
     2
  6
CONTINUOUS
 10
-0.894929
 20
-0.913087
  0
VERTEX
  8
PLAN_1
 62
     2
  6
CONTINUOUS
 10
-0.892862
 20
-0.912051
  0
VERTEX
  8
PLAN_1
 62
     2
  6
CONTINUOUS
 10
-0.890799
 20
-0.910504
  0
VERTEX
  8
PLAN_1
 62
     2
  6
CONTINUOUS
 10
-0.889248
 20
-0.908957
  0
VERTEX
  8
PLAN_1
 62
     2
  6
CONTINUOUS
 10
-0.887701
 20
-0.906890
  0
VERTEX
  8
PLAN_1
 62
     2
  6
CONTINUOUS
 10
-0.887185
 20
-0.905343
  0
VERTEX
  8
PLAN_1
 62
     2
  6
CONTINUOUS
 10
-0.886665
 20
-0.903791
  0
VERTEX
  8
PLAN_1
 62
     2
  6
CONTINUOUS
 10
-0.877374
 20
-0.903791
  0
SEQEND
  8
0
  0
POLYLINE
  8
PLAN_1
 62
     2
  6
CONTINUOUS
 66
     1
 40
0.003000
 41
0.003000
  0
VERTEX
  8
PLAN_1
 62
     2
  6
CONTINUOUS
 10
-0.886150
 20
-0.889335
  0
VERTEX
  8
PLAN_1
 62
     2
  6
CONTINUOUS
 10
-0.886665
 20
-0.885720
  0
VERTEX
  8
PLAN_1
 62
     2
  6
CONTINUOUS
 10
-0.887185
 20
-0.883142
  0
VERTEX
  8
PLAN_1
 62
     2
  6
CONTINUOUS
 10
-0.888217
 20
-0.880043
  0
VERTEX
  8
PLAN_1
 62
     2
  6
CONTINUOUS
 10
-0.889764
 20
-0.877976
  0
VERTEX
  8
PLAN_1
 62
     2
  6
CONTINUOUS
 10
-0.891831
 20
-0.875913
  0
VERTEX
  8
PLAN_1
 62
     2
  6
CONTINUOUS
 10
-0.894413
 20
-0.874362
  0
VERTEX
  8
PLAN_1
 62
     2
  6
CONTINUOUS
 10
-0.897508
 20
-0.873331
  0
VERTEX
  8
PLAN_1
 62
     2
  6
CONTINUOUS
 10
-0.901638
 20
-0.872815
  0
VERTEX
  8
PLAN_1
 62
     2
  6
CONTINUOUS
 10
-0.904736
 20
-0.873331
  0
VERTEX
  8
PLAN_1
 62
     2
  6
CONTINUOUS
 10
-0.907319
 20
-0.874362
  0
VERTEX
  8
PLAN_1
 62
     2
  6
CONTINUOUS
 10
-0.909902
 20
-0.875913
  0
VERTEX
  8
PLAN_1
 62
     2
  6
CONTINUOUS
 10
-0.911965
 20
-0.877976
  0
VERTEX
  8
PLAN_1
 62
     2
  6
CONTINUOUS
 10
-0.914031
 20
-0.880043
  0
VERTEX
  8
PLAN_1
 62
     2
  6
CONTINUOUS
 10
-0.915579
 20
-0.883142
  0
VERTEX
  8
PLAN_1
 62
     2
  6
CONTINUOUS
 10
-0.916094
 20
-0.885720
  0
VERTEX
  8
PLAN_1
 62
     2
  6
CONTINUOUS
 10
-0.916610
 20
-0.889335
  0
VERTEX
  8
PLAN_1
 62
     2
  6
CONTINUOUS
 10
-0.886150
 20
-0.889335
  0
SEQEND
  8
0
  0
POLYLINE
  8
PLAN_1
 62
     2
  6
CONTINUOUS
 66
     1
 40
0.003000
 41
0.003000
  0
VERTEX
  8
PLAN_1
 62
     2
  6
CONTINUOUS
 10
-0.835039
 20
-0.881591
  0
VERTEX
  8
PLAN_1
 62
     2
  6
CONTINUOUS
 10
-0.835039
 20
-0.880559
  0
VERTEX
  8
PLAN_1
 62
     2
  6
CONTINUOUS
 10
-0.835555
 20
-0.879012
  0
VERTEX
  8
PLAN_1
 62
     2
  6
CONTINUOUS
 10
-0.836071
 20
-0.877461
  0
VERTEX
  8
PLAN_1
 62
     2
  6
CONTINUOUS
 10
-0.837102
 20
-0.875913
  0
VERTEX
  8
PLAN_1
 62
     2
  6
CONTINUOUS
 10
-0.838654
 20
-0.874362
  0
VERTEX
  8
PLAN_1
 62
     2
  6
CONTINUOUS
 10
-0.841236
 20
-0.873331
  0
VERTEX
  8
PLAN_1
 62
     2
  6
CONTINUOUS
 10
-0.843815
 20
-0.872815
  0
VERTEX
  8
PLAN_1
 62
     2
  6
CONTINUOUS
 10
-0.847945
 20
-0.872299
  0
VERTEX
  8
PLAN_1
 62
     2
  6
CONTINUOUS
 10
-0.848980
 20
-0.872815
  0
VERTEX
  8
PLAN_1
 62
     2
  6
CONTINUOUS
 10
-0.850528
 20
-0.872815
  0
VERTEX
  8
PLAN_1
 62
     2
  6
CONTINUOUS
 10
-0.852594
 20
-0.873331
  0
VERTEX
  8
PLAN_1
 62
     2
  6
CONTINUOUS
 10
-0.854142
 20
-0.873846
  0
VERTEX
  8
PLAN_1
 62
     2
  6
CONTINUOUS
 10
-0.856205
 20
-0.874882
  0
VERTEX
  8
PLAN_1
 62
     2
  6
CONTINUOUS
 10
-0.857240
 20
-0.876429
  0
VERTEX
  8
PLAN_1
 62
     2
  6
CONTINUOUS
 10
-0.858272
 20
-0.877976
  0
VERTEX
  8
PLAN_1
 62
     2
  6
CONTINUOUS
 10
-0.858787
 20
-0.880043
  0
VERTEX
  8
PLAN_1
 62
     2
  6
CONTINUOUS
 10
-0.858787
 20
-0.881591
  0
VERTEX
  8
PLAN_1
 62
     2
  6
CONTINUOUS
 10
-0.858272
 20
-0.883142
  0
VERTEX
  8
PLAN_1
 62
     2
  6
CONTINUOUS
 10
-0.857240
 20
-0.884173
  0
VERTEX
  8
PLAN_1
 62
     2
  6
CONTINUOUS
 10
-0.856205
 20
-0.884689
  0
VERTEX
  8
PLAN_1
 62
     2
  6
CONTINUOUS
 10
-0.855173
 20
-0.885720
  0
VERTEX
  8
PLAN_1
 62
     2
  6
CONTINUOUS
 10
-0.853110
 20
-0.886240
  0
VERTEX
  8
PLAN_1
 62
     2
  6
CONTINUOUS
 10
-0.851043
 20
-0.886756
  0
VERTEX
  8
PLAN_1
 62
     2
  6
CONTINUOUS
 10
-0.848980
 20
-0.887787
  0
VERTEX
  8
PLAN_1
 62
     2
  6
CONTINUOUS
 10
-0.839685
 20
-0.889850
  0
VERTEX
  8
PLAN_1
 62
     2
  6
CONTINUOUS
 10
-0.835555
 20
-0.890886
  0
VERTEX
  8
PLAN_1
 62
     2
  6
CONTINUOUS
 10
-0.832457
 20
-0.892433
  0
VERTEX
  8
PLAN_1
 62
     2
  6
CONTINUOUS
 10
-0.829878
 20
-0.893465
  0
VERTEX
  8
PLAN_1
 62
     2
  6
CONTINUOUS
 10
-0.827811
 20
-0.895531
  0
VERTEX
  8
PLAN_1
 62
     2
  6
CONTINUOUS
 10
-0.826264
 20
-0.897079
  0
VERTEX
  8
PLAN_1
 62
     2
  6
CONTINUOUS
 10
-0.825228
 20
-0.899146
  0
VERTEX
  8
PLAN_1
 62
     2
  6
CONTINUOUS
 10
-0.824713
 20
-0.901728
  0
VERTEX
  8
PLAN_1
 62
     2
  6
CONTINUOUS
 10
-0.824197
 20
-0.904307
  0
VERTEX
  8
PLAN_1
 62
     2
  6
CONTINUOUS
 10
-0.824713
 20
-0.908437
  0
VERTEX
  8
PLAN_1
 62
     2
  6
CONTINUOUS
 10
-0.825744
 20
-0.911535
  0
VERTEX
  8
PLAN_1
 62
     2
  6
CONTINUOUS
 10
-0.827811
 20
-0.914634
  0
VERTEX
  8
PLAN_1
 62
     2
  6
CONTINUOUS
 10
-0.830394
 20
-0.917217
  0
VERTEX
  8
PLAN_1
 62
     2
  6
CONTINUOUS
 10
-0.833488
 20
-0.919280
  0
VERTEX
  8
PLAN_1
 62
     2
  6
CONTINUOUS
 10
-0.837102
 20
-0.920831
  0
VERTEX
  8
PLAN_1
 62
     2
  6
CONTINUOUS
 10
-0.841236
 20
-0.921862
  0
VERTEX
  8
PLAN_1
 62
     2
  6
CONTINUOUS
 10
-0.845882
 20
-0.922378
  0
VERTEX
  8
PLAN_1
 62
     2
  6
CONTINUOUS
 10
-0.849496
 20
-0.921862
  0
VERTEX
  8
PLAN_1
 62
     2
  6
CONTINUOUS
 10
-0.853110
 20
-0.921862
  0
VERTEX
  8
PLAN_1
 62
     2
  6
CONTINUOUS
 10
-0.856205
 20
-0.920831
  0
VERTEX
  8
PLAN_1
 62
     2
  6
CONTINUOUS
 10
-0.858787
 20
-0.920315
  0
VERTEX
  8
PLAN_1
 62
     2
  6
CONTINUOUS
 10
-0.860854
 20
-0.919280
  0
VERTEX
  8
PLAN_1
 62
     2
  6
CONTINUOUS
 10
-0.862917
 20
-0.917732
  0
VERTEX
  8
PLAN_1
 62
     2
  6
CONTINUOUS
 10
-0.864469
 20
-0.916701
  0
VERTEX
  8
PLAN_1
 62
     2
  6
CONTINUOUS
 10
-0.865500
 20
-0.915150
  0
VERTEX
  8
PLAN_1
 62
     2
  6
CONTINUOUS
 10
-0.867563
 20
-0.912051
  0
VERTEX
  8
PLAN_1
 62
     2
  6
CONTINUOUS
 10
-0.868598
 20
-0.908957
  0
VERTEX
  8
PLAN_1
 62
     2
  6
CONTINUOUS
 10
-0.869114
 20
-0.905858
  0
VERTEX
  8
PLAN_1
 62
     2
  6
CONTINUOUS
 10
-0.869114
 20
-0.903276
  0
VERTEX
  8
PLAN_1
 62
     2
  6
CONTINUOUS
 10
-0.860339
 20
-0.903276
  0
VERTEX
  8
PLAN_1
 62
     2
  6
CONTINUOUS
 10
-0.860339
 20
-0.904823
  0
VERTEX
  8
PLAN_1
 62
     2
  6
CONTINUOUS
 10
-0.859819
 20
-0.906890
  0
VERTEX
  8
PLAN_1
 62
     2
  6
CONTINUOUS
 10
-0.859303
 20
-0.908437
  0
VERTEX
  8
PLAN_1
 62
     2
  6
CONTINUOUS
 10
-0.857756
 20
-0.910504
  0
VERTEX
  8
PLAN_1
 62
     2
  6
CONTINUOUS
 10
-0.856205
 20
-0.912051
  0
VERTEX
  8
PLAN_1
 62
     2
  6
CONTINUOUS
 10
-0.853626
 20
-0.913087
  0
VERTEX
  8
PLAN_1
 62
     2
  6
CONTINUOUS
 10
-0.850528
 20
-0.914118
  0
VERTEX
  8
PLAN_1
 62
     2
  6
CONTINUOUS
 10
-0.845882
 20
-0.914118
  0
VERTEX
  8
PLAN_1
 62
     2
  6
CONTINUOUS
 10
-0.843815
 20
-0.914118
  0
VERTEX
  8
PLAN_1
 62
     2
  6
CONTINUOUS
 10
-0.841236
 20
-0.913602
  0
VERTEX
  8
PLAN_1
 62
     2
  6
CONTINUOUS
 10
-0.839169
 20
-0.913087
  0
VERTEX
  8
PLAN_1
 62
     2
  6
CONTINUOUS
 10
-0.837102
 20
-0.912051
  0
VERTEX
  8
PLAN_1
 62
     2
  6
CONTINUOUS
 10
-0.835555
 20
-0.911020
  0
VERTEX
  8
PLAN_1
 62
     2
  6
CONTINUOUS
 10
-0.834524
 20
-0.909472
  0
VERTEX
  8
PLAN_1
 62
     2
  6
CONTINUOUS
 10
-0.834008
 20
-0.907921
  0
VERTEX
  8
PLAN_1
 62
     2
  6
CONTINUOUS
 10
-0.833488
 20
-0.905858
  0
VERTEX
  8
PLAN_1
 62
     2
  6
CONTINUOUS
 10
-0.833488
 20
-0.904307
  0
VERTEX
  8
PLAN_1
 62
     2
  6
CONTINUOUS
 10
-0.834008
 20
-0.902760
  0
VERTEX
  8
PLAN_1
 62
     2
  6
CONTINUOUS
 10
-0.835039
 20
-0.901728
  0
VERTEX
  8
PLAN_1
 62
     2
  6
CONTINUOUS
 10
-0.836071
 20
-0.900693
  0
VERTEX
  8
PLAN_1
 62
     2
  6
CONTINUOUS
 10
-0.837622
 20
-0.900177
  0
VERTEX
  8
PLAN_1
 62
     2
  6
CONTINUOUS
 10
-0.839169
 20
-0.899146
  0
VERTEX
  8
PLAN_1
 62
     2
  6
CONTINUOUS
 10
-0.841752
 20
-0.898630
  0
VERTEX
  8
PLAN_1
 62
     2
  6
CONTINUOUS
 10
-0.844331
 20
-0.897598
  0
VERTEX
  8
PLAN_1
 62
     2
  6
CONTINUOUS
 10
-0.855173
 20
-0.895016
  0
VERTEX
  8
PLAN_1
 62
     2
  6
CONTINUOUS
 10
-0.857756
 20
-0.894500
  0
VERTEX
  8
PLAN_1
 62
     2
  6
CONTINUOUS
 10
-0.860339
 20
-0.893465
  0
VERTEX
  8
PLAN_1
 62
     2
  6
CONTINUOUS
 10
-0.862402
 20
-0.892433
  0
VERTEX
  8
PLAN_1
 62
     2
  6
CONTINUOUS
 10
-0.863949
 20
-0.890886
  0
VERTEX
  8
PLAN_1
 62
     2
  6
CONTINUOUS
 10
-0.865500
 20
-0.888819
  0
VERTEX
  8
PLAN_1
 62
     2
  6
CONTINUOUS
 10
-0.866531
 20
-0.886756
  0
VERTEX
  8
PLAN_1
 62
     2
  6
CONTINUOUS
 10
-0.867563
 20
-0.884689
  0
VERTEX
  8
PLAN_1
 62
     2
  6
CONTINUOUS
 10
-0.867563
 20
-0.882106
  0
VERTEX
  8
PLAN_1
 62
     2
  6
CONTINUOUS
 10
-0.867047
 20
-0.877976
  0
VERTEX
  8
PLAN_1
 62
     2
  6
CONTINUOUS
 10
-0.866016
 20
-0.874362
  0
VERTEX
  8
PLAN_1
 62
     2
  6
CONTINUOUS
 10
-0.863949
 20
-0.871268
  0
VERTEX
  8
PLAN_1
 62
     2
  6
CONTINUOUS
 10
-0.861370
 20
-0.868685
  0
VERTEX
  8
PLAN_1
 62
     2
  6
CONTINUOUS
 10
-0.858272
 20
-0.867138
  0
VERTEX
  8
PLAN_1
 62
     2
  6
CONTINUOUS
 10
-0.854657
 20
-0.865587
  0
VERTEX
  8
PLAN_1
 62
     2
  6
CONTINUOUS
 10
-0.851043
 20
-0.865071
  0
VERTEX
  8
PLAN_1
 62
     2
  6
CONTINUOUS
 10
-0.846913
 20
-0.864555
  0
VERTEX
  8
PLAN_1
 62
     2
  6
CONTINUOUS
 10
-0.843299
 20
-0.865071
  0
VERTEX
  8
PLAN_1
 62
     2
  6
CONTINUOUS
 10
-0.840717
 20
-0.865071
  0
VERTEX
  8
PLAN_1
 62
     2
  6
CONTINUOUS
 10
-0.837622
 20
-0.866102
  0
VERTEX
  8
PLAN_1
 62
     2
  6
CONTINUOUS
 10
-0.835555
 20
-0.867138
  0
VERTEX
  8
PLAN_1
 62
     2
  6
CONTINUOUS
 10
-0.831941
 20
-0.869201
  0
VERTEX
  8
PLAN_1
 62
     2
  6
CONTINUOUS
 10
-0.829358
 20
-0.872299
  0
VERTEX
  8
PLAN_1
 62
     2
  6
CONTINUOUS
 10
-0.827811
 20
-0.874882
  0
VERTEX
  8
PLAN_1
 62
     2
  6
CONTINUOUS
 10
-0.826780
 20
-0.877976
  0
VERTEX
  8
PLAN_1
 62
     2
  6
CONTINUOUS
 10
-0.826264
 20
-0.880043
  0
VERTEX
  8
PLAN_1
 62
     2
  6
CONTINUOUS
 10
-0.826264
 20
-0.881591
  0
VERTEX
  8
PLAN_1
 62
     2
  6
CONTINUOUS
 10
-0.835039
 20
-0.881591
  0
SEQEND
  8
0
  0
POLYLINE
  8
PLAN_1
 62
     2
  6
CONTINUOUS
 66
     1
 40
0.003000
 41
0.003000
  0
VERTEX
  8
PLAN_1
 62
     2
  6
CONTINUOUS
 10
-0.782894
 20
-0.881591
  0
VERTEX
  8
PLAN_1
 62
     2
  6
CONTINUOUS
 10
-0.782894
 20
-0.880559
  0
VERTEX
  8
PLAN_1
 62
     2
  6
CONTINUOUS
 10
-0.783409
 20
-0.879012
  0
VERTEX
  8
PLAN_1
 62
     2
  6
CONTINUOUS
 10
-0.783925
 20
-0.877461
  0
VERTEX
  8
PLAN_1
 62
     2
  6
CONTINUOUS
 10
-0.784961
 20
-0.875913
  0
VERTEX
  8
PLAN_1
 62
     2
  6
CONTINUOUS
 10
-0.786508
 20
-0.874362
  0
VERTEX
  8
PLAN_1
 62
     2
  6
CONTINUOUS
 10
-0.789091
 20
-0.873331
  0
VERTEX
  8
PLAN_1
 62
     2
  6
CONTINUOUS
 10
-0.792189
 20
-0.872815
  0
VERTEX
  8
PLAN_1
 62
     2
  6
CONTINUOUS
 10
-0.795803
 20
-0.872299
  0
VERTEX
  8
PLAN_1
 62
     2
  6
CONTINUOUS
 10
-0.796835
 20
-0.872815
  0
VERTEX
  8
PLAN_1
 62
     2
  6
CONTINUOUS
 10
-0.798898
 20
-0.872815
  0
VERTEX
  8
PLAN_1
 62
     2
  6
CONTINUOUS
 10
-0.800449
 20
-0.873331
  0
VERTEX
  8
PLAN_1
 62
     2
  6
CONTINUOUS
 10
-0.802512
 20
-0.873846
  0
VERTEX
  8
PLAN_1
 62
     2
  6
CONTINUOUS
 10
-0.804063
 20
-0.874882
  0
VERTEX
  8
PLAN_1
 62
     2
  6
CONTINUOUS
 10
-0.805094
 20
-0.876429
  0
VERTEX
  8
PLAN_1
 62
     2
  6
CONTINUOUS
 10
-0.806126
 20
-0.877976
  0
VERTEX
  8
PLAN_1
 62
     2
  6
CONTINUOUS
 10
-0.806642
 20
-0.880043
  0
VERTEX
  8
PLAN_1
 62
     2
  6
CONTINUOUS
 10
-0.806642
 20
-0.881591
  0
VERTEX
  8
PLAN_1
 62
     2
  6
CONTINUOUS
 10
-0.806126
 20
-0.883142
  0
VERTEX
  8
PLAN_1
 62
     2
  6
CONTINUOUS
 10
-0.805610
 20
-0.884173
  0
VERTEX
  8
PLAN_1
 62
     2
  6
CONTINUOUS
 10
-0.804579
 20
-0.884689
  0
VERTEX
  8
PLAN_1
 62
     2
  6
CONTINUOUS
 10
-0.803028
 20
-0.885720
  0
VERTEX
  8
PLAN_1
 62
     2
  6
CONTINUOUS
 10
-0.801480
 20
-0.886240
  0
VERTEX
  8
PLAN_1
 62
     2
  6
CONTINUOUS
 10
-0.799417
 20
-0.886756
  0
VERTEX
  8
PLAN_1
 62
     2
  6
CONTINUOUS
 10
-0.796835
 20
-0.887787
  0
VERTEX
  8
PLAN_1
 62
     2
  6
CONTINUOUS
 10
-0.787539
 20
-0.889850
  0
VERTEX
  8
PLAN_1
 62
     2
  6
CONTINUOUS
 10
-0.783925
 20
-0.890886
  0
VERTEX
  8
PLAN_1
 62
     2
  6
CONTINUOUS
 10
-0.780311
 20
-0.892433
  0
VERTEX
  8
PLAN_1
 62
     2
  6
CONTINUOUS
 10
-0.777732
 20
-0.893465
  0
VERTEX
  8
PLAN_1
 62
     2
  6
CONTINUOUS
 10
-0.775665
 20
-0.895531
  0
VERTEX
  8
PLAN_1
 62
     2
  6
CONTINUOUS
 10
-0.774118
 20
-0.897079
  0
VERTEX
  8
PLAN_1
 62
     2
  6
CONTINUOUS
 10
-0.773087
 20
-0.899146
  0
VERTEX
  8
PLAN_1
 62
     2
  6
CONTINUOUS
 10
-0.772567
 20
-0.901728
  0
VERTEX
  8
PLAN_1
 62
     2
  6
CONTINUOUS
 10
-0.772051
 20
-0.904307
  0
VERTEX
  8
PLAN_1
 62
     2
  6
CONTINUOUS
 10
-0.772567
 20
-0.908437
  0
VERTEX
  8
PLAN_1
 62
     2
  6
CONTINUOUS
 10
-0.774118
 20
-0.911535
  0
VERTEX
  8
PLAN_1
 62
     2
  6
CONTINUOUS
 10
-0.775665
 20
-0.914634
  0
VERTEX
  8
PLAN_1
 62
     2
  6
CONTINUOUS
 10
-0.778248
 20
-0.917217
  0
VERTEX
  8
PLAN_1
 62
     2
  6
CONTINUOUS
 10
-0.781862
 20
-0.919280
  0
VERTEX
  8
PLAN_1
 62
     2
  6
CONTINUOUS
 10
-0.785476
 20
-0.920831
  0
VERTEX
  8
PLAN_1
 62
     2
  6
CONTINUOUS
 10
-0.789606
 20
-0.921862
  0
VERTEX
  8
PLAN_1
 62
     2
  6
CONTINUOUS
 10
-0.793736
 20
-0.922378
  0
VERTEX
  8
PLAN_1
 62
     2
  6
CONTINUOUS
 10
-0.797866
 20
-0.921862
  0
VERTEX
  8
PLAN_1
 62
     2
  6
CONTINUOUS
 10
-0.800965
 20
-0.921862
  0
VERTEX
  8
PLAN_1
 62
     2
  6
CONTINUOUS
 10
-0.804063
 20
-0.920831
  0
VERTEX
  8
PLAN_1
 62
     2
  6
CONTINUOUS
 10
-0.806642
 20
-0.920315
  0
VERTEX
  8
PLAN_1
 62
     2
  6
CONTINUOUS
 10
-0.808709
 20
-0.919280
  0
VERTEX
  8
PLAN_1
 62
     2
  6
CONTINUOUS
 10
-0.810776
 20
-0.917732
  0
VERTEX
  8
PLAN_1
 62
     2
  6
CONTINUOUS
 10
-0.812323
 20
-0.916701
  0
VERTEX
  8
PLAN_1
 62
     2
  6
CONTINUOUS
 10
-0.813354
 20
-0.915150
  0
VERTEX
  8
PLAN_1
 62
     2
  6
CONTINUOUS
 10
-0.815421
 20
-0.912051
  0
VERTEX
  8
PLAN_1
 62
     2
  6
CONTINUOUS
 10
-0.816453
 20
-0.908957
  0
VERTEX
  8
PLAN_1
 62
     2
  6
CONTINUOUS
 10
-0.816969
 20
-0.905858
  0
VERTEX
  8
PLAN_1
 62
     2
  6
CONTINUOUS
 10
-0.817484
 20
-0.903276
  0
VERTEX
  8
PLAN_1
 62
     2
  6
CONTINUOUS
 10
-0.808193
 20
-0.903276
  0
VERTEX
  8
PLAN_1
 62
     2
  6
CONTINUOUS
 10
-0.808193
 20
-0.904823
  0
VERTEX
  8
PLAN_1
 62
     2
  6
CONTINUOUS
 10
-0.807677
 20
-0.906890
  0
VERTEX
  8
PLAN_1
 62
     2
  6
CONTINUOUS
 10
-0.807161
 20
-0.908437
  0
VERTEX
  8
PLAN_1
 62
     2
  6
CONTINUOUS
 10
-0.806126
 20
-0.910504
  0
VERTEX
  8
PLAN_1
 62
     2
  6
CONTINUOUS
 10
-0.804063
 20
-0.912051
  0
VERTEX
  8
PLAN_1
 62
     2
  6
CONTINUOUS
 10
-0.801480
 20
-0.913087
  0
VERTEX
  8
PLAN_1
 62
     2
  6
CONTINUOUS
 10
-0.798382
 20
-0.914118
  0
VERTEX
  8
PLAN_1
 62
     2
  6
CONTINUOUS
 10
-0.793736
 20
-0.914118
  0
VERTEX
  8
PLAN_1
 62
     2
  6
CONTINUOUS
 10
-0.791669
 20
-0.914118
  0
VERTEX
  8
PLAN_1
 62
     2
  6
CONTINUOUS
 10
-0.789091
 20
-0.913602
  0
VERTEX
  8
PLAN_1
 62
     2
  6
CONTINUOUS
 10
-0.787024
 20
-0.913087
  0
VERTEX
  8
PLAN_1
 62
     2
  6
CONTINUOUS
 10
-0.785476
 20
-0.912051
  0
VERTEX
  8
PLAN_1
 62
     2
  6
CONTINUOUS
 10
-0.783925
 20
-0.911020
  0
VERTEX
  8
PLAN_1
 62
     2
  6
CONTINUOUS
 10
-0.782378
 20
-0.909472
  0
VERTEX
  8
PLAN_1
 62
     2
  6
CONTINUOUS
 10
-0.781862
 20
-0.907921
  0
VERTEX
  8
PLAN_1
 62
     2
  6
CONTINUOUS
 10
-0.781346
 20
-0.905858
  0
VERTEX
  8
PLAN_1
 62
     2
  6
CONTINUOUS
 10
-0.781346
 20
-0.904307
  0
VERTEX
  8
PLAN_1
 62
     2
  6
CONTINUOUS
 10
-0.781862
 20
-0.902760
  0
VERTEX
  8
PLAN_1
 62
     2
  6
CONTINUOUS
 10
-0.782894
 20
-0.901728
  0
VERTEX
  8
PLAN_1
 62
     2
  6
CONTINUOUS
 10
-0.783925
 20
-0.900693
  0
VERTEX
  8
PLAN_1
 62
     2
  6
CONTINUOUS
 10
-0.785476
 20
-0.900177
  0
VERTEX
  8
PLAN_1
 62
     2
  6
CONTINUOUS
 10
-0.787539
 20
-0.899146
  0
VERTEX
  8
PLAN_1
 62
     2
  6
CONTINUOUS
 10
-0.789606
 20
-0.898630
  0
VERTEX
  8
PLAN_1
 62
     2
  6
CONTINUOUS
 10
-0.792189
 20
-0.897598
  0
VERTEX
  8
PLAN_1
 62
     2
  6
CONTINUOUS
 10
-0.803028
 20
-0.895016
  0
VERTEX
  8
PLAN_1
 62
     2
  6
CONTINUOUS
 10
-0.805610
 20
-0.894500
  0
VERTEX
  8
PLAN_1
 62
     2
  6
CONTINUOUS
 10
-0.808193
 20
-0.893465
  0
VERTEX
  8
PLAN_1
 62
     2
  6
CONTINUOUS
 10
-0.810256
 20
-0.892433
  0
VERTEX
  8
PLAN_1
 62
     2
  6
CONTINUOUS
 10
-0.811807
 20
-0.890886
  0
VERTEX
  8
PLAN_1
 62
     2
  6
CONTINUOUS
 10
-0.813354
 20
-0.888819
  0
VERTEX
  8
PLAN_1
 62
     2
  6
CONTINUOUS
 10
-0.814386
 20
-0.886756
  0
VERTEX
  8
PLAN_1
 62
     2
  6
CONTINUOUS
 10
-0.815421
 20
-0.884689
  0
VERTEX
  8
PLAN_1
 62
     2
  6
CONTINUOUS
 10
-0.815421
 20
-0.882106
  0
VERTEX
  8
PLAN_1
 62
     2
  6
CONTINUOUS
 10
-0.814906
 20
-0.877976
  0
VERTEX
  8
PLAN_1
 62
     2
  6
CONTINUOUS
 10
-0.813870
 20
-0.874362
  0
VERTEX
  8
PLAN_1
 62
     2
  6
CONTINUOUS
 10
-0.811807
 20
-0.871268
  0
VERTEX
  8
PLAN_1
 62
     2
  6
CONTINUOUS
 10
-0.809224
 20
-0.868685
  0
VERTEX
  8
PLAN_1
 62
     2
  6
CONTINUOUS
 10
-0.806126
 20
-0.867138
  0
VERTEX
  8
PLAN_1
 62
     2
  6
CONTINUOUS
 10
-0.802512
 20
-0.865587
  0
VERTEX
  8
PLAN_1
 62
     2
  6
CONTINUOUS
 10
-0.798898
 20
-0.865071
  0
VERTEX
  8
PLAN_1
 62
     2
  6
CONTINUOUS
 10
-0.794768
 20
-0.864555
  0
VERTEX
  8
PLAN_1
 62
     2
  6
CONTINUOUS
 10
-0.791669
 20
-0.865071
  0
VERTEX
  8
PLAN_1
 62
     2
  6
CONTINUOUS
 10
-0.788575
 20
-0.865071
  0
VERTEX
  8
PLAN_1
 62
     2
  6
CONTINUOUS
 10
-0.785476
 20
-0.866102
  0
VERTEX
  8
PLAN_1
 62
     2
  6
CONTINUOUS
 10
-0.783409
 20
-0.867138
  0
VERTEX
  8
PLAN_1
 62
     2
  6
CONTINUOUS
 10
-0.779795
 20
-0.869201
  0
VERTEX
  8
PLAN_1
 62
     2
  6
CONTINUOUS
 10
-0.777217
 20
-0.872299
  0
VERTEX
  8
PLAN_1
 62
     2
  6
CONTINUOUS
 10
-0.775665
 20
-0.874882
  0
VERTEX
  8
PLAN_1
 62
     2
  6
CONTINUOUS
 10
-0.774634
 20
-0.877976
  0
VERTEX
  8
PLAN_1
 62
     2
  6
CONTINUOUS
 10
-0.774118
 20
-0.880043
  0
VERTEX
  8
PLAN_1
 62
     2
  6
CONTINUOUS
 10
-0.774118
 20
-0.881591
  0
VERTEX
  8
PLAN_1
 62
     2
  6
CONTINUOUS
 10
-0.782894
 20
-0.881591
  0
SEQEND
  8
0
  0
POLYLINE
  8
PLAN_1
 62
     2
  6
CONTINUOUS
 66
     1
 40
0.003000
 41
0.003000
  0
VERTEX
  8
PLAN_1
 62
     2
  6
CONTINUOUS
 10
-0.715776
 20
-0.903791
  0
VERTEX
  8
PLAN_1
 62
     2
  6
CONTINUOUS
 10
-0.715776
 20
-0.904823
  0
VERTEX
  8
PLAN_1
 62
     2
  6
CONTINUOUS
 10
-0.716295
 20
-0.906374
  0
VERTEX
  8
PLAN_1
 62
     2
  6
CONTINUOUS
 10
-0.716811
 20
-0.908437
  0
VERTEX
  8
PLAN_1
 62
     2
  6
CONTINUOUS
 10
-0.717843
 20
-0.910504
  0
VERTEX
  8
PLAN_1
 62
     2
  6
CONTINUOUS
 10
-0.719390
 20
-0.912567
  0
VERTEX
  8
PLAN_1
 62
     2
  6
CONTINUOUS
 10
-0.720941
 20
-0.914634
  0
VERTEX
  8
PLAN_1
 62
     2
  6
CONTINUOUS
 10
-0.723004
 20
-0.916701
  0
VERTEX
  8
PLAN_1
 62
     2
  6
CONTINUOUS
 10
-0.725071
 20
-0.918248
  0
VERTEX
  8
PLAN_1
 62
     2
  6
CONTINUOUS
 10
-0.726102
 20
-0.919280
  0
VERTEX
  8
PLAN_1
 62
     2
  6
CONTINUOUS
 10
-0.727134
 20
-0.919795
  0
VERTEX
  8
PLAN_1
 62
     2
  6
CONTINUOUS
 10
-0.728685
 20
-0.920315
  0
VERTEX
  8
PLAN_1
 62
     2
  6
CONTINUOUS
 10
-0.730232
 20
-0.920831
  0
VERTEX
  8
PLAN_1
 62
     2
  6
CONTINUOUS
 10
-0.732299
 20
-0.921346
  0
VERTEX
  8
PLAN_1
 62
     2
  6
CONTINUOUS
 10
-0.734362
 20
-0.921862
  0
VERTEX
  8
PLAN_1
 62
     2
  6
CONTINUOUS
 10
-0.736945
 20
-0.921862
  0
VERTEX
  8
PLAN_1
 62
     2
  6
CONTINUOUS
 10
-0.740043
 20
-0.922378
  0
VERTEX
  8
PLAN_1
 62
     2
  6
CONTINUOUS
 10
-0.742626
 20
-0.921862
  0
VERTEX
  8
PLAN_1
 62
     2
  6
CONTINUOUS
 10
-0.745205
 20
-0.921862
  0
VERTEX
  8
PLAN_1
 62
     2
  6
CONTINUOUS
 10
-0.747787
 20
-0.920831
  0
VERTEX
  8
PLAN_1
 62
     2
  6
CONTINUOUS
 10
-0.750370
 20
-0.920315
  0
VERTEX
  8
PLAN_1
 62
     2
  6
CONTINUOUS
 10
-0.752433
 20
-0.919280
  0
VERTEX
  8
PLAN_1
 62
     2
  6
CONTINUOUS
 10
-0.754500
 20
-0.917732
  0
VERTEX
  8
PLAN_1
 62
     2
  6
CONTINUOUS
 10
-0.756047
 20
-0.916181
  0
VERTEX
  8
PLAN_1
 62
     2
  6
CONTINUOUS
 10
-0.758114
 20
-0.914634
  0
VERTEX
  8
PLAN_1
 62
     2
  6
CONTINUOUS
 10
-0.760693
 20
-0.910504
  0
VERTEX
  8
PLAN_1
 62
     2
  6
CONTINUOUS
 10
-0.762760
 20
-0.905858
  0
VERTEX
  8
PLAN_1
 62
     2
  6
CONTINUOUS
 10
-0.763791
 20
-0.900693
  0
VERTEX
  8
PLAN_1
 62
     2
  6
CONTINUOUS
 10
-0.764307
 20
-0.895016
  0
VERTEX
  8
PLAN_1
 62
     2
  6
CONTINUOUS
 10
-0.763791
 20
-0.888819
  0
VERTEX
  8
PLAN_1
 62
     2
  6
CONTINUOUS
 10
-0.762760
 20
-0.883142
  0
VERTEX
  8
PLAN_1
 62
     2
  6
CONTINUOUS
 10
-0.761728
 20
-0.880559
  0
VERTEX
  8
PLAN_1
 62
     2
  6
CONTINUOUS
 10
-0.760693
 20
-0.877976
  0
VERTEX
  8
PLAN_1
 62
     2
  6
CONTINUOUS
 10
-0.759661
 20
-0.875398
  0
VERTEX
  8
PLAN_1
 62
     2
  6
CONTINUOUS
 10
-0.758114
 20
-0.873331
  0
VERTEX
  8
PLAN_1
 62
     2
  6
CONTINUOUS
 10
-0.756563
 20
-0.871783
  0
VERTEX
  8
PLAN_1
 62
     2
  6
CONTINUOUS
 10
-0.754500
 20
-0.869717
  0
VERTEX
  8
PLAN_1
 62
     2
  6
CONTINUOUS
 10
-0.752433
 20
-0.868169
  0
VERTEX
  8
PLAN_1
 62
     2
  6
CONTINUOUS
 10
-0.749850
 20
-0.867138
  0
VERTEX
  8
PLAN_1
 62
     2
  6
CONTINUOUS
 10
-0.747272
 20
-0.866102
  0
VERTEX
  8
PLAN_1
 62
     2
  6
CONTINUOUS
 10
-0.744689
 20
-0.865071
  0
VERTEX
  8
PLAN_1
 62
     2
  6
CONTINUOUS
 10
-0.741591
 20
-0.864555
  0
VERTEX
  8
PLAN_1
 62
     2
  6
CONTINUOUS
 10
-0.737976
 20
-0.864555
  0
VERTEX
  8
PLAN_1
 62
     2
  6
CONTINUOUS
 10
-0.735398
 20
-0.864555
  0
VERTEX
  8
PLAN_1
 62
     2
  6
CONTINUOUS
 10
-0.732815
 20
-0.865071
  0
VERTEX
  8
PLAN_1
 62
     2
  6
CONTINUOUS
 10
-0.730232
 20
-0.866102
  0
VERTEX
  8
PLAN_1
 62
     2
  6
CONTINUOUS
 10
-0.728169
 20
-0.867138
  0
VERTEX
  8
PLAN_1
 62
     2
  6
CONTINUOUS
 10
-0.725587
 20
-0.868169
  0
VERTEX
  8
PLAN_1
 62
     2
  6
CONTINUOUS
 10
-0.724039
 20
-0.869717
  0
VERTEX
  8
PLAN_1
 62
     2
  6
CONTINUOUS
 10
-0.721972
 20
-0.871268
  0
VERTEX
  8
PLAN_1
 62
     2
  6
CONTINUOUS
 10
-0.720425
 20
-0.873331
  0
VERTEX
  8
PLAN_1
 62
     2
  6
CONTINUOUS
 10
-0.717843
 20
-0.877976
  0
VERTEX
  8
PLAN_1
 62
     2
  6
CONTINUOUS
 10
-0.716295
 20
-0.883142
  0
VERTEX
  8
PLAN_1
 62
     2
  6
CONTINUOUS
 10
-0.715260
 20
-0.889335
  0
VERTEX
  8
PLAN_1
 62
     2
  6
CONTINUOUS
 10
-0.714744
 20
-0.896563
  0
VERTEX
  8
PLAN_1
 62
     2
  6
CONTINUOUS
 10
-0.754500
 20
-0.896563
  0
VERTEX
  8
PLAN_1
 62
     2
  6
CONTINUOUS
 10
-0.754500
 20
-0.900177
  0
VERTEX
  8
PLAN_1
 62
     2
  6
CONTINUOUS
 10
-0.753465
 20
-0.903791
  0
VERTEX
  8
PLAN_1
 62
     2
  6
CONTINUOUS
 10
-0.752433
 20
-0.906890
  0
VERTEX
  8
PLAN_1
 62
     2
  6
CONTINUOUS
 10
-0.750370
 20
-0.909472
  0
VERTEX
  8
PLAN_1
 62
     2
  6
CONTINUOUS
 10
-0.748303
 20
-0.911535
  0
VERTEX
  8
PLAN_1
 62
     2
  6
CONTINUOUS
 10
-0.745720
 20
-0.913087
  0
VERTEX
  8
PLAN_1
 62
     2
  6
CONTINUOUS
 10
-0.742626
 20
-0.914118
  0
VERTEX
  8
PLAN_1
 62
     2
  6
CONTINUOUS
 10
-0.738492
 20
-0.914118
  0
VERTEX
  8
PLAN_1
 62
     2
  6
CONTINUOUS
 10
-0.735913
 20
-0.914118
  0
VERTEX
  8
PLAN_1
 62
     2
  6
CONTINUOUS
 10
-0.732815
 20
-0.913087
  0
VERTEX
  8
PLAN_1
 62
     2
  6
CONTINUOUS
 10
-0.730748
 20
-0.912051
  0
VERTEX
  8
PLAN_1
 62
     2
  6
CONTINUOUS
 10
-0.728685
 20
-0.910504
  0
VERTEX
  8
PLAN_1
 62
     2
  6
CONTINUOUS
 10
-0.727134
 20
-0.908957
  0
VERTEX
  8
PLAN_1
 62
     2
  6
CONTINUOUS
 10
-0.725587
 20
-0.906890
  0
VERTEX
  8
PLAN_1
 62
     2
  6
CONTINUOUS
 10
-0.725071
 20
-0.905343
  0
VERTEX
  8
PLAN_1
 62
     2
  6
CONTINUOUS
 10
-0.724555
 20
-0.903791
  0
VERTEX
  8
PLAN_1
 62
     2
  6
CONTINUOUS
 10
-0.715776
 20
-0.903791
  0
SEQEND
  8
0
  0
POLYLINE
  8
PLAN_1
 62
     2
  6
CONTINUOUS
 66
     1
 40
0.003000
 41
0.003000
  0
VERTEX
  8
PLAN_1
 62
     2
  6
CONTINUOUS
 10
-0.724039
 20
-0.889335
  0
VERTEX
  8
PLAN_1
 62
     2
  6
CONTINUOUS
 10
-0.724555
 20
-0.885720
  0
VERTEX
  8
PLAN_1
 62
     2
  6
CONTINUOUS
 10
-0.725071
 20
-0.883142
  0
VERTEX
  8
PLAN_1
 62
     2
  6
CONTINUOUS
 10
-0.726618
 20
-0.880043
  0
VERTEX
  8
PLAN_1
 62
     2
  6
CONTINUOUS
 10
-0.727654
 20
-0.877976
  0
VERTEX
  8
PLAN_1
 62
     2
  6
CONTINUOUS
 10
-0.729717
 20
-0.875913
  0
VERTEX
  8
PLAN_1
 62
     2
  6
CONTINUOUS
 10
-0.732299
 20
-0.874362
  0
VERTEX
  8
PLAN_1
 62
     2
  6
CONTINUOUS
 10
-0.735398
 20
-0.873331
  0
VERTEX
  8
PLAN_1
 62
     2
  6
CONTINUOUS
 10
-0.739528
 20
-0.872815
  0
VERTEX
  8
PLAN_1
 62
     2
  6
CONTINUOUS
 10
-0.742626
 20
-0.873331
  0
VERTEX
  8
PLAN_1
 62
     2
  6
CONTINUOUS
 10
-0.745205
 20
-0.874362
  0
VERTEX
  8
PLAN_1
 62
     2
  6
CONTINUOUS
 10
-0.747787
 20
-0.875913
  0
VERTEX
  8
PLAN_1
 62
     2
  6
CONTINUOUS
 10
-0.750370
 20
-0.877976
  0
VERTEX
  8
PLAN_1
 62
     2
  6
CONTINUOUS
 10
-0.751917
 20
-0.880043
  0
VERTEX
  8
PLAN_1
 62
     2
  6
CONTINUOUS
 10
-0.753465
 20
-0.883142
  0
VERTEX
  8
PLAN_1
 62
     2
  6
CONTINUOUS
 10
-0.754500
 20
-0.885720
  0
VERTEX
  8
PLAN_1
 62
     2
  6
CONTINUOUS
 10
-0.754500
 20
-0.889335
  0
VERTEX
  8
PLAN_1
 62
     2
  6
CONTINUOUS
 10
-0.724039
 20
-0.889335
  0
SEQEND
  8
0
  0
SOLID
  8
PLAN_1
 62
     2
 10
-0.680669
 20
-0.896563
 11
-0.705969
 21
-0.896563
 12
-0.680669
 22
-0.887272
 13
-0.705969
 23
-0.887272
  0
POLYLINE
  8
PLAN_1
 62
     2
  6
CONTINUOUS
 66
     1
 40
0.003000
 41
0.003000
  0
VERTEX
  8
PLAN_1
 62
     2
  6
CONTINUOUS
 10
-0.680669
 20
-0.896563
  0
VERTEX
  8
PLAN_1
 62
     2
  6
CONTINUOUS
 10
-0.705969
 20
-0.896563
  0
VERTEX
  8
PLAN_1
 62
     2
  6
CONTINUOUS
 10
-0.705969
 20
-0.887272
  0
VERTEX
  8
PLAN_1
 62
     2
  6
CONTINUOUS
 10
-0.680669
 20
-0.887272
  0
VERTEX
  8
PLAN_1
 62
     2
  6
CONTINUOUS
 10
-0.680669
 20
-0.896563
  0
SEQEND
  8
0
  0
SOLID
  8
PLAN_1
 62
     2
 10
-0.644531
 20
-0.858874
 11
-0.651760
 21
-0.858874
 12
-0.631106
 22
-0.844421
 13
-0.642465
 23
-0.844421
  0
POLYLINE
  8
PLAN_1
 62
     2
  6
CONTINUOUS
 66
     1
 40
0.003000
 41
0.003000
  0
VERTEX
  8
PLAN_1
 62
     2
  6
CONTINUOUS
 10
-0.644531
 20
-0.858874
  0
VERTEX
  8
PLAN_1
 62
     2
  6
CONTINUOUS
 10
-0.651760
 20
-0.858874
  0
VERTEX
  8
PLAN_1
 62
     2
  6
CONTINUOUS
 10
-0.642465
 20
-0.844421
  0
VERTEX
  8
PLAN_1
 62
     2
  6
CONTINUOUS
 10
-0.631106
 20
-0.844421
  0
VERTEX
  8
PLAN_1
 62
     2
  6
CONTINUOUS
 10
-0.644531
 20
-0.858874
  0
SEQEND
  8
0
  0
POLYLINE
  8
PLAN_1
 62
     2
  6
CONTINUOUS
 66
     1
 40
0.003000
 41
0.003000
  0
VERTEX
  8
PLAN_1
 62
     2
  6
CONTINUOUS
 10
-0.622846
 20
-0.903791
  0
VERTEX
  8
PLAN_1
 62
     2
  6
CONTINUOUS
 10
-0.623362
 20
-0.904823
  0
VERTEX
  8
PLAN_1
 62
     2
  6
CONTINUOUS
 10
-0.623878
 20
-0.906374
  0
VERTEX
  8
PLAN_1
 62
     2
  6
CONTINUOUS
 10
-0.624394
 20
-0.908437
  0
VERTEX
  8
PLAN_1
 62
     2
  6
CONTINUOUS
 10
-0.625429
 20
-0.910504
  0
VERTEX
  8
PLAN_1
 62
     2
  6
CONTINUOUS
 10
-0.626461
 20
-0.912567
  0
VERTEX
  8
PLAN_1
 62
     2
  6
CONTINUOUS
 10
-0.628528
 20
-0.914634
  0
VERTEX
  8
PLAN_1
 62
     2
  6
CONTINUOUS
 10
-0.630075
 20
-0.916701
  0
VERTEX
  8
PLAN_1
 62
     2
  6
CONTINUOUS
 10
-0.632657
 20
-0.918248
  0
VERTEX
  8
PLAN_1
 62
     2
  6
CONTINUOUS
 10
-0.633689
 20
-0.919280
  0
VERTEX
  8
PLAN_1
 62
     2
  6
CONTINUOUS
 10
-0.634720
 20
-0.919795
  0
VERTEX
  8
PLAN_1
 62
     2
  6
CONTINUOUS
 10
-0.636272
 20
-0.920315
  0
VERTEX
  8
PLAN_1
 62
     2
  6
CONTINUOUS
 10
-0.637819
 20
-0.920831
  0
VERTEX
  8
PLAN_1
 62
     2
  6
CONTINUOUS
 10
-0.639366
 20
-0.921346
  0
VERTEX
  8
PLAN_1
 62
     2
  6
CONTINUOUS
 10
-0.641949
 20
-0.921862
  0
VERTEX
  8
PLAN_1
 62
     2
  6
CONTINUOUS
 10
-0.644531
 20
-0.921862
  0
VERTEX
  8
PLAN_1
 62
     2
  6
CONTINUOUS
 10
-0.647630
 20
-0.922378
  0
VERTEX
  8
PLAN_1
 62
     2
  6
CONTINUOUS
 10
-0.650209
 20
-0.921862
  0
VERTEX
  8
PLAN_1
 62
     2
  6
CONTINUOUS
 10
-0.652791
 20
-0.921862
  0
VERTEX
  8
PLAN_1
 62
     2
  6
CONTINUOUS
 10
-0.655374
 20
-0.920831
  0
VERTEX
  8
PLAN_1
 62
     2
  6
CONTINUOUS
 10
-0.657953
 20
-0.920315
  0
VERTEX
  8
PLAN_1
 62
     2
  6
CONTINUOUS
 10
-0.660020
 20
-0.919280
  0
VERTEX
  8
PLAN_1
 62
     2
  6
CONTINUOUS
 10
-0.662083
 20
-0.917732
  0
VERTEX
  8
PLAN_1
 62
     2
  6
CONTINUOUS
 10
-0.663634
 20
-0.916181
  0
VERTEX
  8
PLAN_1
 62
     2
  6
CONTINUOUS
 10
-0.665181
 20
-0.914634
  0
VERTEX
  8
PLAN_1
 62
     2
  6
CONTINUOUS
 10
-0.668280
 20
-0.910504
  0
VERTEX
  8
PLAN_1
 62
     2
  6
CONTINUOUS
 10
-0.670346
 20
-0.905858
  0
VERTEX
  8
PLAN_1
 62
     2
  6
CONTINUOUS
 10
-0.671378
 20
-0.900693
  0
VERTEX
  8
PLAN_1
 62
     2
  6
CONTINUOUS
 10
-0.671894
 20
-0.895016
  0
VERTEX
  8
PLAN_1
 62
     2
  6
CONTINUOUS
 10
-0.671378
 20
-0.888819
  0
VERTEX
  8
PLAN_1
 62
     2
  6
CONTINUOUS
 10
-0.670346
 20
-0.883142
  0
VERTEX
  8
PLAN_1
 62
     2
  6
CONTINUOUS
 10
-0.669311
 20
-0.880559
  0
VERTEX
  8
PLAN_1
 62
     2
  6
CONTINUOUS
 10
-0.668280
 20
-0.877976
  0
VERTEX
  8
PLAN_1
 62
     2
  6
CONTINUOUS
 10
-0.666732
 20
-0.875398
  0
VERTEX
  8
PLAN_1
 62
     2
  6
CONTINUOUS
 10
-0.665697
 20
-0.873331
  0
VERTEX
  8
PLAN_1
 62
     2
  6
CONTINUOUS
 10
-0.663634
 20
-0.871783
  0
VERTEX
  8
PLAN_1
 62
     2
  6
CONTINUOUS
 10
-0.662083
 20
-0.869717
  0
VERTEX
  8
PLAN_1
 62
     2
  6
CONTINUOUS
 10
-0.659504
 20
-0.868169
  0
VERTEX
  8
PLAN_1
 62
     2
  6
CONTINUOUS
 10
-0.657437
 20
-0.867138
  0
VERTEX
  8
PLAN_1
 62
     2
  6
CONTINUOUS
 10
-0.654854
 20
-0.866102
  0
VERTEX
  8
PLAN_1
 62
     2
  6
CONTINUOUS
 10
-0.651760
 20
-0.865071
  0
VERTEX
  8
PLAN_1
 62
     2
  6
CONTINUOUS
 10
-0.649177
 20
-0.864555
  0
VERTEX
  8
PLAN_1
 62
     2
  6
CONTINUOUS
 10
-0.645563
 20
-0.864555
  0
VERTEX
  8
PLAN_1
 62
     2
  6
CONTINUOUS
 10
-0.642980
 20
-0.864555
  0
VERTEX
  8
PLAN_1
 62
     2
  6
CONTINUOUS
 10
-0.640402
 20
-0.865071
  0
VERTEX
  8
PLAN_1
 62
     2
  6
CONTINUOUS
 10
-0.637819
 20
-0.866102
  0
VERTEX
  8
PLAN_1
 62
     2
  6
CONTINUOUS
 10
-0.635236
 20
-0.867138
  0
VERTEX
  8
PLAN_1
 62
     2
  6
CONTINUOUS
 10
-0.633173
 20
-0.868169
  0
VERTEX
  8
PLAN_1
 62
     2
  6
CONTINUOUS
 10
-0.631622
 20
-0.869717
  0
VERTEX
  8
PLAN_1
 62
     2
  6
CONTINUOUS
 10
-0.629559
 20
-0.871268
  0
VERTEX
  8
PLAN_1
 62
     2
  6
CONTINUOUS
 10
-0.628008
 20
-0.873331
  0
VERTEX
  8
PLAN_1
 62
     2
  6
CONTINUOUS
 10
-0.625429
 20
-0.877976
  0
VERTEX
  8
PLAN_1
 62
     2
  6
CONTINUOUS
 10
-0.623878
 20
-0.883142
  0
VERTEX
  8
PLAN_1
 62
     2
  6
CONTINUOUS
 10
-0.622846
 20
-0.889335
  0
VERTEX
  8
PLAN_1
 62
     2
  6
CONTINUOUS
 10
-0.622331
 20
-0.896563
  0
VERTEX
  8
PLAN_1
 62
     2
  6
CONTINUOUS
 10
-0.662083
 20
-0.896563
  0
VERTEX
  8
PLAN_1
 62
     2
  6
CONTINUOUS
 10
-0.661567
 20
-0.900177
  0
VERTEX
  8
PLAN_1
 62
     2
  6
CONTINUOUS
 10
-0.661051
 20
-0.903791
  0
VERTEX
  8
PLAN_1
 62
     2
  6
CONTINUOUS
 10
-0.660020
 20
-0.906890
  0
VERTEX
  8
PLAN_1
 62
     2
  6
CONTINUOUS
 10
-0.657953
 20
-0.909472
  0
VERTEX
  8
PLAN_1
 62
     2
  6
CONTINUOUS
 10
-0.655890
 20
-0.911535
  0
VERTEX
  8
PLAN_1
 62
     2
  6
CONTINUOUS
 10
-0.653307
 20
-0.913087
  0
VERTEX
  8
PLAN_1
 62
     2
  6
CONTINUOUS
 10
-0.649693
 20
-0.914118
  0
VERTEX
  8
PLAN_1
 62
     2
  6
CONTINUOUS
 10
-0.646079
 20
-0.914118
  0
VERTEX
  8
PLAN_1
 62
     2
  6
CONTINUOUS
 10
-0.642980
 20
-0.914118
  0
VERTEX
  8
PLAN_1
 62
     2
  6
CONTINUOUS
 10
-0.640402
 20
-0.913087
  0
VERTEX
  8
PLAN_1
 62
     2
  6
CONTINUOUS
 10
-0.637819
 20
-0.912051
  0
VERTEX
  8
PLAN_1
 62
     2
  6
CONTINUOUS
 10
-0.636272
 20
-0.910504
  0
VERTEX
  8
PLAN_1
 62
     2
  6
CONTINUOUS
 10
-0.634205
 20
-0.908957
  0
VERTEX
  8
PLAN_1
 62
     2
  6
CONTINUOUS
 10
-0.633173
 20
-0.906890
  0
VERTEX
  8
PLAN_1
 62
     2
  6
CONTINUOUS
 10
-0.632657
 20
-0.905343
  0
VERTEX
  8
PLAN_1
 62
     2
  6
CONTINUOUS
 10
-0.632138
 20
-0.903791
  0
VERTEX
  8
PLAN_1
 62
     2
  6
CONTINUOUS
 10
-0.622846
 20
-0.903791
  0
SEQEND
  8
0
  0
POLYLINE
  8
PLAN_1
 62
     2
  6
CONTINUOUS
 66
     1
 40
0.003000
 41
0.003000
  0
VERTEX
  8
PLAN_1
 62
     2
  6
CONTINUOUS
 10
-0.631622
 20
-0.889335
  0
VERTEX
  8
PLAN_1
 62
     2
  6
CONTINUOUS
 10
-0.632138
 20
-0.885720
  0
VERTEX
  8
PLAN_1
 62
     2
  6
CONTINUOUS
 10
-0.632657
 20
-0.883142
  0
VERTEX
  8
PLAN_1
 62
     2
  6
CONTINUOUS
 10
-0.633689
 20
-0.880043
  0
VERTEX
  8
PLAN_1
 62
     2
  6
CONTINUOUS
 10
-0.635236
 20
-0.877976
  0
VERTEX
  8
PLAN_1
 62
     2
  6
CONTINUOUS
 10
-0.637303
 20
-0.875913
  0
VERTEX
  8
PLAN_1
 62
     2
  6
CONTINUOUS
 10
-0.639886
 20
-0.874362
  0
VERTEX
  8
PLAN_1
 62
     2
  6
CONTINUOUS
 10
-0.642980
 20
-0.873331
  0
VERTEX
  8
PLAN_1
 62
     2
  6
CONTINUOUS
 10
-0.647110
 20
-0.872815
  0
VERTEX
  8
PLAN_1
 62
     2
  6
CONTINUOUS
 10
-0.650209
 20
-0.873331
  0
VERTEX
  8
PLAN_1
 62
     2
  6
CONTINUOUS
 10
-0.652791
 20
-0.874362
  0
VERTEX
  8
PLAN_1
 62
     2
  6
CONTINUOUS
 10
-0.655374
 20
-0.875913
  0
VERTEX
  8
PLAN_1
 62
     2
  6
CONTINUOUS
 10
-0.657437
 20
-0.877976
  0
VERTEX
  8
PLAN_1
 62
     2
  6
CONTINUOUS
 10
-0.659504
 20
-0.880043
  0
VERTEX
  8
PLAN_1
 62
     2
  6
CONTINUOUS
 10
-0.661051
 20
-0.883142
  0
VERTEX
  8
PLAN_1
 62
     2
  6
CONTINUOUS
 10
-0.661567
 20
-0.885720
  0
VERTEX
  8
PLAN_1
 62
     2
  6
CONTINUOUS
 10
-0.662083
 20
-0.889335
  0
VERTEX
  8
PLAN_1
 62
     2
  6
CONTINUOUS
 10
-0.631622
 20
-0.889335
  0
SEQEND
  8
0
  0
POLYLINE
  8
PLAN_1
 62
     2
  6
CONTINUOUS
 66
     1
 40
0.003000
 41
0.003000
  0
VERTEX
  8
PLAN_1
 62
     2
  6
CONTINUOUS
 10
-0.600130
 20
-0.873846
  0
VERTEX
  8
PLAN_1
 62
     2
  6
CONTINUOUS
 10
-0.600130
 20
-0.908957
  0
VERTEX
  8
PLAN_1
 62
     2
  6
CONTINUOUS
 10
-0.600130
 20
-0.910504
  0
VERTEX
  8
PLAN_1
 62
     2
  6
CONTINUOUS
 10
-0.599614
 20
-0.911535
  0
VERTEX
  8
PLAN_1
 62
     2
  6
CONTINUOUS
 10
-0.598583
 20
-0.912567
  0
VERTEX
  8
PLAN_1
 62
     2
  6
CONTINUOUS
 10
-0.598067
 20
-0.913087
  0
VERTEX
  8
PLAN_1
 62
     2
  6
CONTINUOUS
 10
-0.597031
 20
-0.913087
  0
VERTEX
  8
PLAN_1
 62
     2
  6
CONTINUOUS
 10
-0.596000
 20
-0.913602
  0
VERTEX
  8
PLAN_1
 62
     2
  6
CONTINUOUS
 10
-0.595484
 20
-0.913602
  0
VERTEX
  8
PLAN_1
 62
     2
  6
CONTINUOUS
 10
-0.594453
 20
-0.913602
  0
VERTEX
  8
PLAN_1
 62
     2
  6
CONTINUOUS
 10
-0.591354
 20
-0.913602
  0
VERTEX
  8
PLAN_1
 62
     2
  6
CONTINUOUS
 10
-0.591354
 20
-0.920831
  0
VERTEX
  8
PLAN_1
 62
     2
  6
CONTINUOUS
 10
-0.592386
 20
-0.920831
  0
VERTEX
  8
PLAN_1
 62
     2
  6
CONTINUOUS
 10
-0.593417
 20
-0.920831
  0
VERTEX
  8
PLAN_1
 62
     2
  6
CONTINUOUS
 10
-0.594969
 20
-0.920831
  0
VERTEX
  8
PLAN_1
 62
     2
  6
CONTINUOUS
 10
-0.595484
 20
-0.921346
  0
VERTEX
  8
PLAN_1
 62
     2
  6
CONTINUOUS
 10
-0.596516
 20
-0.921346
  0
VERTEX
  8
PLAN_1
 62
     2
  6
CONTINUOUS
 10
-0.597031
 20
-0.921346
  0
VERTEX
  8
PLAN_1
 62
     2
  6
CONTINUOUS
 10
-0.597547
 20
-0.921346
  0
VERTEX
  8
PLAN_1
 62
     2
  6
CONTINUOUS
 10
-0.598067
 20
-0.921346
  0
VERTEX
  8
PLAN_1
 62
     2
  6
CONTINUOUS
 10
-0.601161
 20
-0.921346
  0
VERTEX
  8
PLAN_1
 62
     2
  6
CONTINUOUS
 10
-0.603744
 20
-0.920315
  0
VERTEX
  8
PLAN_1
 62
     2
  6
CONTINUOUS
 10
-0.605811
 20
-0.919280
  0
VERTEX
  8
PLAN_1
 62
     2
  6
CONTINUOUS
 10
-0.606843
 20
-0.917732
  0
VERTEX
  8
PLAN_1
 62
     2
  6
CONTINUOUS
 10
-0.607874
 20
-0.916181
  0
VERTEX
  8
PLAN_1
 62
     2
  6
CONTINUOUS
 10
-0.608906
 20
-0.914118
  0
VERTEX
  8
PLAN_1
 62
     2
  6
CONTINUOUS
 10
-0.608906
 20
-0.912051
  0
VERTEX
  8
PLAN_1
 62
     2
  6
CONTINUOUS
 10
-0.609425
 20
-0.909472
  0
VERTEX
  8
PLAN_1
 62
     2
  6
CONTINUOUS
 10
-0.609425
 20
-0.873846
  0
VERTEX
  8
PLAN_1
 62
     2
  6
CONTINUOUS
 10
-0.616650
 20
-0.873846
  0
VERTEX
  8
PLAN_1
 62
     2
  6
CONTINUOUS
 10
-0.616650
 20
-0.866102
  0
VERTEX
  8
PLAN_1
 62
     2
  6
CONTINUOUS
 10
-0.609425
 20
-0.866102
  0
VERTEX
  8
PLAN_1
 62
     2
  6
CONTINUOUS
 10
-0.609425
 20
-0.851130
  0
VERTEX
  8
PLAN_1
 62
     2
  6
CONTINUOUS
 10
-0.600130
 20
-0.851130
  0
VERTEX
  8
PLAN_1
 62
     2
  6
CONTINUOUS
 10
-0.600130
 20
-0.866102
  0
VERTEX
  8
PLAN_1
 62
     2
  6
CONTINUOUS
 10
-0.591354
 20
-0.866102
  0
VERTEX
  8
PLAN_1
 62
     2
  6
CONTINUOUS
 10
-0.591354
 20
-0.873846
  0
VERTEX
  8
PLAN_1
 62
     2
  6
CONTINUOUS
 10
-0.600130
 20
-0.873846
  0
SEQEND
  8
0
  0
POLYLINE
  8
PLAN_1
 62
     2
  6
CONTINUOUS
 66
     1
 40
0.003000
 41
0.003000
  0
VERTEX
  8
PLAN_1
 62
     2
  6
CONTINUOUS
 10
-0.560378
 20
-0.864555
  0
VERTEX
  8
PLAN_1
 62
     2
  6
CONTINUOUS
 10
-0.557280
 20
-0.865071
  0
VERTEX
  8
PLAN_1
 62
     2
  6
CONTINUOUS
 10
-0.554181
 20
-0.865071
  0
VERTEX
  8
PLAN_1
 62
     2
  6
CONTINUOUS
 10
-0.551598
 20
-0.866102
  0
VERTEX
  8
PLAN_1
 62
     2
  6
CONTINUOUS
 10
-0.549020
 20
-0.867138
  0
VERTEX
  8
PLAN_1
 62
     2
  6
CONTINUOUS
 10
-0.546437
 20
-0.868685
  0
VERTEX
  8
PLAN_1
 62
     2
  6
CONTINUOUS
 10
-0.544370
 20
-0.870232
  0
VERTEX
  8
PLAN_1
 62
     2
  6
CONTINUOUS
 10
-0.542823
 20
-0.871783
  0
VERTEX
  8
PLAN_1
 62
     2
  6
CONTINUOUS
 10
-0.541276
 20
-0.873846
  0
VERTEX
  8
PLAN_1
 62
     2
  6
CONTINUOUS
 10
-0.538177
 20
-0.877976
  0
VERTEX
  8
PLAN_1
 62
     2
  6
CONTINUOUS
 10
-0.536626
 20
-0.883142
  0
VERTEX
  8
PLAN_1
 62
     2
  6
CONTINUOUS
 10
-0.535079
 20
-0.888303
  0
VERTEX
  8
PLAN_1
 62
     2
  6
CONTINUOUS
 10
-0.535079
 20
-0.893465
  0
VERTEX
  8
PLAN_1
 62
     2
  6
CONTINUOUS
 10
-0.535079
 20
-0.898630
  0
VERTEX
  8
PLAN_1
 62
     2
  6
CONTINUOUS
 10
-0.536626
 20
-0.903791
  0
VERTEX
  8
PLAN_1
 62
     2
  6
CONTINUOUS
 10
-0.538177
 20
-0.908437
  0
VERTEX
  8
PLAN_1
 62
     2
  6
CONTINUOUS
 10
-0.541276
 20
-0.913087
  0
VERTEX
  8
PLAN_1
 62
     2
  6
CONTINUOUS
 10
-0.542823
 20
-0.915150
  0
VERTEX
  8
PLAN_1
 62
     2
  6
CONTINUOUS
 10
-0.544370
 20
-0.916701
  0
VERTEX
  8
PLAN_1
 62
     2
  6
CONTINUOUS
 10
-0.546437
 20
-0.918248
  0
VERTEX
  8
PLAN_1
 62
     2
  6
CONTINUOUS
 10
-0.549020
 20
-0.919795
  0
VERTEX
  8
PLAN_1
 62
     2
  6
CONTINUOUS
 10
-0.551598
 20
-0.920831
  0
VERTEX
  8
PLAN_1
 62
     2
  6
CONTINUOUS
 10
-0.554181
 20
-0.921346
  0
VERTEX
  8
PLAN_1
 62
     2
  6
CONTINUOUS
 10
-0.557280
 20
-0.921862
  0
VERTEX
  8
PLAN_1
 62
     2
  6
CONTINUOUS
 10
-0.560378
 20
-0.921862
  0
VERTEX
  8
PLAN_1
 62
     2
  6
CONTINUOUS
 10
-0.563472
 20
-0.921862
  0
VERTEX
  8
PLAN_1
 62
     2
  6
CONTINUOUS
 10
-0.566055
 20
-0.921346
  0
VERTEX
  8
PLAN_1
 62
     2
  6
CONTINUOUS
 10
-0.569154
 20
-0.920831
  0
VERTEX
  8
PLAN_1
 62
     2
  6
CONTINUOUS
 10
-0.571736
 20
-0.919795
  0
VERTEX
  8
PLAN_1
 62
     2
  6
CONTINUOUS
 10
-0.573799
 20
-0.918248
  0
VERTEX
  8
PLAN_1
 62
     2
  6
CONTINUOUS
 10
-0.575866
 20
-0.916701
  0
VERTEX
  8
PLAN_1
 62
     2
  6
CONTINUOUS
 10
-0.577929
 20
-0.915150
  0
VERTEX
  8
PLAN_1
 62
     2
  6
CONTINUOUS
 10
-0.579480
 20
-0.913087
  0
VERTEX
  8
PLAN_1
 62
     2
  6
CONTINUOUS
 10
-0.582059
 20
-0.908437
  0
VERTEX
  8
PLAN_1
 62
     2
  6
CONTINUOUS
 10
-0.584126
 20
-0.903791
  0
VERTEX
  8
PLAN_1
 62
     2
  6
CONTINUOUS
 10
-0.585157
 20
-0.898630
  0
VERTEX
  8
PLAN_1
 62
     2
  6
CONTINUOUS
 10
-0.585673
 20
-0.893465
  0
VERTEX
  8
PLAN_1
 62
     2
  6
CONTINUOUS
 10
-0.585157
 20
-0.888303
  0
VERTEX
  8
PLAN_1
 62
     2
  6
CONTINUOUS
 10
-0.584126
 20
-0.883142
  0
VERTEX
  8
PLAN_1
 62
     2
  6
CONTINUOUS
 10
-0.582059
 20
-0.877976
  0
VERTEX
  8
PLAN_1
 62
     2
  6
CONTINUOUS
 10
-0.579480
 20
-0.873846
  0
VERTEX
  8
PLAN_1
 62
     2
  6
CONTINUOUS
 10
-0.577929
 20
-0.871783
  0
VERTEX
  8
PLAN_1
 62
     2
  6
CONTINUOUS
 10
-0.575866
 20
-0.870232
  0
VERTEX
  8
PLAN_1
 62
     2
  6
CONTINUOUS
 10
-0.573799
 20
-0.868685
  0
VERTEX
  8
PLAN_1
 62
     2
  6
CONTINUOUS
 10
-0.571736
 20
-0.867138
  0
VERTEX
  8
PLAN_1
 62
     2
  6
CONTINUOUS
 10
-0.569154
 20
-0.866102
  0
VERTEX
  8
PLAN_1
 62
     2
  6
CONTINUOUS
 10
-0.566055
 20
-0.865071
  0
VERTEX
  8
PLAN_1
 62
     2
  6
CONTINUOUS
 10
-0.563472
 20
-0.865071
  0
VERTEX
  8
PLAN_1
 62
     2
  6
CONTINUOUS
 10
-0.560378
 20
-0.864555
  0
SEQEND
  8
0
  0
POLYLINE
  8
PLAN_1
 62
     2
  6
CONTINUOUS
 66
     1
 40
0.003000
 41
0.003000
  0
VERTEX
  8
PLAN_1
 62
     2
  6
CONTINUOUS
 10
-0.560378
 20
-0.914118
  0
VERTEX
  8
PLAN_1
 62
     2
  6
CONTINUOUS
 10
-0.557795
 20
-0.914118
  0
VERTEX
  8
PLAN_1
 62
     2
  6
CONTINUOUS
 10
-0.555728
 20
-0.913602
  0
VERTEX
  8
PLAN_1
 62
     2
  6
CONTINUOUS
 10
-0.553665
 20
-0.913087
  0
VERTEX
  8
PLAN_1
 62
     2
  6
CONTINUOUS
 10
-0.552114
 20
-0.912051
  0
VERTEX
  8
PLAN_1
 62
     2
  6
CONTINUOUS
 10
-0.549535
 20
-0.909472
  0
VERTEX
  8
PLAN_1
 62
     2
  6
CONTINUOUS
 10
-0.547469
 20
-0.906374
  0
VERTEX
  8
PLAN_1
 62
     2
  6
CONTINUOUS
 10
-0.545921
 20
-0.903276
  0
VERTEX
  8
PLAN_1
 62
     2
  6
CONTINUOUS
 10
-0.544890
 20
-0.899661
  0
VERTEX
  8
PLAN_1
 62
     2
  6
CONTINUOUS
 10
-0.544370
 20
-0.896563
  0
VERTEX
  8
PLAN_1
 62
     2
  6
CONTINUOUS
 10
-0.544370
 20
-0.893465
  0
VERTEX
  8
PLAN_1
 62
     2
  6
CONTINUOUS
 10
-0.544370
 20
-0.890370
  0
VERTEX
  8
PLAN_1
 62
     2
  6
CONTINUOUS
 10
-0.544890
 20
-0.887272
  0
VERTEX
  8
PLAN_1
 62
     2
  6
CONTINUOUS
 10
-0.545921
 20
-0.883657
  0
VERTEX
  8
PLAN_1
 62
     2
  6
CONTINUOUS
 10
-0.547469
 20
-0.880043
  0
VERTEX
  8
PLAN_1
 62
     2
  6
CONTINUOUS
 10
-0.549535
 20
-0.877461
  0
VERTEX
  8
PLAN_1
 62
     2
  6
CONTINUOUS
 10
-0.552114
 20
-0.874882
  0
VERTEX
  8
PLAN_1
 62
     2
  6
CONTINUOUS
 10
-0.553665
 20
-0.873846
  0
VERTEX
  8
PLAN_1
 62
     2
  6
CONTINUOUS
 10
-0.555728
 20
-0.873331
  0
VERTEX
  8
PLAN_1
 62
     2
  6
CONTINUOUS
 10
-0.557795
 20
-0.872815
  0
VERTEX
  8
PLAN_1
 62
     2
  6
CONTINUOUS
 10
-0.560378
 20
-0.872299
  0
VERTEX
  8
PLAN_1
 62
     2
  6
CONTINUOUS
 10
-0.562441
 20
-0.872815
  0
VERTEX
  8
PLAN_1
 62
     2
  6
CONTINUOUS
 10
-0.564508
 20
-0.873331
  0
VERTEX
  8
PLAN_1
 62
     2
  6
CONTINUOUS
 10
-0.566571
 20
-0.873846
  0
VERTEX
  8
PLAN_1
 62
     2
  6
CONTINUOUS
 10
-0.568122
 20
-0.874882
  0
VERTEX
  8
PLAN_1
 62
     2
  6
CONTINUOUS
 10
-0.571217
 20
-0.877461
  0
VERTEX
  8
PLAN_1
 62
     2
  6
CONTINUOUS
 10
-0.572768
 20
-0.880043
  0
VERTEX
  8
PLAN_1
 62
     2
  6
CONTINUOUS
 10
-0.574315
 20
-0.883657
  0
VERTEX
  8
PLAN_1
 62
     2
  6
CONTINUOUS
 10
-0.575350
 20
-0.887272
  0
VERTEX
  8
PLAN_1
 62
     2
  6
CONTINUOUS
 10
-0.575866
 20
-0.890370
  0
VERTEX
  8
PLAN_1
 62
     2
  6
CONTINUOUS
 10
-0.575866
 20
-0.893465
  0
VERTEX
  8
PLAN_1
 62
     2
  6
CONTINUOUS
 10
-0.575866
 20
-0.896563
  0
VERTEX
  8
PLAN_1
 62
     2
  6
CONTINUOUS
 10
-0.575350
 20
-0.899661
  0
VERTEX
  8
PLAN_1
 62
     2
  6
CONTINUOUS
 10
-0.574315
 20
-0.903276
  0
VERTEX
  8
PLAN_1
 62
     2
  6
CONTINUOUS
 10
-0.572768
 20
-0.906374
  0
VERTEX
  8
PLAN_1
 62
     2
  6
CONTINUOUS
 10
-0.571217
 20
-0.909472
  0
VERTEX
  8
PLAN_1
 62
     2
  6
CONTINUOUS
 10
-0.568122
 20
-0.912051
  0
VERTEX
  8
PLAN_1
 62
     2
  6
CONTINUOUS
 10
-0.566571
 20
-0.913087
  0
VERTEX
  8
PLAN_1
 62
     2
  6
CONTINUOUS
 10
-0.564508
 20
-0.913602
  0
VERTEX
  8
PLAN_1
 62
     2
  6
CONTINUOUS
 10
-0.562441
 20
-0.914118
  0
VERTEX
  8
PLAN_1
 62
     2
  6
CONTINUOUS
 10
-0.560378
 20
-0.914118
  0
SEQEND
  8
0
  0
POLYLINE
  8
PLAN_1
 62
     2
  6
CONTINUOUS
 66
     1
 40
0.003000
 41
0.003000
  0
VERTEX
  8
PLAN_1
 62
     2
  6
CONTINUOUS
 10
-0.489130
 20
-0.920831
  0
VERTEX
  8
PLAN_1
 62
     2
  6
CONTINUOUS
 10
-0.489130
 20
-0.912567
  0
VERTEX
  8
PLAN_1
 62
     2
  6
CONTINUOUS
 10
-0.490677
 20
-0.914634
  0
VERTEX
  8
PLAN_1
 62
     2
  6
CONTINUOUS
 10
-0.492228
 20
-0.916701
  0
VERTEX
  8
PLAN_1
 62
     2
  6
CONTINUOUS
 10
-0.494291
 20
-0.918248
  0
VERTEX
  8
PLAN_1
 62
     2
  6
CONTINUOUS
 10
-0.495843
 20
-0.919795
  0
VERTEX
  8
PLAN_1
 62
     2
  6
CONTINUOUS
 10
-0.498421
 20
-0.920831
  0
VERTEX
  8
PLAN_1
 62
     2
  6
CONTINUOUS
 10
-0.500488
 20
-0.921346
  0
VERTEX
  8
PLAN_1
 62
     2
  6
CONTINUOUS
 10
-0.503587
 20
-0.921862
  0
VERTEX
  8
PLAN_1
 62
     2
  6
CONTINUOUS
 10
-0.506681
 20
-0.922378
  0
VERTEX
  8
PLAN_1
 62
     2
  6
CONTINUOUS
 10
-0.509780
 20
-0.921862
  0
VERTEX
  8
PLAN_1
 62
     2
  6
CONTINUOUS
 10
-0.512362
 20
-0.921346
  0
VERTEX
  8
PLAN_1
 62
     2
  6
CONTINUOUS
 10
-0.515461
 20
-0.920315
  0
VERTEX
  8
PLAN_1
 62
     2
  6
CONTINUOUS
 10
-0.518559
 20
-0.918764
  0
VERTEX
  8
PLAN_1
 62
     2
  6
CONTINUOUS
 10
-0.520622
 20
-0.916181
  0
VERTEX
  8
PLAN_1
 62
     2
  6
CONTINUOUS
 10
-0.522689
 20
-0.913602
  0
VERTEX
  8
PLAN_1
 62
     2
  6
CONTINUOUS
 10
-0.523720
 20
-0.909988
  0
VERTEX
  8
PLAN_1
 62
     2
  6
CONTINUOUS
 10
-0.524236
 20
-0.905343
  0
VERTEX
  8
PLAN_1
 62
     2
  6
CONTINUOUS
 10
-0.524236
 20
-0.866102
  0
VERTEX
  8
PLAN_1
 62
     2
  6
CONTINUOUS
 10
-0.514945
 20
-0.866102
  0
VERTEX
  8
PLAN_1
 62
     2
  6
CONTINUOUS
 10
-0.514945
 20
-0.902244
  0
VERTEX
  8
PLAN_1
 62
     2
  6
CONTINUOUS
 10
-0.514945
 20
-0.905343
  0
VERTEX
  8
PLAN_1
 62
     2
  6
CONTINUOUS
 10
-0.514429
 20
-0.907921
  0
VERTEX
  8
PLAN_1
 62
     2
  6
CONTINUOUS
 10
-0.513394
 20
-0.909988
  0
VERTEX
  8
PLAN_1
 62
     2
  6
CONTINUOUS
 10
-0.511846
 20
-0.911535
  0
VERTEX
  8
PLAN_1
 62
     2
  6
CONTINUOUS
 10
-0.510295
 20
-0.913087
  0
VERTEX
  8
PLAN_1
 62
     2
  6
CONTINUOUS
 10
-0.508748
 20
-0.913602
  0
VERTEX
  8
PLAN_1
 62
     2
  6
CONTINUOUS
 10
-0.506681
 20
-0.914118
  0
VERTEX
  8
PLAN_1
 62
     2
  6
CONTINUOUS
 10
-0.504618
 20
-0.914118
  0
VERTEX
  8
PLAN_1
 62
     2
  6
CONTINUOUS
 10
-0.500488
 20
-0.913602
  0
VERTEX
  8
PLAN_1
 62
     2
  6
CONTINUOUS
 10
-0.497390
 20
-0.912567
  0
VERTEX
  8
PLAN_1
 62
     2
  6
CONTINUOUS
 10
-0.494807
 20
-0.910504
  0
VERTEX
  8
PLAN_1
 62
     2
  6
CONTINUOUS
 10
-0.492744
 20
-0.908437
  0
VERTEX
  8
PLAN_1
 62
     2
  6
CONTINUOUS
 10
-0.491193
 20
-0.905343
  0
VERTEX
  8
PLAN_1
 62
     2
  6
CONTINUOUS
 10
-0.490161
 20
-0.902244
  0
VERTEX
  8
PLAN_1
 62
     2
  6
CONTINUOUS
 10
-0.489646
 20
-0.899146
  0
VERTEX
  8
PLAN_1
 62
     2
  6
CONTINUOUS
 10
-0.489646
 20
-0.896047
  0
VERTEX
  8
PLAN_1
 62
     2
  6
CONTINUOUS
 10
-0.489646
 20
-0.866102
  0
VERTEX
  8
PLAN_1
 62
     2
  6
CONTINUOUS
 10
-0.480354
 20
-0.866102
  0
VERTEX
  8
PLAN_1
 62
     2
  6
CONTINUOUS
 10
-0.480354
 20
-0.920831
  0
VERTEX
  8
PLAN_1
 62
     2
  6
CONTINUOUS
 10
-0.489130
 20
-0.920831
  0
SEQEND
  8
0
  0
POLYLINE
  8
PLAN_1
 62
     2
  6
CONTINUOUS
 66
     1
 40
0.003000
 41
0.003000
  0
VERTEX
  8
PLAN_1
 62
     2
  6
CONTINUOUS
 10
-0.467445
 20
-0.866102
  0
VERTEX
  8
PLAN_1
 62
     2
  6
CONTINUOUS
 10
-0.458669
 20
-0.866102
  0
VERTEX
  8
PLAN_1
 62
     2
  6
CONTINUOUS
 10
-0.458669
 20
-0.873846
  0
VERTEX
  8
PLAN_1
 62
     2
  6
CONTINUOUS
 10
-0.457638
 20
-0.872815
  0
VERTEX
  8
PLAN_1
 62
     2
  6
CONTINUOUS
 10
-0.456602
 20
-0.871268
  0
VERTEX
  8
PLAN_1
 62
     2
  6
CONTINUOUS
 10
-0.455055
 20
-0.869717
  0
VERTEX
  8
PLAN_1
 62
     2
  6
CONTINUOUS
 10
-0.452988
 20
-0.868169
  0
VERTEX
  8
PLAN_1
 62
     2
  6
CONTINUOUS
 10
-0.450925
 20
-0.866618
  0
VERTEX
  8
PLAN_1
 62
     2
  6
CONTINUOUS
 10
-0.448858
 20
-0.865587
  0
VERTEX
  8
PLAN_1
 62
     2
  6
CONTINUOUS
 10
-0.445760
 20
-0.865071
  0
VERTEX
  8
PLAN_1
 62
     2
  6
CONTINUOUS
 10
-0.442146
 20
-0.864555
  0
VERTEX
  8
PLAN_1
 62
     2
  6
CONTINUOUS
 10
-0.439567
 20
-0.864555
  0
VERTEX
  8
PLAN_1
 62
     2
  6
CONTINUOUS
 10
-0.436984
 20
-0.865071
  0
VERTEX
  8
PLAN_1
 62
     2
  6
CONTINUOUS
 10
-0.434921
 20
-0.866102
  0
VERTEX
  8
PLAN_1
 62
     2
  6
CONTINUOUS
 10
-0.432339
 20
-0.866618
  0
VERTEX
  8
PLAN_1
 62
     2
  6
CONTINUOUS
 10
-0.430787
 20
-0.867654
  0
VERTEX
  8
PLAN_1
 62
     2
  6
CONTINUOUS
 10
-0.428724
 20
-0.869201
  0
VERTEX
  8
PLAN_1
 62
     2
  6
CONTINUOUS
 10
-0.427177
 20
-0.870748
  0
VERTEX
  8
PLAN_1
 62
     2
  6
CONTINUOUS
 10
-0.425626
 20
-0.872299
  0
VERTEX
  8
PLAN_1
 62
     2
  6
CONTINUOUS
 10
-0.423043
 20
-0.876429
  0
VERTEX
  8
PLAN_1
 62
     2
  6
CONTINUOUS
 10
-0.420980
 20
-0.881075
  0
VERTEX
  8
PLAN_1
 62
     2
  6
CONTINUOUS
 10
-0.419949
 20
-0.886240
  0
VERTEX
  8
PLAN_1
 62
     2
  6
CONTINUOUS
 10
-0.419429
 20
-0.891917
  0
VERTEX
  8
PLAN_1
 62
     2
  6
CONTINUOUS
 10
-0.419949
 20
-0.897079
  0
VERTEX
  8
PLAN_1
 62
     2
  6
CONTINUOUS
 10
-0.420465
 20
-0.902244
  0
VERTEX
  8
PLAN_1
 62
     2
  6
CONTINUOUS
 10
-0.422012
 20
-0.906890
  0
VERTEX
  8
PLAN_1
 62
     2
  6
CONTINUOUS
 10
-0.424594
 20
-0.912051
  0
VERTEX
  8
PLAN_1
 62
     2
  6
CONTINUOUS
 10
-0.426142
 20
-0.914118
  0
VERTEX
  8
PLAN_1
 62
     2
  6
CONTINUOUS
 10
-0.427693
 20
-0.916181
  0
VERTEX
  8
PLAN_1
 62
     2
  6
CONTINUOUS
 10
-0.429756
 20
-0.917732
  0
VERTEX
  8
PLAN_1
 62
     2
  6
CONTINUOUS
 10
-0.431823
 20
-0.919280
  0
VERTEX
  8
PLAN_1
 62
     2
  6
CONTINUOUS
 10
-0.434402
 20
-0.920315
  0
VERTEX
  8
PLAN_1
 62
     2
  6
CONTINUOUS
 10
-0.436984
 20
-0.921346
  0
VERTEX
  8
PLAN_1
 62
     2
  6
CONTINUOUS
 10
-0.440083
 20
-0.921862
  0
VERTEX
  8
PLAN_1
 62
     2
  6
CONTINUOUS
 10
-0.443697
 20
-0.922378
  0
VERTEX
  8
PLAN_1
 62
     2
  6
CONTINUOUS
 10
-0.446280
 20
-0.921862
  0
VERTEX
  8
PLAN_1
 62
     2
  6
CONTINUOUS
 10
-0.448343
 20
-0.921346
  0
VERTEX
  8
PLAN_1
 62
     2
  6
CONTINUOUS
 10
-0.450409
 20
-0.920831
  0
VERTEX
  8
PLAN_1
 62
     2
  6
CONTINUOUS
 10
-0.452472
 20
-0.919795
  0
VERTEX
  8
PLAN_1
 62
     2
  6
CONTINUOUS
 10
-0.454024
 20
-0.918764
  0
VERTEX
  8
PLAN_1
 62
     2
  6
CONTINUOUS
 10
-0.455571
 20
-0.917732
  0
VERTEX
  8
PLAN_1
 62
     2
  6
CONTINUOUS
 10
-0.457118
 20
-0.916181
  0
VERTEX
  8
PLAN_1
 62
     2
  6
CONTINUOUS
 10
-0.458154
 20
-0.914634
  0
VERTEX
  8
PLAN_1
 62
     2
  6
CONTINUOUS
 10
-0.458154
 20
-0.941996
  0
VERTEX
  8
PLAN_1
 62
     2
  6
CONTINUOUS
 10
-0.467445
 20
-0.941996
  0
VERTEX
  8
PLAN_1
 62
     2
  6
CONTINUOUS
 10
-0.467445
 20
-0.866102
  0
SEQEND
  8
0
  0
POLYLINE
  8
PLAN_1
 62
     2
  6
CONTINUOUS
 66
     1
 40
0.003000
 41
0.003000
  0
VERTEX
  8
PLAN_1
 62
     2
  6
CONTINUOUS
 10
-0.443697
 20
-0.914118
  0
VERTEX
  8
PLAN_1
 62
     2
  6
CONTINUOUS
 10
-0.440083
 20
-0.914118
  0
VERTEX
  8
PLAN_1
 62
     2
  6
CONTINUOUS
 10
-0.436984
 20
-0.912567
  0
VERTEX
  8
PLAN_1
 62
     2
  6
CONTINUOUS
 10
-0.434402
 20
-0.911020
  0
VERTEX
  8
PLAN_1
 62
     2
  6
CONTINUOUS
 10
-0.432854
 20
-0.908437
  0
VERTEX
  8
PLAN_1
 62
     2
  6
CONTINUOUS
 10
-0.430787
 20
-0.905343
  0
VERTEX
  8
PLAN_1
 62
     2
  6
CONTINUOUS
 10
-0.429756
 20
-0.901728
  0
VERTEX
  8
PLAN_1
 62
     2
  6
CONTINUOUS
 10
-0.429240
 20
-0.897598
  0
VERTEX
  8
PLAN_1
 62
     2
  6
CONTINUOUS
 10
-0.429240
 20
-0.893465
  0
VERTEX
  8
PLAN_1
 62
     2
  6
CONTINUOUS
 10
-0.429240
 20
-0.890370
  0
VERTEX
  8
PLAN_1
 62
     2
  6
CONTINUOUS
 10
-0.429240
 20
-0.887272
  0
VERTEX
  8
PLAN_1
 62
     2
  6
CONTINUOUS
 10
-0.429756
 20
-0.883657
  0
VERTEX
  8
PLAN_1
 62
     2
  6
CONTINUOUS
 10
-0.431307
 20
-0.880559
  0
VERTEX
  8
PLAN_1
 62
     2
  6
CONTINUOUS
 10
-0.432854
 20
-0.877461
  0
VERTEX
  8
PLAN_1
 62
     2
  6
CONTINUOUS
 10
-0.435437
 20
-0.874882
  0
VERTEX
  8
PLAN_1
 62
     2
  6
CONTINUOUS
 10
-0.437500
 20
-0.874362
  0
VERTEX
  8
PLAN_1
 62
     2
  6
CONTINUOUS
 10
-0.439051
 20
-0.873331
  0
VERTEX
  8
PLAN_1
 62
     2
  6
CONTINUOUS
 10
-0.441630
 20
-0.872815
  0
VERTEX
  8
PLAN_1
 62
     2
  6
CONTINUOUS
 10
-0.443697
 20
-0.872815
  0
VERTEX
  8
PLAN_1
 62
     2
  6
CONTINUOUS
 10
-0.446280
 20
-0.872815
  0
VERTEX
  8
PLAN_1
 62
     2
  6
CONTINUOUS
 10
-0.448343
 20
-0.873331
  0
VERTEX
  8
PLAN_1
 62
     2
  6
CONTINUOUS
 10
-0.450409
 20
-0.874362
  0
VERTEX
  8
PLAN_1
 62
     2
  6
CONTINUOUS
 10
-0.451957
 20
-0.875398
  0
VERTEX
  8
PLAN_1
 62
     2
  6
CONTINUOUS
 10
-0.454539
 20
-0.877976
  0
VERTEX
  8
PLAN_1
 62
     2
  6
CONTINUOUS
 10
-0.456087
 20
-0.881075
  0
VERTEX
  8
PLAN_1
 62
     2
  6
CONTINUOUS
 10
-0.457638
 20
-0.884689
  0
VERTEX
  8
PLAN_1
 62
     2
  6
CONTINUOUS
 10
-0.458154
 20
-0.888819
  0
VERTEX
  8
PLAN_1
 62
     2
  6
CONTINUOUS
 10
-0.458669
 20
-0.892433
  0
VERTEX
  8
PLAN_1
 62
     2
  6
CONTINUOUS
 10
-0.458669
 20
-0.896047
  0
VERTEX
  8
PLAN_1
 62
     2
  6
CONTINUOUS
 10
-0.458154
 20
-0.900693
  0
VERTEX
  8
PLAN_1
 62
     2
  6
CONTINUOUS
 10
-0.457118
 20
-0.904823
  0
VERTEX
  8
PLAN_1
 62
     2
  6
CONTINUOUS
 10
-0.455571
 20
-0.907921
  0
VERTEX
  8
PLAN_1
 62
     2
  6
CONTINUOUS
 10
-0.453504
 20
-0.910504
  0
VERTEX
  8
PLAN_1
 62
     2
  6
CONTINUOUS
 10
-0.450925
 20
-0.912051
  0
VERTEX
  8
PLAN_1
 62
     2
  6
CONTINUOUS
 10
-0.448343
 20
-0.913602
  0
VERTEX
  8
PLAN_1
 62
     2
  6
CONTINUOUS
 10
-0.445760
 20
-0.914118
  0
VERTEX
  8
PLAN_1
 62
     2
  6
CONTINUOUS
 10
-0.443697
 20
-0.914118
  0
SEQEND
  8
0
  0
POLYLINE
  8
PLAN_1
 62
     2
  6
CONTINUOUS
 66
     1
 40
0.003000
 41
0.003000
  0
VERTEX
  8
PLAN_1
 62
     2
  6
CONTINUOUS
 10
-0.362642
 20
-0.903791
  0
VERTEX
  8
PLAN_1
 62
     2
  6
CONTINUOUS
 10
-0.362642
 20
-0.904823
  0
VERTEX
  8
PLAN_1
 62
     2
  6
CONTINUOUS
 10
-0.363157
 20
-0.906374
  0
VERTEX
  8
PLAN_1
 62
     2
  6
CONTINUOUS
 10
-0.363673
 20
-0.908437
  0
VERTEX
  8
PLAN_1
 62
     2
  6
CONTINUOUS
 10
-0.364705
 20
-0.910504
  0
VERTEX
  8
PLAN_1
 62
     2
  6
CONTINUOUS
 10
-0.366256
 20
-0.912567
  0
VERTEX
  8
PLAN_1
 62
     2
  6
CONTINUOUS
 10
-0.367803
 20
-0.914634
  0
VERTEX
  8
PLAN_1
 62
     2
  6
CONTINUOUS
 10
-0.369866
 20
-0.916701
  0
VERTEX
  8
PLAN_1
 62
     2
  6
CONTINUOUS
 10
-0.371933
 20
-0.918248
  0
VERTEX
  8
PLAN_1
 62
     2
  6
CONTINUOUS
 10
-0.372965
 20
-0.919280
  0
VERTEX
  8
PLAN_1
 62
     2
  6
CONTINUOUS
 10
-0.374516
 20
-0.919795
  0
VERTEX
  8
PLAN_1
 62
     2
  6
CONTINUOUS
 10
-0.375547
 20
-0.920315
  0
VERTEX
  8
PLAN_1
 62
     2
  6
CONTINUOUS
 10
-0.377094
 20
-0.920831
  0
VERTEX
  8
PLAN_1
 62
     2
  6
CONTINUOUS
 10
-0.379161
 20
-0.921346
  0
VERTEX
  8
PLAN_1
 62
     2
  6
CONTINUOUS
 10
-0.381224
 20
-0.921862
  0
VERTEX
  8
PLAN_1
 62
     2
  6
CONTINUOUS
 10
-0.383807
 20
-0.921862
  0
VERTEX
  8
PLAN_1
 62
     2
  6
CONTINUOUS
 10
-0.386906
 20
-0.922378
  0
VERTEX
  8
PLAN_1
 62
     2
  6
CONTINUOUS
 10
-0.389488
 20
-0.921862
  0
VERTEX
  8
PLAN_1
 62
     2
  6
CONTINUOUS
 10
-0.392583
 20
-0.921862
  0
VERTEX
  8
PLAN_1
 62
     2
  6
CONTINUOUS
 10
-0.394650
 20
-0.920831
  0
VERTEX
  8
PLAN_1
 62
     2
  6
CONTINUOUS
 10
-0.397232
 20
-0.920315
  0
VERTEX
  8
PLAN_1
 62
     2
  6
CONTINUOUS
 10
-0.399295
 20
-0.919280
  0
VERTEX
  8
PLAN_1
 62
     2
  6
CONTINUOUS
 10
-0.401362
 20
-0.917732
  0
VERTEX
  8
PLAN_1
 62
     2
  6
CONTINUOUS
 10
-0.403425
 20
-0.916181
  0
VERTEX
  8
PLAN_1
 62
     2
  6
CONTINUOUS
 10
-0.404976
 20
-0.914634
  0
VERTEX
  8
PLAN_1
 62
     2
  6
CONTINUOUS
 10
-0.407555
 20
-0.910504
  0
VERTEX
  8
PLAN_1
 62
     2
  6
CONTINUOUS
 10
-0.409622
 20
-0.905858
  0
VERTEX
  8
PLAN_1
 62
     2
  6
CONTINUOUS
 10
-0.410654
 20
-0.900693
  0
VERTEX
  8
PLAN_1
 62
     2
  6
CONTINUOUS
 10
-0.411169
 20
-0.895016
  0
VERTEX
  8
PLAN_1
 62
     2
  6
CONTINUOUS
 10
-0.410654
 20
-0.888819
  0
VERTEX
  8
PLAN_1
 62
     2
  6
CONTINUOUS
 10
-0.409622
 20
-0.883142
  0
VERTEX
  8
PLAN_1
 62
     2
  6
CONTINUOUS
 10
-0.409106
 20
-0.880559
  0
VERTEX
  8
PLAN_1
 62
     2
  6
CONTINUOUS
 10
-0.407555
 20
-0.877976
  0
VERTEX
  8
PLAN_1
 62
     2
  6
CONTINUOUS
 10
-0.406524
 20
-0.875398
  0
VERTEX
  8
PLAN_1
 62
     2
  6
CONTINUOUS
 10
-0.404976
 20
-0.873331
  0
VERTEX
  8
PLAN_1
 62
     2
  6
CONTINUOUS
 10
-0.403425
 20
-0.871783
  0
VERTEX
  8
PLAN_1
 62
     2
  6
CONTINUOUS
 10
-0.401362
 20
-0.869717
  0
VERTEX
  8
PLAN_1
 62
     2
  6
CONTINUOUS
 10
-0.399295
 20
-0.868169
  0
VERTEX
  8
PLAN_1
 62
     2
  6
CONTINUOUS
 10
-0.396717
 20
-0.867138
  0
VERTEX
  8
PLAN_1
 62
     2
  6
CONTINUOUS
 10
-0.394134
 20
-0.866102
  0
VERTEX
  8
PLAN_1
 62
     2
  6
CONTINUOUS
 10
-0.391551
 20
-0.865071
  0
VERTEX
  8
PLAN_1
 62
     2
  6
CONTINUOUS
 10
-0.388453
 20
-0.864555
  0
VERTEX
  8
PLAN_1
 62
     2
  6
CONTINUOUS
 10
-0.385358
 20
-0.864555
  0
VERTEX
  8
PLAN_1
 62
     2
  6
CONTINUOUS
 10
-0.382260
 20
-0.864555
  0
VERTEX
  8
PLAN_1
 62
     2
  6
CONTINUOUS
 10
-0.379677
 20
-0.865071
  0
VERTEX
  8
PLAN_1
 62
     2
  6
CONTINUOUS
 10
-0.377094
 20
-0.866102
  0
VERTEX
  8
PLAN_1
 62
     2
  6
CONTINUOUS
 10
-0.375031
 20
-0.867138
  0
VERTEX
  8
PLAN_1
 62
     2
  6
CONTINUOUS
 10
-0.372965
 20
-0.868169
  0
VERTEX
  8
PLAN_1
 62
     2
  6
CONTINUOUS
 10
-0.370902
 20
-0.869717
  0
VERTEX
  8
PLAN_1
 62
     2
  6
CONTINUOUS
 10
-0.369350
 20
-0.871268
  0
VERTEX
  8
PLAN_1
 62
     2
  6
CONTINUOUS
 10
-0.367803
 20
-0.873331
  0
VERTEX
  8
PLAN_1
 62
     2
  6
CONTINUOUS
 10
-0.365220
 20
-0.877976
  0
VERTEX
  8
PLAN_1
 62
     2
  6
CONTINUOUS
 10
-0.363157
 20
-0.883142
  0
VERTEX
  8
PLAN_1
 62
     2
  6
CONTINUOUS
 10
-0.362122
 20
-0.889335
  0
VERTEX
  8
PLAN_1
 62
     2
  6
CONTINUOUS
 10
-0.361606
 20
-0.896563
  0
VERTEX
  8
PLAN_1
 62
     2
  6
CONTINUOUS
 10
-0.401362
 20
-0.896563
  0
VERTEX
  8
PLAN_1
 62
     2
  6
CONTINUOUS
 10
-0.401362
 20
-0.900177
  0
VERTEX
  8
PLAN_1
 62
     2
  6
CONTINUOUS
 10
-0.400327
 20
-0.903791
  0
VERTEX
  8
PLAN_1
 62
     2
  6
CONTINUOUS
 10
-0.399295
 20
-0.906890
  0
VERTEX
  8
PLAN_1
 62
     2
  6
CONTINUOUS
 10
-0.397748
 20
-0.909472
  0
VERTEX
  8
PLAN_1
 62
     2
  6
CONTINUOUS
 10
-0.395165
 20
-0.911535
  0
VERTEX
  8
PLAN_1
 62
     2
  6
CONTINUOUS
 10
-0.392583
 20
-0.913087
  0
VERTEX
  8
PLAN_1
 62
     2
  6
CONTINUOUS
 10
-0.389488
 20
-0.914118
  0
VERTEX
  8
PLAN_1
 62
     2
  6
CONTINUOUS
 10
-0.385874
 20
-0.914118
  0
VERTEX
  8
PLAN_1
 62
     2
  6
CONTINUOUS
 10
-0.382776
 20
-0.914118
  0
VERTEX
  8
PLAN_1
 62
     2
  6
CONTINUOUS
 10
-0.379677
 20
-0.913087
  0
VERTEX
  8
PLAN_1
 62
     2
  6
CONTINUOUS
 10
-0.377610
 20
-0.912051
  0
VERTEX
  8
PLAN_1
 62
     2
  6
CONTINUOUS
 10
-0.375547
 20
-0.910504
  0
VERTEX
  8
PLAN_1
 62
     2
  6
CONTINUOUS
 10
-0.374000
 20
-0.908957
  0
VERTEX
  8
PLAN_1
 62
     2
  6
CONTINUOUS
 10
-0.372965
 20
-0.906890
  0
VERTEX
  8
PLAN_1
 62
     2
  6
CONTINUOUS
 10
-0.371933
 20
-0.905343
  0
VERTEX
  8
PLAN_1
 62
     2
  6
CONTINUOUS
 10
-0.371417
 20
-0.903791
  0
VERTEX
  8
PLAN_1
 62
     2
  6
CONTINUOUS
 10
-0.362642
 20
-0.903791
  0
SEQEND
  8
0
  0
POLYLINE
  8
PLAN_1
 62
     2
  6
CONTINUOUS
 66
     1
 40
0.003000
 41
0.003000
  0
VERTEX
  8
PLAN_1
 62
     2
  6
CONTINUOUS
 10
-0.371417
 20
-0.889335
  0
VERTEX
  8
PLAN_1
 62
     2
  6
CONTINUOUS
 10
-0.371417
 20
-0.885720
  0
VERTEX
  8
PLAN_1
 62
     2
  6
CONTINUOUS
 10
-0.372449
 20
-0.883142
  0
VERTEX
  8
PLAN_1
 62
     2
  6
CONTINUOUS
 10
-0.373480
 20
-0.880043
  0
VERTEX
  8
PLAN_1
 62
     2
  6
CONTINUOUS
 10
-0.375031
 20
-0.877976
  0
VERTEX
  8
PLAN_1
 62
     2
  6
CONTINUOUS
 10
-0.377094
 20
-0.875913
  0
VERTEX
  8
PLAN_1
 62
     2
  6
CONTINUOUS
 10
-0.379677
 20
-0.874362
  0
VERTEX
  8
PLAN_1
 62
     2
  6
CONTINUOUS
 10
-0.382776
 20
-0.873331
  0
VERTEX
  8
PLAN_1
 62
     2
  6
CONTINUOUS
 10
-0.386390
 20
-0.872815
  0
VERTEX
  8
PLAN_1
 62
     2
  6
CONTINUOUS
 10
-0.389488
 20
-0.873331
  0
VERTEX
  8
PLAN_1
 62
     2
  6
CONTINUOUS
 10
-0.392067
 20
-0.874362
  0
VERTEX
  8
PLAN_1
 62
     2
  6
CONTINUOUS
 10
-0.394650
 20
-0.875913
  0
VERTEX
  8
PLAN_1
 62
     2
  6
CONTINUOUS
 10
-0.397232
 20
-0.877976
  0
VERTEX
  8
PLAN_1
 62
     2
  6
CONTINUOUS
 10
-0.398780
 20
-0.880043
  0
VERTEX
  8
PLAN_1
 62
     2
  6
CONTINUOUS
 10
-0.400327
 20
-0.883142
  0
VERTEX
  8
PLAN_1
 62
     2
  6
CONTINUOUS
 10
-0.401362
 20
-0.885720
  0
VERTEX
  8
PLAN_1
 62
     2
  6
CONTINUOUS
 10
-0.401362
 20
-0.889335
  0
VERTEX
  8
PLAN_1
 62
     2
  6
CONTINUOUS
 10
-0.371417
 20
-0.889335
  0
SEQEND
  8
0
  0
POLYLINE
  8
PLAN_1
 62
     2
  6
CONTINUOUS
 66
     1
 40
0.003000
 41
0.003000
  0
VERTEX
  8
PLAN_1
 62
     2
  6
CONTINUOUS
 10
-0.291394
 20
-0.920831
  0
VERTEX
  8
PLAN_1
 62
     2
  6
CONTINUOUS
 10
-0.301201
 20
-0.920831
  0
VERTEX
  8
PLAN_1
 62
     2
  6
CONTINUOUS
 10
-0.301201
 20
-0.868685
  0
VERTEX
  8
PLAN_1
 62
     2
  6
CONTINUOUS
 10
-0.318240
 20
-0.868685
  0
VERTEX
  8
PLAN_1
 62
     2
  6
CONTINUOUS
 10
-0.318240
 20
-0.861457
  0
VERTEX
  8
PLAN_1
 62
     2
  6
CONTINUOUS
 10
-0.314110
 20
-0.860941
  0
VERTEX
  8
PLAN_1
 62
     2
  6
CONTINUOUS
 10
-0.310496
 20
-0.860425
  0
VERTEX
  8
PLAN_1
 62
     2
  6
CONTINUOUS
 10
-0.307398
 20
-0.859909
  0
VERTEX
  8
PLAN_1
 62
     2
  6
CONTINUOUS
 10
-0.304815
 20
-0.858874
  0
VERTEX
  8
PLAN_1
 62
     2
  6
CONTINUOUS
 10
-0.302752
 20
-0.856811
  0
VERTEX
  8
PLAN_1
 62
     2
  6
CONTINUOUS
 10
-0.301201
 20
-0.854744
  0
VERTEX
  8
PLAN_1
 62
     2
  6
CONTINUOUS
 10
-0.299654
 20
-0.851646
  0
VERTEX
  8
PLAN_1
 62
     2
  6
CONTINUOUS
 10
-0.298622
 20
-0.847516
  0
VERTEX
  8
PLAN_1
 62
     2
  6
CONTINUOUS
 10
-0.291394
 20
-0.847516
  0
VERTEX
  8
PLAN_1
 62
     2
  6
CONTINUOUS
 10
-0.291394
 20
-0.920831
  0
SEQEND
  8
0
  0
POLYLINE
  8
PLAN_1
 62
     2
  6
CONTINUOUS
 66
     1
 40
0.003000
 41
0.003000
  0
VERTEX
  8
PLAN_1
 62
     2
  6
CONTINUOUS
 10
-0.233571
 20
-0.920831
  0
VERTEX
  8
PLAN_1
 62
     2
  6
CONTINUOUS
 10
-0.243378
 20
-0.920831
  0
VERTEX
  8
PLAN_1
 62
     2
  6
CONTINUOUS
 10
-0.243378
 20
-0.868685
  0
VERTEX
  8
PLAN_1
 62
     2
  6
CONTINUOUS
 10
-0.260417
 20
-0.868685
  0
VERTEX
  8
PLAN_1
 62
     2
  6
CONTINUOUS
 10
-0.260417
 20
-0.861457
  0
VERTEX
  8
PLAN_1
 62
     2
  6
CONTINUOUS
 10
-0.256287
 20
-0.860941
  0
VERTEX
  8
PLAN_1
 62
     2
  6
CONTINUOUS
 10
-0.252673
 20
-0.860425
  0
VERTEX
  8
PLAN_1
 62
     2
  6
CONTINUOUS
 10
-0.249575
 20
-0.859909
  0
VERTEX
  8
PLAN_1
 62
     2
  6
CONTINUOUS
 10
-0.246992
 20
-0.858874
  0
VERTEX
  8
PLAN_1
 62
     2
  6
CONTINUOUS
 10
-0.244929
 20
-0.856811
  0
VERTEX
  8
PLAN_1
 62
     2
  6
CONTINUOUS
 10
-0.243378
 20
-0.854744
  0
VERTEX
  8
PLAN_1
 62
     2
  6
CONTINUOUS
 10
-0.241831
 20
-0.851646
  0
VERTEX
  8
PLAN_1
 62
     2
  6
CONTINUOUS
 10
-0.240795
 20
-0.847516
  0
VERTEX
  8
PLAN_1
 62
     2
  6
CONTINUOUS
 10
-0.233571
 20
-0.847516
  0
VERTEX
  8
PLAN_1
 62
     2
  6
CONTINUOUS
 10
-0.233571
 20
-0.920831
  0
SEQEND
  8
0
  0
SOLID
  8
PLAN_1
 62
     2
 10
-1.749894
 20
-0.648232
 11
-1.696201
 21
-0.677146
 12
-1.749894
 22
-0.648232
 13
-1.688972
 23
-0.646681
  0
POLYLINE
  8
PLAN_1
 62
     2
  6
CONTINUOUS
 66
     1
 40
0.003000
 41
0.003000
  0
VERTEX
  8
PLAN_1
 62
     2
  6
CONTINUOUS
 10
-1.749894
 20
-0.648232
  0
VERTEX
  8
PLAN_1
 62
     2
  6
CONTINUOUS
 10
-1.696201
 20
-0.677146
  0
VERTEX
  8
PLAN_1
 62
     2
  6
CONTINUOUS
 10
-1.688972
 20
-0.646681
  0
VERTEX
  8
PLAN_1
 62
     2
  6
CONTINUOUS
 10
-1.749894
 20
-0.648232
  0
SEQEND
  8
0
  0
POLYLINE
  8
PLAN_1
 62
     2
  6
CONTINUOUS
 66
     1
 40
0.004130
 41
0.004130
  0
VERTEX
  8
PLAN_1
 62
     2
  6
CONTINUOUS
 10
-1.713752
 20
-0.656492
  0
VERTEX
  8
PLAN_1
 62
     2
  6
CONTINUOUS
 10
-1.074079
 20
-0.819122
  0
VERTEX
  8
PLAN_1
 62
     2
  6
CONTINUOUS
 10
-0.032736
 20
-0.819122
  0
SEQEND
  8
0
  0
POLYLINE
  8
PLAN_1
 62
     2
  6
CONTINUOUS
 66
     1
 40
0.004130
 41
0.004130
  0
VERTEX
  8
PLAN_1
 62
     2
  6
CONTINUOUS
 10
-1.286272
 20
-0.644102
  0
VERTEX
  8
PLAN_1
 62
     2
  6
CONTINUOUS
 10
-1.272846
 20
-0.644102
  0
SEQEND
  8
0
  0
POLYLINE
  8
PLAN_1
 62
     2
  6
CONTINUOUS
 66
     1
 40
0.004130
 41
0.004130
  0
VERTEX
  8
PLAN_1
 62
     2
  6
CONTINUOUS
 10
-1.225350
 20
-0.644102
  0
VERTEX
  8
PLAN_1
 62
     2
  6
CONTINUOUS
 10
-1.066850
 20
-0.644102
  0
SEQEND
  8
0
  0
POLYLINE
  8
PLAN_1
 62
     2
  6
CONTINUOUS
 66
     1
 40
0.004130
 41
0.004130
  0
VERTEX
  8
PLAN_1
 62
     2
  6
CONTINUOUS
 10
-1.248067
 20
-0.606413
  0
VERTEX
  8
PLAN_1
 62
     2
  6
CONTINUOUS
 10
-1.248067
 20
-0.750972
  0
SEQEND
  8
0
  0
POLYLINE
  8
PLAN_1
 62
     2
  6
CONTINUOUS
 66
     1
 40
0.004130
 41
0.004130
  0
VERTEX
  8
PLAN_1
 62
     2
  6
CONTINUOUS
 10
-1.248067
 20
-0.798469
  0
VERTEX
  8
PLAN_1
 62
     2
  6
CONTINUOUS
 10
-1.248067
 20
-0.956969
  0
SEQEND
  8
0
  0
POLYLINE
  8
PLAN_1
 62
     2
  6
CONTINUOUS
 66
     1
 40
0.004130
 41
0.004130
  0
VERTEX
  8
PLAN_1
 62
     2
  6
CONTINUOUS
 10
-2.426224
 20
1.206256
  0
VERTEX
  8
PLAN_1
 62
     2
  6
CONTINUOUS
 10
-2.426224
 20
-0.956969
  0
SEQEND
  8
0
  0
POLYLINE
  8
PLAN_1
 62
     2
  6
CONTINUOUS
 66
     1
 40
0.004130
 41
0.004130
  0
VERTEX
  8
PLAN_1
 62
     2
  6
CONTINUOUS
 10
-1.090598
 20
-0.614673
  0
VERTEX
  8
PLAN_1
 62
     2
  6
CONTINUOUS
 10
-1.090598
 20
3.690610
  0
SEQEND
  8
0
  0
SOLID
  8
PLAN_1
 62
     2
 10
-1.090598
 20
3.720039
 11
-1.106087
 21
3.660665
 12
-1.090598
 22
3.720039
 13
-1.074594
 23
3.660665
  0
POLYLINE
  8
PLAN_1
 62
     2
  6
CONTINUOUS
 66
     1
 40
0.003000
 41
0.003000
  0
VERTEX
  8
PLAN_1
 62
     2
  6
CONTINUOUS
 10
-1.090598
 20
3.720039
  0
VERTEX
  8
PLAN_1
 62
     2
  6
CONTINUOUS
 10
-1.106087
 20
3.660665
  0
VERTEX
  8
PLAN_1
 62
     2
  6
CONTINUOUS
 10
-1.074594
 20
3.660665
  0
VERTEX
  8
PLAN_1
 62
     2
  6
CONTINUOUS
 10
-1.090598
 20
3.720039
  0
SEQEND
  8
0
  0
SOLID
  8
PLAN_1
 62
     2
 10
-1.090598
 20
-0.644102
 11
-1.106087
 21
-0.585244
 12
-1.090598
 22
-0.644102
 13
-1.074594
 23
-0.585244
  0
POLYLINE
  8
PLAN_1
 62
     2
  6
CONTINUOUS
 66
     1
 40
0.003000
 41
0.003000
  0
VERTEX
  8
PLAN_1
 62
     2
  6
CONTINUOUS
 10
-1.090598
 20
-0.644102
  0
VERTEX
  8
PLAN_1
 62
     2
  6
CONTINUOUS
 10
-1.106087
 20
-0.585244
  0
VERTEX
  8
PLAN_1
 62
     2
  6
CONTINUOUS
 10
-1.074594
 20
-0.585244
  0
VERTEX
  8
PLAN_1
 62
     2
  6
CONTINUOUS
 10
-1.090598
 20
-0.644102
  0
SEQEND
  8
0
  0
POLYLINE
  8
PLAN_1
 62
     2
  6
CONTINUOUS
 66
     1
 40
0.004130
 41
0.004130
  0
VERTEX
  8
PLAN_1
 62
     2
  6
CONTINUOUS
 10
-1.223283
 20
3.720555
  0
VERTEX
  8
PLAN_1
 62
     2
  6
CONTINUOUS
 10
-1.066850
 20
3.720555
  0
SEQEND
  8
0
  0
POLYLINE
  8
PLAN_1
 62
     2
  6
CONTINUOUS
 66
     1
 40
0.003000
 41
0.003000
  0
VERTEX
  8
PLAN_1
 62
     2
  6
CONTINUOUS
 10
-1.114346
 20
1.488146
  0
VERTEX
  8
PLAN_1
 62
     2
  6
CONTINUOUS
 10
-1.114346
 20
1.478339
  0
VERTEX
  8
PLAN_1
 62
     2
  6
CONTINUOUS
 10
-1.165976
 20
1.478339
  0
VERTEX
  8
PLAN_1
 62
     2
  6
CONTINUOUS
 10
-1.165976
 20
1.461299
  0
VERTEX
  8
PLAN_1
 62
     2
  6
CONTINUOUS
 10
-1.173205
 20
1.461299
  0
VERTEX
  8
PLAN_1
 62
     2
  6
CONTINUOUS
 10
-1.173720
 20
1.465429
  0
VERTEX
  8
PLAN_1
 62
     2
  6
CONTINUOUS
 10
-1.174236
 20
1.469043
  0
VERTEX
  8
PLAN_1
 62
     2
  6
CONTINUOUS
 10
-1.174752
 20
1.472142
  0
VERTEX
  8
PLAN_1
 62
     2
  6
CONTINUOUS
 10
-1.176303
 20
1.474724
  0
VERTEX
  8
PLAN_1
 62
     2
  6
CONTINUOUS
 10
-1.177850
 20
1.476787
  0
VERTEX
  8
PLAN_1
 62
     2
  6
CONTINUOUS
 10
-1.180433
 20
1.478339
  0
VERTEX
  8
PLAN_1
 62
     2
  6
CONTINUOUS
 10
-1.183531
 20
1.479886
  0
VERTEX
  8
PLAN_1
 62
     2
  6
CONTINUOUS
 10
-1.187146
 20
1.480917
  0
VERTEX
  8
PLAN_1
 62
     2
  6
CONTINUOUS
 10
-1.187146
 20
1.488146
  0
VERTEX
  8
PLAN_1
 62
     2
  6
CONTINUOUS
 10
-1.114346
 20
1.488146
  0
SEQEND
  8
0
  0
POLYLINE
  8
PLAN_1
 62
     2
  6
CONTINUOUS
 66
     1
 40
0.003000
 41
0.003000
  0
VERTEX
  8
PLAN_1
 62
     2
  6
CONTINUOUS
 10
-1.112283
 20
1.537709
  0
VERTEX
  8
PLAN_1
 62
     2
  6
CONTINUOUS
 10
-1.112283
 20
1.534094
  0
VERTEX
  8
PLAN_1
 62
     2
  6
CONTINUOUS
 10
-1.113315
 20
1.530484
  0
VERTEX
  8
PLAN_1
 62
     2
  6
CONTINUOUS
 10
-1.114346
 20
1.527902
  0
VERTEX
  8
PLAN_1
 62
     2
  6
CONTINUOUS
 10
-1.115898
 20
1.524803
  0
VERTEX
  8
PLAN_1
 62
     2
  6
CONTINUOUS
 10
-1.117961
 20
1.522740
  0
VERTEX
  8
PLAN_1
 62
     2
  6
CONTINUOUS
 10
-1.120028
 20
1.520673
  0
VERTEX
  8
PLAN_1
 62
     2
  6
CONTINUOUS
 10
-1.122610
 20
1.519126
  0
VERTEX
  8
PLAN_1
 62
     2
  6
CONTINUOUS
 10
-1.125189
 20
1.517575
  0
VERTEX
  8
PLAN_1
 62
     2
  6
CONTINUOUS
 10
-1.131386
 20
1.514992
  0
VERTEX
  8
PLAN_1
 62
     2
  6
CONTINUOUS
 10
-1.137583
 20
1.513445
  0
VERTEX
  8
PLAN_1
 62
     2
  6
CONTINUOUS
 10
-1.143776
 20
1.512929
  0
VERTEX
  8
PLAN_1
 62
     2
  6
CONTINUOUS
 10
-1.149972
 20
1.512929
  0
VERTEX
  8
PLAN_1
 62
     2
  6
CONTINUOUS
 10
-1.155650
 20
1.512929
  0
VERTEX
  8
PLAN_1
 62
     2
  6
CONTINUOUS
 10
-1.161846
 20
1.513445
  0
VERTEX
  8
PLAN_1
 62
     2
  6
CONTINUOUS
 10
-1.168559
 20
1.514992
  0
VERTEX
  8
PLAN_1
 62
     2
  6
CONTINUOUS
 10
-1.174236
 20
1.517575
  0
VERTEX
  8
PLAN_1
 62
     2
  6
CONTINUOUS
 10
-1.176819
 20
1.519126
  0
VERTEX
  8
PLAN_1
 62
     2
  6
CONTINUOUS
 10
-1.179402
 20
1.520673
  0
VERTEX
  8
PLAN_1
 62
     2
  6
CONTINUOUS
 10
-1.181465
 20
1.522740
  0
VERTEX
  8
PLAN_1
 62
     2
  6
CONTINUOUS
 10
-1.183531
 20
1.524803
  0
VERTEX
  8
PLAN_1
 62
     2
  6
CONTINUOUS
 10
-1.185079
 20
1.527902
  0
VERTEX
  8
PLAN_1
 62
     2
  6
CONTINUOUS
 10
-1.186110
 20
1.530484
  0
VERTEX
  8
PLAN_1
 62
     2
  6
CONTINUOUS
 10
-1.187146
 20
1.534094
  0
VERTEX
  8
PLAN_1
 62
     2
  6
CONTINUOUS
 10
-1.187146
 20
1.537709
  0
VERTEX
  8
PLAN_1
 62
     2
  6
CONTINUOUS
 10
-1.187146
 20
1.541323
  0
VERTEX
  8
PLAN_1
 62
     2
  6
CONTINUOUS
 10
-1.186110
 20
1.544937
  0
VERTEX
  8
PLAN_1
 62
     2
  6
CONTINUOUS
 10
-1.185079
 20
1.548035
  0
VERTEX
  8
PLAN_1
 62
     2
  6
CONTINUOUS
 10
-1.183531
 20
1.550618
  0
VERTEX
  8
PLAN_1
 62
     2
  6
CONTINUOUS
 10
-1.181465
 20
1.552681
  0
VERTEX
  8
PLAN_1
 62
     2
  6
CONTINUOUS
 10
-1.179402
 20
1.554748
  0
VERTEX
  8
PLAN_1
 62
     2
  6
CONTINUOUS
 10
-1.176819
 20
1.556811
  0
VERTEX
  8
PLAN_1
 62
     2
  6
CONTINUOUS
 10
-1.174236
 20
1.558362
  0
VERTEX
  8
PLAN_1
 62
     2
  6
CONTINUOUS
 10
-1.168559
 20
1.560425
  0
VERTEX
  8
PLAN_1
 62
     2
  6
CONTINUOUS
 10
-1.161846
 20
1.561976
  0
VERTEX
  8
PLAN_1
 62
     2
  6
CONTINUOUS
 10
-1.155650
 20
1.562492
  0
VERTEX
  8
PLAN_1
 62
     2
  6
CONTINUOUS
 10
-1.149972
 20
1.563008
  0
VERTEX
  8
PLAN_1
 62
     2
  6
CONTINUOUS
 10
-1.143776
 20
1.562492
  0
VERTEX
  8
PLAN_1
 62
     2
  6
CONTINUOUS
 10
-1.137583
 20
1.561976
  0
VERTEX
  8
PLAN_1
 62
     2
  6
CONTINUOUS
 10
-1.131386
 20
1.560425
  0
VERTEX
  8
PLAN_1
 62
     2
  6
CONTINUOUS
 10
-1.125189
 20
1.558362
  0
VERTEX
  8
PLAN_1
 62
     2
  6
CONTINUOUS
 10
-1.122610
 20
1.556811
  0
VERTEX
  8
PLAN_1
 62
     2
  6
CONTINUOUS
 10
-1.120028
 20
1.554748
  0
VERTEX
  8
PLAN_1
 62
     2
  6
CONTINUOUS
 10
-1.117961
 20
1.552681
  0
VERTEX
  8
PLAN_1
 62
     2
  6
CONTINUOUS
 10
-1.115898
 20
1.550618
  0
VERTEX
  8
PLAN_1
 62
     2
  6
CONTINUOUS
 10
-1.114346
 20
1.548035
  0
VERTEX
  8
PLAN_1
 62
     2
  6
CONTINUOUS
 10
-1.113315
 20
1.544937
  0
VERTEX
  8
PLAN_1
 62
     2
  6
CONTINUOUS
 10
-1.112283
 20
1.541323
  0
VERTEX
  8
PLAN_1
 62
     2
  6
CONTINUOUS
 10
-1.112283
 20
1.537709
  0
SEQEND
  8
0
  0
POLYLINE
  8
PLAN_1
 62
     2
  6
CONTINUOUS
 66
     1
 40
0.003000
 41
0.003000
  0
VERTEX
  8
PLAN_1
 62
     2
  6
CONTINUOUS
 10
-1.178882
 20
1.537709
  0
VERTEX
  8
PLAN_1
 62
     2
  6
CONTINUOUS
 10
-1.178882
 20
1.535646
  0
VERTEX
  8
PLAN_1
 62
     2
  6
CONTINUOUS
 10
-1.178366
 20
1.534094
  0
VERTEX
  8
PLAN_1
 62
     2
  6
CONTINUOUS
 10
-1.177850
 20
1.532547
  0
VERTEX
  8
PLAN_1
 62
     2
  6
CONTINUOUS
 10
-1.177335
 20
1.531000
  0
VERTEX
  8
PLAN_1
 62
     2
  6
CONTINUOUS
 10
-1.174752
 20
1.528417
  0
VERTEX
  8
PLAN_1
 62
     2
  6
CONTINUOUS
 10
-1.171138
 20
1.526350
  0
VERTEX
  8
PLAN_1
 62
     2
  6
CONTINUOUS
 10
-1.167008
 20
1.524803
  0
VERTEX
  8
PLAN_1
 62
     2
  6
CONTINUOUS
 10
-1.161846
 20
1.523256
  0
VERTEX
  8
PLAN_1
 62
     2
  6
CONTINUOUS
 10
-1.156165
 20
1.522740
  0
VERTEX
  8
PLAN_1
 62
     2
  6
CONTINUOUS
 10
-1.149972
 20
1.522740
  0
VERTEX
  8
PLAN_1
 62
     2
  6
CONTINUOUS
 10
-1.143260
 20
1.522740
  0
VERTEX
  8
PLAN_1
 62
     2
  6
CONTINUOUS
 10
-1.137583
 20
1.523256
  0
VERTEX
  8
PLAN_1
 62
     2
  6
CONTINUOUS
 10
-1.132417
 20
1.524803
  0
VERTEX
  8
PLAN_1
 62
     2
  6
CONTINUOUS
 10
-1.128287
 20
1.526350
  0
VERTEX
  8
PLAN_1
 62
     2
  6
CONTINUOUS
 10
-1.124673
 20
1.528417
  0
VERTEX
  8
PLAN_1
 62
     2
  6
CONTINUOUS
 10
-1.122610
 20
1.531000
  0
VERTEX
  8
PLAN_1
 62
     2
  6
CONTINUOUS
 10
-1.121575
 20
1.532547
  0
VERTEX
  8
PLAN_1
 62
     2
  6
CONTINUOUS
 10
-1.121059
 20
1.534094
  0
VERTEX
  8
PLAN_1
 62
     2
  6
CONTINUOUS
 10
-1.120543
 20
1.535646
  0
VERTEX
  8
PLAN_1
 62
     2
  6
CONTINUOUS
 10
-1.120543
 20
1.537709
  0
VERTEX
  8
PLAN_1
 62
     2
  6
CONTINUOUS
 10
-1.120543
 20
1.539776
  0
VERTEX
  8
PLAN_1
 62
     2
  6
CONTINUOUS
 10
-1.121059
 20
1.541323
  0
VERTEX
  8
PLAN_1
 62
     2
  6
CONTINUOUS
 10
-1.121575
 20
1.542874
  0
VERTEX
  8
PLAN_1
 62
     2
  6
CONTINUOUS
 10
-1.122610
 20
1.544421
  0
VERTEX
  8
PLAN_1
 62
     2
  6
CONTINUOUS
 10
-1.124673
 20
1.547004
  0
VERTEX
  8
PLAN_1
 62
     2
  6
CONTINUOUS
 10
-1.128287
 20
1.549587
  0
VERTEX
  8
PLAN_1
 62
     2
  6
CONTINUOUS
 10
-1.132417
 20
1.551134
  0
VERTEX
  8
PLAN_1
 62
     2
  6
CONTINUOUS
 10
-1.137583
 20
1.552165
  0
VERTEX
  8
PLAN_1
 62
     2
  6
CONTINUOUS
 10
-1.143260
 20
1.552681
  0
VERTEX
  8
PLAN_1
 62
     2
  6
CONTINUOUS
 10
-1.149972
 20
1.553201
  0
VERTEX
  8
PLAN_1
 62
     2
  6
CONTINUOUS
 10
-1.156165
 20
1.552681
  0
VERTEX
  8
PLAN_1
 62
     2
  6
CONTINUOUS
 10
-1.161846
 20
1.552165
  0
VERTEX
  8
PLAN_1
 62
     2
  6
CONTINUOUS
 10
-1.167008
 20
1.551134
  0
VERTEX
  8
PLAN_1
 62
     2
  6
CONTINUOUS
 10
-1.171138
 20
1.549587
  0
VERTEX
  8
PLAN_1
 62
     2
  6
CONTINUOUS
 10
-1.174752
 20
1.547004
  0
VERTEX
  8
PLAN_1
 62
     2
  6
CONTINUOUS
 10
-1.177335
 20
1.544421
  0
VERTEX
  8
PLAN_1
 62
     2
  6
CONTINUOUS
 10
-1.177850
 20
1.542874
  0
VERTEX
  8
PLAN_1
 62
     2
  6
CONTINUOUS
 10
-1.178366
 20
1.541323
  0
VERTEX
  8
PLAN_1
 62
     2
  6
CONTINUOUS
 10
-1.178882
 20
1.539776
  0
VERTEX
  8
PLAN_1
 62
     2
  6
CONTINUOUS
 10
-1.178882
 20
1.537709
  0
SEQEND
  8
0
  0
POLYLINE
  8
PLAN_1
 62
     2
  6
CONTINUOUS
 66
     1
 40
0.003000
 41
0.003000
  0
VERTEX
  8
PLAN_1
 62
     2
  6
CONTINUOUS
 10
-1.153071
 20
1.608441
  0
VERTEX
  8
PLAN_1
 62
     2
  6
CONTINUOUS
 10
-1.151520
 20
1.612055
  0
VERTEX
  8
PLAN_1
 62
     2
  6
CONTINUOUS
 10
-1.149457
 20
1.614638
  0
VERTEX
  8
PLAN_1
 62
     2
  6
CONTINUOUS
 10
-1.146874
 20
1.616701
  0
VERTEX
  8
PLAN_1
 62
     2
  6
CONTINUOUS
 10
-1.144807
 20
1.618252
  0
VERTEX
  8
PLAN_1
 62
     2
  6
CONTINUOUS
 10
-1.142228
 20
1.619283
  0
VERTEX
  8
PLAN_1
 62
     2
  6
CONTINUOUS
 10
-1.139646
 20
1.620315
  0
VERTEX
  8
PLAN_1
 62
     2
  6
CONTINUOUS
 10
-1.137583
 20
1.620315
  0
VERTEX
  8
PLAN_1
 62
     2
  6
CONTINUOUS
 10
-1.135516
 20
1.620315
  0
VERTEX
  8
PLAN_1
 62
     2
  6
CONTINUOUS
 10
-1.130870
 20
1.620315
  0
VERTEX
  8
PLAN_1
 62
     2
  6
CONTINUOUS
 10
-1.126740
 20
1.619283
  0
VERTEX
  8
PLAN_1
 62
     2
  6
CONTINUOUS
 10
-1.122610
 20
1.617217
  0
VERTEX
  8
PLAN_1
 62
     2
  6
CONTINUOUS
 10
-1.119512
 20
1.614638
  0
VERTEX
  8
PLAN_1
 62
     2
  6
CONTINUOUS
 10
-1.116413
 20
1.611024
  0
VERTEX
  8
PLAN_1
 62
     2
  6
CONTINUOUS
 10
-1.114346
 20
1.606894
  0
VERTEX
  8
PLAN_1
 62
     2
  6
CONTINUOUS
 10
-1.113315
 20
1.604311
  0
VERTEX
  8
PLAN_1
 62
     2
  6
CONTINUOUS
 10
-1.112799
 20
1.601728
  0
VERTEX
  8
PLAN_1
 62
     2
  6
CONTINUOUS
 10
-1.112283
 20
1.599150
  0
VERTEX
  8
PLAN_1
 62
     2
  6
CONTINUOUS
 10
-1.112283
 20
1.596051
  0
VERTEX
  8
PLAN_1
 62
     2
  6
CONTINUOUS
 10
-1.112283
 20
1.593984
  0
VERTEX
  8
PLAN_1
 62
     2
  6
CONTINUOUS
 10
-1.112283
 20
1.591921
  0
VERTEX
  8
PLAN_1
 62
     2
  6
CONTINUOUS
 10
-1.112799
 20
1.589854
  0
VERTEX
  8
PLAN_1
 62
     2
  6
CONTINUOUS
 10
-1.113315
 20
1.587791
  0
VERTEX
  8
PLAN_1
 62
     2
  6
CONTINUOUS
 10
-1.113831
 20
1.585209
  0
VERTEX
  8
PLAN_1
 62
     2
  6
CONTINUOUS
 10
-1.114866
 20
1.582626
  0
VERTEX
  8
PLAN_1
 62
     2
  6
CONTINUOUS
 10
-1.116413
 20
1.580563
  0
VERTEX
  8
PLAN_1
 62
     2
  6
CONTINUOUS
 10
-1.117961
 20
1.577980
  0
VERTEX
  8
PLAN_1
 62
     2
  6
CONTINUOUS
 10
-1.120028
 20
1.575913
  0
VERTEX
  8
PLAN_1
 62
     2
  6
CONTINUOUS
 10
-1.122610
 20
1.573850
  0
VERTEX
  8
PLAN_1
 62
     2
  6
CONTINUOUS
 10
-1.125189
 20
1.572819
  0
VERTEX
  8
PLAN_1
 62
     2
  6
CONTINUOUS
 10
-1.127256
 20
1.571783
  0
VERTEX
  8
PLAN_1
 62
     2
  6
CONTINUOUS
 10
-1.129835
 20
1.571268
  0
VERTEX
  8
PLAN_1
 62
     2
  6
CONTINUOUS
 10
-1.131902
 20
1.570752
  0
VERTEX
  8
PLAN_1
 62
     2
  6
CONTINUOUS
 10
-1.133449
 20
1.570752
  0
VERTEX
  8
PLAN_1
 62
     2
  6
CONTINUOUS
 10
-1.135000
 20
1.570752
  0
VERTEX
  8
PLAN_1
 62
     2
  6
CONTINUOUS
 10
-1.138614
 20
1.570752
  0
VERTEX
  8
PLAN_1
 62
     2
  6
CONTINUOUS
 10
-1.141193
 20
1.571783
  0
VERTEX
  8
PLAN_1
 62
     2
  6
CONTINUOUS
 10
-1.143776
 20
1.572819
  0
VERTEX
  8
PLAN_1
 62
     2
  6
CONTINUOUS
 10
-1.146358
 20
1.573850
  0
VERTEX
  8
PLAN_1
 62
     2
  6
CONTINUOUS
 10
-1.148421
 20
1.575913
  0
VERTEX
  8
PLAN_1
 62
     2
  6
CONTINUOUS
 10
-1.149972
 20
1.577980
  0
VERTEX
  8
PLAN_1
 62
     2
  6
CONTINUOUS
 10
-1.151520
 20
1.580563
  0
VERTEX
  8
PLAN_1
 62
     2
  6
CONTINUOUS
 10
-1.153071
 20
1.583142
  0
VERTEX
  8
PLAN_1
 62
     2
  6
CONTINUOUS
 10
-1.154102
 20
1.581079
  0
VERTEX
  8
PLAN_1
 62
     2
  6
CONTINUOUS
 10
-1.155134
 20
1.579012
  0
VERTEX
  8
PLAN_1
 62
     2
  6
CONTINUOUS
 10
-1.156685
 20
1.577465
  0
VERTEX
  8
PLAN_1
 62
     2
  6
CONTINUOUS
 10
-1.158232
 20
1.575913
  0
VERTEX
  8
PLAN_1
 62
     2
  6
CONTINUOUS
 10
-1.160295
 20
1.574882
  0
VERTEX
  8
PLAN_1
 62
     2
  6
CONTINUOUS
 10
-1.162362
 20
1.573850
  0
VERTEX
  8
PLAN_1
 62
     2
  6
CONTINUOUS
 10
-1.164945
 20
1.573335
  0
VERTEX
  8
PLAN_1
 62
     2
  6
CONTINUOUS
 10
-1.167008
 20
1.573335
  0
VERTEX
  8
PLAN_1
 62
     2
  6
CONTINUOUS
 10
-1.170106
 20
1.573335
  0
VERTEX
  8
PLAN_1
 62
     2
  6
CONTINUOUS
 10
-1.173720
 20
1.574366
  0
VERTEX
  8
PLAN_1
 62
     2
  6
CONTINUOUS
 10
-1.176819
 20
1.575398
  0
VERTEX
  8
PLAN_1
 62
     2
  6
CONTINUOUS
 10
-1.179917
 20
1.577980
  0
VERTEX
  8
PLAN_1
 62
     2
  6
CONTINUOUS
 10
-1.183012
 20
1.580563
  0
VERTEX
  8
PLAN_1
 62
     2
  6
CONTINUOUS
 10
-1.185079
 20
1.584693
  0
VERTEX
  8
PLAN_1
 62
     2
  6
CONTINUOUS
 10
-1.186110
 20
1.586756
  0
VERTEX
  8
PLAN_1
 62
     2
  6
CONTINUOUS
 10
-1.186626
 20
1.589339
  0
VERTEX
  8
PLAN_1
 62
     2
  6
CONTINUOUS
 10
-1.187146
 20
1.592437
  0
VERTEX
  8
PLAN_1
 62
     2
  6
CONTINUOUS
 10
-1.187146
 20
1.595535
  0
VERTEX
  8
PLAN_1
 62
     2
  6
CONTINUOUS
 10
-1.186626
 20
1.601213
  0
VERTEX
  8
PLAN_1
 62
     2
  6
CONTINUOUS
 10
-1.185594
 20
1.605858
  0
VERTEX
  8
PLAN_1
 62
     2
  6
CONTINUOUS
 10
-1.183531
 20
1.609472
  0
VERTEX
  8
PLAN_1
 62
     2
  6
CONTINUOUS
 10
-1.180949
 20
1.612571
  0
VERTEX
  8
PLAN_1
 62
     2
  6
CONTINUOUS
 10
-1.178366
 20
1.615154
  0
VERTEX
  8
PLAN_1
 62
     2
  6
CONTINUOUS
 10
-1.175268
 20
1.616701
  0
VERTEX
  8
PLAN_1
 62
     2
  6
CONTINUOUS
 10
-1.171654
 20
1.617736
  0
VERTEX
  8
PLAN_1
 62
     2
  6
CONTINUOUS
 10
-1.168559
 20
1.617736
  0
VERTEX
  8
PLAN_1
 62
     2
  6
CONTINUOUS
 10
-1.164945
 20
1.617736
  0
VERTEX
  8
PLAN_1
 62
     2
  6
CONTINUOUS
 10
-1.161846
 20
1.616701
  0
VERTEX
  8
PLAN_1
 62
     2
  6
CONTINUOUS
 10
-1.159264
 20
1.615669
  0
VERTEX
  8
PLAN_1
 62
     2
  6
CONTINUOUS
 10
-1.157717
 20
1.614638
  0
VERTEX
  8
PLAN_1
 62
     2
  6
CONTINUOUS
 10
-1.156165
 20
1.613087
  0
VERTEX
  8
PLAN_1
 62
     2
  6
CONTINUOUS
 10
-1.154618
 20
1.611539
  0
VERTEX
  8
PLAN_1
 62
     2
  6
CONTINUOUS
 10
-1.153587
 20
1.609988
  0
VERTEX
  8
PLAN_1
 62
     2
  6
CONTINUOUS
 10
-1.153071
 20
1.608441
  0
SEQEND
  8
0
  0
POLYLINE
  8
PLAN_1
 62
     2
  6
CONTINUOUS
 66
     1
 40
0.003000
 41
0.003000
  0
VERTEX
  8
PLAN_1
 62
     2
  6
CONTINUOUS
 10
-1.135000
 20
1.580563
  0
VERTEX
  8
PLAN_1
 62
     2
  6
CONTINUOUS
 10
-1.132933
 20
1.580563
  0
VERTEX
  8
PLAN_1
 62
     2
  6
CONTINUOUS
 10
-1.130354
 20
1.581079
  0
VERTEX
  8
PLAN_1
 62
     2
  6
CONTINUOUS
 10
-1.127772
 20
1.582110
  0
VERTEX
  8
PLAN_1
 62
     2
  6
CONTINUOUS
 10
-1.125705
 20
1.583661
  0
VERTEX
  8
PLAN_1
 62
     2
  6
CONTINUOUS
 10
-1.123642
 20
1.585724
  0
VERTEX
  8
PLAN_1
 62
     2
  6
CONTINUOUS
 10
-1.122091
 20
1.588307
  0
VERTEX
  8
PLAN_1
 62
     2
  6
CONTINUOUS
 10
-1.121059
 20
1.591921
  0
VERTEX
  8
PLAN_1
 62
     2
  6
CONTINUOUS
 10
-1.120543
 20
1.596051
  0
VERTEX
  8
PLAN_1
 62
     2
  6
CONTINUOUS
 10
-1.120543
 20
1.598630
  0
VERTEX
  8
PLAN_1
 62
     2
  6
CONTINUOUS
 10
-1.121059
 20
1.601213
  0
VERTEX
  8
PLAN_1
 62
     2
  6
CONTINUOUS
 10
-1.121575
 20
1.603795
  0
VERTEX
  8
PLAN_1
 62
     2
  6
CONTINUOUS
 10
-1.123126
 20
1.605858
  0
VERTEX
  8
PLAN_1
 62
     2
  6
CONTINUOUS
 10
-1.124673
 20
1.607925
  0
VERTEX
  8
PLAN_1
 62
     2
  6
CONTINUOUS
 10
-1.127256
 20
1.609472
  0
VERTEX
  8
PLAN_1
 62
     2
  6
CONTINUOUS
 10
-1.130354
 20
1.610508
  0
VERTEX
  8
PLAN_1
 62
     2
  6
CONTINUOUS
 10
-1.134484
 20
1.611024
  0
VERTEX
  8
PLAN_1
 62
     2
  6
CONTINUOUS
 10
-1.137583
 20
1.610508
  0
VERTEX
  8
PLAN_1
 62
     2
  6
CONTINUOUS
 10
-1.140677
 20
1.609472
  0
VERTEX
  8
PLAN_1
 62
     2
  6
CONTINUOUS
 10
-1.143260
 20
1.607925
  0
VERTEX
  8
PLAN_1
 62
     2
  6
CONTINUOUS
 10
-1.145327
 20
1.606378
  0
VERTEX
  8
PLAN_1
 62
     2
  6
CONTINUOUS
 10
-1.146358
 20
1.604311
  0
VERTEX
  8
PLAN_1
 62
     2
  6
CONTINUOUS
 10
-1.147906
 20
1.601728
  0
VERTEX
  8
PLAN_1
 62
     2
  6
CONTINUOUS
 10
-1.148421
 20
1.598630
  0
VERTEX
  8
PLAN_1
 62
     2
  6
CONTINUOUS
 10
-1.148421
 20
1.595535
  0
VERTEX
  8
PLAN_1
 62
     2
  6
CONTINUOUS
 10
-1.148421
 20
1.591921
  0
VERTEX
  8
PLAN_1
 62
     2
  6
CONTINUOUS
 10
-1.147390
 20
1.588823
  0
VERTEX
  8
PLAN_1
 62
     2
  6
CONTINUOUS
 10
-1.145843
 20
1.586240
  0
VERTEX
  8
PLAN_1
 62
     2
  6
CONTINUOUS
 10
-1.144291
 20
1.584177
  0
VERTEX
  8
PLAN_1
 62
     2
  6
CONTINUOUS
 10
-1.142228
 20
1.582626
  0
VERTEX
  8
PLAN_1
 62
     2
  6
CONTINUOUS
 10
-1.140161
 20
1.581594
  0
VERTEX
  8
PLAN_1
 62
     2
  6
CONTINUOUS
 10
-1.137583
 20
1.580563
  0
VERTEX
  8
PLAN_1
 62
     2
  6
CONTINUOUS
 10
-1.135000
 20
1.580563
  0
SEQEND
  8
0
  0
POLYLINE
  8
PLAN_1
 62
     2
  6
CONTINUOUS
 66
     1
 40
0.003000
 41
0.003000
  0
VERTEX
  8
PLAN_1
 62
     2
  6
CONTINUOUS
 10
-1.168043
 20
1.608441
  0
VERTEX
  8
PLAN_1
 62
     2
  6
CONTINUOUS
 10
-1.170106
 20
1.608441
  0
VERTEX
  8
PLAN_1
 62
     2
  6
CONTINUOUS
 10
-1.171654
 20
1.607925
  0
VERTEX
  8
PLAN_1
 62
     2
  6
CONTINUOUS
 10
-1.173720
 20
1.606894
  0
VERTEX
  8
PLAN_1
 62
     2
  6
CONTINUOUS
 10
-1.175268
 20
1.605858
  0
VERTEX
  8
PLAN_1
 62
     2
  6
CONTINUOUS
 10
-1.176819
 20
1.603795
  0
VERTEX
  8
PLAN_1
 62
     2
  6
CONTINUOUS
 10
-1.177850
 20
1.601728
  0
VERTEX
  8
PLAN_1
 62
     2
  6
CONTINUOUS
 10
-1.178882
 20
1.598630
  0
VERTEX
  8
PLAN_1
 62
     2
  6
CONTINUOUS
 10
-1.178882
 20
1.595020
  0
VERTEX
  8
PLAN_1
 62
     2
  6
CONTINUOUS
 10
-1.178882
 20
1.591406
  0
VERTEX
  8
PLAN_1
 62
     2
  6
CONTINUOUS
 10
-1.177850
 20
1.588823
  0
VERTEX
  8
PLAN_1
 62
     2
  6
CONTINUOUS
 10
-1.176819
 20
1.586756
  0
VERTEX
  8
PLAN_1
 62
     2
  6
CONTINUOUS
 10
-1.175268
 20
1.585209
  0
VERTEX
  8
PLAN_1
 62
     2
  6
CONTINUOUS
 10
-1.173205
 20
1.584177
  0
VERTEX
  8
PLAN_1
 62
     2
  6
CONTINUOUS
 10
-1.171654
 20
1.583142
  0
VERTEX
  8
PLAN_1
 62
     2
  6
CONTINUOUS
 10
-1.169591
 20
1.582626
  0
VERTEX
  8
PLAN_1
 62
     2
  6
CONTINUOUS
 10
-1.167524
 20
1.582626
  0
VERTEX
  8
PLAN_1
 62
     2
  6
CONTINUOUS
 10
-1.164945
 20
1.583142
  0
VERTEX
  8
PLAN_1
 62
     2
  6
CONTINUOUS
 10
-1.162878
 20
1.583661
  0
VERTEX
  8
PLAN_1
 62
     2
  6
CONTINUOUS
 10
-1.160815
 20
1.585209
  0
VERTEX
  8
PLAN_1
 62
     2
  6
CONTINUOUS
 10
-1.159264
 20
1.586756
  0
VERTEX
  8
PLAN_1
 62
     2
  6
CONTINUOUS
 10
-1.158232
 20
1.588307
  0
VERTEX
  8
PLAN_1
 62
     2
  6
CONTINUOUS
 10
-1.157201
 20
1.590886
  0
VERTEX
  8
PLAN_1
 62
     2
  6
CONTINUOUS
 10
-1.156685
 20
1.592953
  0
VERTEX
  8
PLAN_1
 62
     2
  6
CONTINUOUS
 10
-1.156165
 20
1.595535
  0
VERTEX
  8
PLAN_1
 62
     2
  6
CONTINUOUS
 10
-1.156685
 20
1.598114
  0
VERTEX
  8
PLAN_1
 62
     2
  6
CONTINUOUS
 10
-1.157201
 20
1.600697
  0
VERTEX
  8
PLAN_1
 62
     2
  6
CONTINUOUS
 10
-1.158232
 20
1.603280
  0
VERTEX
  8
PLAN_1
 62
     2
  6
CONTINUOUS
 10
-1.159780
 20
1.604827
  0
VERTEX
  8
PLAN_1
 62
     2
  6
CONTINUOUS
 10
-1.161331
 20
1.606378
  0
VERTEX
  8
PLAN_1
 62
     2
  6
CONTINUOUS
 10
-1.163394
 20
1.607409
  0
VERTEX
  8
PLAN_1
 62
     2
  6
CONTINUOUS
 10
-1.165976
 20
1.608441
  0
VERTEX
  8
PLAN_1
 62
     2
  6
CONTINUOUS
 10
-1.168043
 20
1.608441
  0
SEQEND
  8
0
  0
POLYLINE
  8
PLAN_1
 62
     2
  6
CONTINUOUS
 66
     1
 40
0.004130
 41
0.004130
  0
VERTEX
  8
PLAN_1
 62
     2
  6
CONTINUOUS
 10
-2.034882
 20
3.876988
  0
VERTEX
  8
PLAN_1
 62
     2
  6
CONTINUOUS
 10
-1.703425
 20
3.876988
  0
SEQEND
  8
0
  0
SOLID
  8
PLAN_1
 62
     2
 10
-1.870185
 20
3.876988
 11
-1.929043
 21
3.892476
 12
-1.870185
 22
3.876988
 13
-1.929043
 23
3.860984
  0
POLYLINE
  8
PLAN_1
 62
     2
  6
CONTINUOUS
 66
     1
 40
0.003000
 41
0.003000
  0
VERTEX
  8
PLAN_1
 62
     2
  6
CONTINUOUS
 10
-1.870185
 20
3.876988
  0
VERTEX
  8
PLAN_1
 62
     2
  6
CONTINUOUS
 10
-1.929043
 20
3.892476
  0
VERTEX
  8
PLAN_1
 62
     2
  6
CONTINUOUS
 10
-1.929043
 20
3.860984
  0
VERTEX
  8
PLAN_1
 62
     2
  6
CONTINUOUS
 10
-1.870185
 20
3.876988
  0
SEQEND
  8
0
  0
SOLID
  8
PLAN_1
 62
     2
 10
-1.728209
 20
3.876988
 11
-1.669350
 21
3.892476
 12
-1.728209
 22
3.876988
 13
-1.669350
 23
3.860984
  0
POLYLINE
  8
PLAN_1
 62
     2
  6
CONTINUOUS
 66
     1
 40
0.003000
 41
0.003000
  0
VERTEX
  8
PLAN_1
 62
     2
  6
CONTINUOUS
 10
-1.728209
 20
3.876988
  0
VERTEX
  8
PLAN_1
 62
     2
  6
CONTINUOUS
 10
-1.669350
 20
3.892476
  0
VERTEX
  8
PLAN_1
 62
     2
  6
CONTINUOUS
 10
-1.669350
 20
3.860984
  0
VERTEX
  8
PLAN_1
 62
     2
  6
CONTINUOUS
 10
-1.728209
 20
3.876988
  0
SEQEND
  8
0
  0
POLYLINE
  8
PLAN_1
 62
     2
  6
CONTINUOUS
 66
     1
 40
0.003000
 41
0.003000
  0
VERTEX
  8
PLAN_1
 62
     2
  6
CONTINUOUS
 10
-1.961567
 20
3.918291
  0
VERTEX
  8
PLAN_1
 62
     2
  6
CONTINUOUS
 10
-1.961567
 20
3.900736
  0
VERTEX
  8
PLAN_1
 62
     2
  6
CONTINUOUS
 10
-1.970862
 20
3.900736
  0
VERTEX
  8
PLAN_1
 62
     2
  6
CONTINUOUS
 10
-1.970862
 20
3.918291
  0
VERTEX
  8
PLAN_1
 62
     2
  6
CONTINUOUS
 10
-2.002870
 20
3.918291
  0
VERTEX
  8
PLAN_1
 62
     2
  6
CONTINUOUS
 10
-2.002870
 20
3.927067
  0
VERTEX
  8
PLAN_1
 62
     2
  6
CONTINUOUS
 10
-1.969311
 20
3.973535
  0
VERTEX
  8
PLAN_1
 62
     2
  6
CONTINUOUS
 10
-1.961567
 20
3.973535
  0
VERTEX
  8
PLAN_1
 62
     2
  6
CONTINUOUS
 10
-1.961567
 20
3.926035
  0
VERTEX
  8
PLAN_1
 62
     2
  6
CONTINUOUS
 10
-1.950728
 20
3.926035
  0
VERTEX
  8
PLAN_1
 62
     2
  6
CONTINUOUS
 10
-1.950728
 20
3.918291
  0
VERTEX
  8
PLAN_1
 62
     2
  6
CONTINUOUS
 10
-1.961567
 20
3.918291
  0
SEQEND
  8
0
  0
SOLID
  8
PLAN_1
 62
     2
 10
-1.994094
 20
3.926035
 11
-1.970862
 21
3.926035
 12
-1.994094
 22
3.926035
 13
-1.970862
 23
3.959594
  0
POLYLINE
  8
PLAN_1
 62
     2
  6
CONTINUOUS
 66
     1
 40
0.003000
 41
0.003000
  0
VERTEX
  8
PLAN_1
 62
     2
  6
CONTINUOUS
 10
-1.994094
 20
3.926035
  0
VERTEX
  8
PLAN_1
 62
     2
  6
CONTINUOUS
 10
-1.970862
 20
3.926035
  0
VERTEX
  8
PLAN_1
 62
     2
  6
CONTINUOUS
 10
-1.970862
 20
3.959594
  0
VERTEX
  8
PLAN_1
 62
     2
  6
CONTINUOUS
 10
-1.994094
 20
3.926035
  0
SEQEND
  8
0
  0
POLYLINE
  8
PLAN_1
 62
     2
  6
CONTINUOUS
 66
     1
 40
0.004130
 41
0.004130
  0
VERTEX
  8
PLAN_1
 62
     2
  6
CONTINUOUS
 10
-1.870185
 20
3.743272
  0
VERTEX
  8
PLAN_1
 62
     2
  6
CONTINUOUS
 10
-1.870185
 20
3.900736
  0
SEQEND
  8
0
  0
POLYLINE
  8
PLAN_1
 62
     2
  6
CONTINUOUS
 66
     1
 40
0.004130
 41
0.004130
  0
VERTEX
  8
PLAN_1
 62
     2
  6
CONTINUOUS
 10
-1.728209
 20
3.743272
  0
VERTEX
  8
PLAN_1
 62
     2
  6
CONTINUOUS
 10
-1.728209
 20
3.900736
  0
SEQEND
  8
0
  0
POLYLINE
  8
PLAN_1
 62
     2
  6
CONTINUOUS
 66
     1
 40
0.004130
 41
0.004130
  0
VERTEX
  8
PLAN_1
 62
     2
  6
CONTINUOUS
 10
-1.798941
 20
3.743272
  0
VERTEX
  8
PLAN_1
 62
     2
  6
CONTINUOUS
 10
-1.798941
 20
3.854787
  0
SEQEND
  8
0
  0
POLYLINE
  8
PLAN_1
 62
     2
  6
CONTINUOUS
 66
     1
 40
0.004130
 41
0.004130
  0
VERTEX
  8
PLAN_1
 62
     2
  6
CONTINUOUS
 10
-1.798941
 20
3.901772
  0
VERTEX
  8
PLAN_1
 62
     2
  6
CONTINUOUS
 10
-1.798941
 20
4.057689
  0
SEQEND
  8
0
  0
POLYLINE
  8
PLAN_1
 62
     2
  6
CONTINUOUS
 66
     1
 40
0.004130
 41
0.004130
  0
VERTEX
  8
PLAN_1
 62
     2
  6
CONTINUOUS
 10
-1.247031
 20
2.457209
  0
VERTEX
  8
PLAN_1
 62
     2
  6
CONTINUOUS
 10
-1.247031
 20
4.057689
  0
SEQEND
  8
0
  0
POLYLINE
  8
PLAN_1
 62
     2
  6
CONTINUOUS
 66
     1
 40
0.004130
 41
0.004130
  0
VERTEX
  8
PLAN_1
 62
     2
  6
CONTINUOUS
 10
-1.703945
 20
3.720555
  0
VERTEX
  8
PLAN_1
 62
     2
  6
CONTINUOUS
 10
-1.271299
 20
3.720555
  0
SEQEND
  8
0
  0
ENDSEC
  0
EOF
