ISO-10303-21;
HEADER;
FILE_DESCRIPTION(('STEP AP242'),'1');
FILE_NAME('curtain_xusztr30.stp','2021-09-29T00:43:29',('TraceParts'),('TraceParts S.A.'),'Spatial InterOp 3D',' ',' ');
FILE_SCHEMA(('AP242_MANAGED_MODEL_BASED_3D_ENGINEERING_MIM_LF  {1 0 10303 442 1 1 4}'));
ENDSEC;
DATA;
#1=MECHANICAL_DESIGN_GEOMETRIC_PRESENTATION_REPRESENTATION(' ',(#10),#6);
#2=PRODUCT_DEFINITION_CONTEXT('',#11,'design');
#3=APPLICATION_PROTOCOL_DEFINITION('INTERNATIONAL STANDARD','ap242_managed_model_based_3d_engineering',2014,#11);
#4=PRODUCT_CATEGORY_RELATIONSHIP('NONE','NONE',#12,#13);
#5=SHAPE_DEFINITION_REPRESENTATION(#14,#15);
#6= (GEOMETRIC_REPRESENTATION_CONTEXT(3)GLOBAL_UNCERTAINTY_ASSIGNED_CONTEXT((#18))GLOBAL_UNIT_ASSIGNED_CONTEXT((#20,#21,#22))REPRESENTATION_CONTEXT('NONE','WORKSPACE'));
#10=STYLED_ITEM('',(#24),#25);
#11=APPLICATION_CONTEXT('managed model based 3d engineering');
#12=PRODUCT_CATEGORY('part','NONE');
#13=PRODUCT_RELATED_PRODUCT_CATEGORY('detail',' ',(#26));
#14=PRODUCT_DEFINITION_SHAPE('NONE','NONE',#27);
#15=ADVANCED_BREP_SHAPE_REPRESENTATION('curtain_xusztr30',(#25,#28),#6);
#18=UNCERTAINTY_MEASURE_WITH_UNIT(LENGTH_MEASURE(1.0E-06),#20,'','');
#20= (CONVERSION_BASED_UNIT('MILLIMETRE',#31)LENGTH_UNIT()NAMED_UNIT(#34));
#21= (NAMED_UNIT(#36)PLANE_ANGLE_UNIT()SI_UNIT($,.RADIAN.));
#22= (NAMED_UNIT(#36)SOLID_ANGLE_UNIT()SI_UNIT($,.STERADIAN.));
#24=PRESENTATION_STYLE_ASSIGNMENT((#42));
#25=MANIFOLD_SOLID_BREP('curtain_xusztr30',#43);
#26=PRODUCT('curtain_xusztr30','','PART--DESC',(#44));
#27=PRODUCT_DEFINITION('','NONE',#45,#2);
#28=AXIS2_PLACEMENT_3D('',#46,#47,#48);
#31=LENGTH_MEASURE_WITH_UNIT(LENGTH_MEASURE(1.0),#49);
#34=DIMENSIONAL_EXPONENTS(1.0,0.0,0.0,0.0,0.0,0.0,0.0);
#36=DIMENSIONAL_EXPONENTS(0.0,0.0,0.0,0.0,0.0,0.0,0.0);
#42=SURFACE_STYLE_USAGE(.BOTH.,#50);
#43=CLOSED_SHELL('',(#51,#52,#53,#54,#55,#56));
#44=PRODUCT_CONTEXT('',#11,'mechanical');
#45=PRODUCT_DEFINITION_FORMATION_WITH_SPECIFIED_SOURCE(' ','NONE',#26,.NOT_KNOWN.);
#46=CARTESIAN_POINT('',(0.0,0.0,0.0));
#47=DIRECTION('',(0.0,0.0,1.0));
#48=DIRECTION('',(1.0,0.0,0.0));
#49= (NAMED_UNIT(#34)LENGTH_UNIT()SI_UNIT(.MILLI.,.METRE.));
#50=SURFACE_SIDE_STYLE('',(#58));
#51=ADVANCED_FACE('',(#59),#60,.T.);
#52=ADVANCED_FACE('',(#61),#62,.F.);
#53=ADVANCED_FACE('',(#63),#64,.F.);
#54=ADVANCED_FACE('',(#65),#66,.T.);
#55=ADVANCED_FACE('',(#67,#68),#69,.F.);
#56=ADVANCED_FACE('',(#70,#71),#72,.T.);
#58=SURFACE_STYLE_FILL_AREA(#73);
#59=FACE_OUTER_BOUND('',#74,.T.);
#60=CYLINDRICAL_SURFACE('',#75,15.0);
#61=FACE_OUTER_BOUND('',#76,.T.);
#62=CYLINDRICAL_SURFACE('',#77,14.0);
#63=FACE_OUTER_BOUND('',#78,.T.);
#64=CYLINDRICAL_SURFACE('',#79,14.0);
#65=FACE_OUTER_BOUND('',#80,.T.);
#66=CYLINDRICAL_SURFACE('',#81,15.0);
#67=FACE_OUTER_BOUND('',#82,.T.);
#68=FACE_BOUND('',#83,.T.);
#69=PLANE('',#84);
#70=FACE_OUTER_BOUND('',#85,.T.);
#71=FACE_BOUND('',#86,.T.);
#72=PLANE('',#87);
#73=FILL_AREA_STYLE('',(#88));
#74=EDGE_LOOP('',(#89,#90,#91,#92));
#75=AXIS2_PLACEMENT_3D('',#93,#94,#95);
#76=EDGE_LOOP('',(#96,#97,#98,#99));
#77=AXIS2_PLACEMENT_3D('',#100,#101,#102);
#78=EDGE_LOOP('',(#103,#104,#105,#106));
#79=AXIS2_PLACEMENT_3D('',#107,#108,#109);
#80=EDGE_LOOP('',(#110,#111,#112,#113));
#81=AXIS2_PLACEMENT_3D('',#114,#115,#116);
#82=EDGE_LOOP('',(#117,#118));
#83=EDGE_LOOP('',(#119,#120));
#84=AXIS2_PLACEMENT_3D('',#121,#122,#123);
#85=EDGE_LOOP('',(#124,#125));
#86=EDGE_LOOP('',(#126,#127));
#87=AXIS2_PLACEMENT_3D('',#128,#129,#130);
#88=FILL_AREA_STYLE_COLOUR('',#131);
#89=ORIENTED_EDGE('',*,*,#132,.F.);
#90=ORIENTED_EDGE('',*,*,#133,.T.);
#91=ORIENTED_EDGE('',*,*,#134,.F.);
#92=ORIENTED_EDGE('',*,*,#135,.T.);
#93=CARTESIAN_POINT('',(289.580620135832,143.403276263413,0.0));
#94=DIRECTION('',(0.0,0.0,-1.0));
#95=DIRECTION('',(1.0,0.0,0.0));
#96=ORIENTED_EDGE('',*,*,#136,.F.);
#97=ORIENTED_EDGE('',*,*,#137,.F.);
#98=ORIENTED_EDGE('',*,*,#138,.F.);
#99=ORIENTED_EDGE('',*,*,#139,.F.);
#100=CARTESIAN_POINT('',(289.580620135832,143.403276263413,0.0));
#101=DIRECTION('',(0.0,0.0,-1.0));
#102=DIRECTION('',(1.0,0.0,0.0));
#103=ORIENTED_EDGE('',*,*,#136,.T.);
#104=ORIENTED_EDGE('',*,*,#140,.F.);
#105=ORIENTED_EDGE('',*,*,#138,.T.);
#106=ORIENTED_EDGE('',*,*,#141,.F.);
#107=CARTESIAN_POINT('',(289.580620135832,143.403276263413,0.0));
#108=DIRECTION('',(0.0,0.0,-1.0));
#109=DIRECTION('',(1.0,0.0,0.0));
#110=ORIENTED_EDGE('',*,*,#132,.T.);
#111=ORIENTED_EDGE('',*,*,#142,.T.);
#112=ORIENTED_EDGE('',*,*,#134,.T.);
#113=ORIENTED_EDGE('',*,*,#143,.T.);
#114=CARTESIAN_POINT('',(289.580620135832,143.403276263413,0.0));
#115=DIRECTION('',(0.0,0.0,-1.0));
#116=DIRECTION('',(1.0,0.0,0.0));
#117=ORIENTED_EDGE('',*,*,#133,.F.);
#118=ORIENTED_EDGE('',*,*,#143,.F.);
#119=ORIENTED_EDGE('',*,*,#139,.T.);
#120=ORIENTED_EDGE('',*,*,#140,.T.);
#121=CARTESIAN_POINT('',(289.580620135832,143.403276263413,0.0));
#122=DIRECTION('',(0.0,0.0,1.0));
#123=DIRECTION('',(1.0,0.0,0.0));
#124=ORIENTED_EDGE('',*,*,#142,.F.);
#125=ORIENTED_EDGE('',*,*,#135,.F.);
#126=ORIENTED_EDGE('',*,*,#141,.T.);
#127=ORIENTED_EDGE('',*,*,#137,.T.);
#128=CARTESIAN_POINT('',(304.580620135832,143.403276263413,150.0));
#129=DIRECTION('',(0.0,0.0,1.0));
#130=DIRECTION('',(1.0,0.0,0.0));
#131=COLOUR_RGB('',1.0,1.0,1.0);
#132=EDGE_CURVE('',#144,#145,#146,.T.);
#133=EDGE_CURVE('',#144,#147,#148,.T.);
#134=EDGE_CURVE('',#149,#147,#150,.T.);
#135=EDGE_CURVE('',#149,#145,#151,.T.);
#136=EDGE_CURVE('',#152,#153,#154,.T.);
#137=EDGE_CURVE('',#155,#152,#156,.T.);
#138=EDGE_CURVE('',#157,#155,#158,.T.);
#139=EDGE_CURVE('',#153,#157,#159,.T.);
#140=EDGE_CURVE('',#157,#153,#160,.T.);
#141=EDGE_CURVE('',#152,#155,#161,.T.);
#142=EDGE_CURVE('',#145,#149,#162,.T.);
#143=EDGE_CURVE('',#147,#144,#163,.T.);
#144=VERTEX_POINT('',#164);
#145=VERTEX_POINT('',#165);
#146=LINE('',#166,#167);
#147=VERTEX_POINT('',#168);
#148=CIRCLE('',#169,15.0);
#149=VERTEX_POINT('',#170);
#150=LINE('',#171,#172);
#151=CIRCLE('',#173,15.0);
#152=VERTEX_POINT('',#174);
#153=VERTEX_POINT('',#175);
#154=LINE('',#176,#177);
#155=VERTEX_POINT('',#178);
#156=CIRCLE('',#179,14.0);
#157=VERTEX_POINT('',#180);
#158=LINE('',#181,#182);
#159=CIRCLE('',#183,14.0);
#160=CIRCLE('',#184,14.0);
#161=CIRCLE('',#185,14.0);
#162=CIRCLE('',#186,15.0);
#163=CIRCLE('',#187,15.0);
#164=CARTESIAN_POINT('',(304.580620135832,143.403276263413,0.0));
#165=CARTESIAN_POINT('',(304.580620135832,143.403276263413,150.0));
#166=CARTESIAN_POINT('',(304.580620135832,143.403276263413,0.0));
#167=VECTOR('',#188,1.0);
#168=CARTESIAN_POINT('',(274.580620135832,143.403276263413,0.0));
#169=AXIS2_PLACEMENT_3D('',#189,#190,#191);
#170=CARTESIAN_POINT('',(274.580620135832,143.403276263413,150.0));
#171=CARTESIAN_POINT('',(274.580620135832,143.403276263413,0.0));
#172=VECTOR('',#192,1.0);
#173=AXIS2_PLACEMENT_3D('',#193,#194,#195);
#174=CARTESIAN_POINT('',(303.580620135832,143.403276263413,150.0));
#175=CARTESIAN_POINT('',(303.580620135832,143.403276263413,0.0));
#176=CARTESIAN_POINT('',(303.580620135832,143.403276263413,0.0));
#177=VECTOR('',#196,1.0);
#178=CARTESIAN_POINT('',(275.580620135832,143.403276263413,150.0));
#179=AXIS2_PLACEMENT_3D('',#197,#198,#199);
#180=CARTESIAN_POINT('',(275.580620135832,143.403276263413,0.0));
#181=CARTESIAN_POINT('',(275.580620135832,143.403276263413,0.0));
#182=VECTOR('',#200,1.0);
#183=AXIS2_PLACEMENT_3D('',#201,#202,#203);
#184=AXIS2_PLACEMENT_3D('',#204,#205,#206);
#185=AXIS2_PLACEMENT_3D('',#207,#208,#209);
#186=AXIS2_PLACEMENT_3D('',#210,#211,#212);
#187=AXIS2_PLACEMENT_3D('',#213,#214,#215);
#188=DIRECTION('',(-0.0,-0.0,1.0));
#189=CARTESIAN_POINT('',(289.580620135832,143.403276263413,0.0));
#190=DIRECTION('',(0.0,0.0,1.0));
#191=DIRECTION('',(1.0,0.0,0.0));
#192=DIRECTION('',(0.0,0.0,-1.0));
#193=CARTESIAN_POINT('',(289.580620135832,143.403276263413,150.0));
#194=DIRECTION('',(0.0,0.0,-1.0));
#195=DIRECTION('',(1.0,0.0,0.0));
#196=DIRECTION('',(-0.0,-0.0,-1.0));
#197=CARTESIAN_POINT('',(289.580620135832,143.403276263413,150.0));
#198=DIRECTION('',(0.0,0.0,-1.0));
#199=DIRECTION('',(1.0,0.0,0.0));
#200=DIRECTION('',(-0.0,0.0,1.0));
#201=CARTESIAN_POINT('',(289.580620135832,143.403276263413,0.0));
#202=DIRECTION('',(0.0,0.0,1.0));
#203=DIRECTION('',(1.0,0.0,0.0));
#204=CARTESIAN_POINT('',(289.580620135832,143.403276263413,0.0));
#205=DIRECTION('',(0.0,0.0,1.0));
#206=DIRECTION('',(1.0,0.0,0.0));
#207=CARTESIAN_POINT('',(289.580620135832,143.403276263413,150.0));
#208=DIRECTION('',(0.0,0.0,-1.0));
#209=DIRECTION('',(1.0,0.0,0.0));
#210=CARTESIAN_POINT('',(289.580620135832,143.403276263413,150.0));
#211=DIRECTION('',(0.0,0.0,-1.0));
#212=DIRECTION('',(1.0,0.0,0.0));
#213=CARTESIAN_POINT('',(289.580620135832,143.403276263413,0.0));
#214=DIRECTION('',(0.0,0.0,1.0));
#215=DIRECTION('',(1.0,0.0,0.0));
#216=PRESENTATION_LAYER_ASSIGNMENT('0','0',(#25));
ENDSEC;
END-ISO-10303-21;
