999
DXF file: C:\Users\sesa63760\Dev\_Creo\CAD\MCADID0003638_3D-CAD\drw0001_1.dxf
999
Pro/ENGINEER 2019471 by Parametric Technology Corporation
  0
SECTION
  2
HEADER
  9
$ACADVER
  1
AC1024
  9
$DWGCODEPAGE
  3
ANSI_1252
  9
$EXTMAX
 10
82.5484597939
 20
116.7471074227
 30
0.0
  9
$EXTMIN
 10
0.0
 20
0.0
 30
0.0
  9
$LIMMIN
 10
0.0
 20
0.0
  9
$LIMMAX
 10
82.5484597939
 20
116.7471074227
  9
$VIEWCTR
 10
41.2742298969
 20
58.3735537114
  9
$VIEWSIZE
 40
116.7471074227
  9
$CLAYER
  8
0
  9
$LTSCALE
 40
7.6101818172
  9
$CELTYPE
  6
BYLAYER
  9
$DIMSCALE
 40
1.0
  9
$DIMASZ
 40
0.9827197595
  9
$DIMEXO
 40
1.0
  9
$DIMDLI
 40
5.257943801
  9
$DIMEXE
 40
1.0
  9
$DIMCEN
 40
1.2453024792
  9
$DIMLFAC
 40
1.0
  9
$DIMBLK
  1
_FILLED
  9
$DIMALT
 70
0
  9
$DIMALTF
 40
0.0393700787
  9
$DIMTXT
 40
1.3758076632
  9
$DIMTOL
 70
1
  9
$DIMLIM
 70
0
  9
$DIMTFAC
 40
1.0
  9
$DIMTP
 40
0.01
  9
$DIMTM
 40
0.01
  9
$DIMGAP
 40
0.625
  9
$DIMDSEP
 70
46
  9
$AUNITS
 70
0
  9
$PDMODE
 70
3
  9
$PDSIZE
 40
0.3125
  9
$HANDSEED
  5
3CF
  9
$TILEMODE
 70
1
  9
$MEASUREMENT
 70
1
  9
$INSUNITS
 70
4
  0
ENDSEC
  0
SECTION
  2
CLASSES
  0
CLASS
  1
ACDBDICTIONARYWDFLT
  2
AcDbDictionaryWithDefault
  3
AutoCAD 2000
 90
0
 91
1
280
0
281
0
  0
CLASS
  1
ACDBPLACEHOLDER
  2
AcDbPlaceHolder
  3
AutoCAD 2000
 90
0
 91
1
280
0
281
0
  0
CLASS
  1
LAYOUT
  2
AcDbLayout
  3
AutoCAD 2000
 90
0
 91
0
280
0
281
0
  0
ENDSEC
  0
SECTION
  2
TABLES
  0
TABLE
  2
VPORT
  5
8
100
AcDbSymbolTable
 70
2
  0
VPORT
  5
1F4
100
AcDbSymbolTableRecord
100
AcDbViewportTableRecord
  2
*ACTIVE
 70
0
 10
0.0
 20
0.0
 11
1.0
 21
1.0
 12
41.2742298969
 22
58.3735537114
 13
0.0
 23
0.0
 14
1.0
 24
1.0
 15
0.0
 25
0.0
 16
0.0
 26
0.0
 36
1.0
 17
0.0
 27
0.0
 37
0.0
 40
116.7471074227
 41
0.7070707071
 42
50.0
 43
0.0
 44
0.0
 50
0.0
 51
0.0
 71
0
 72
100
 73
1
 74
1
 75
0
 76
0
 77
0
 78
0
  0
ENDTAB
  0
TABLE
  2
LTYPE
  5
5
100
AcDbSymbolTable
 70
6
  0
LTYPE
  5
14
100
AcDbSymbolTableRecord
100
AcDbLinetypeTableRecord
  2
BYBLOCK
 70
0
  3

 72
65
 73
0
 40
0.0
  0
LTYPE
  5
15
100
AcDbSymbolTableRecord
100
AcDbLinetypeTableRecord
  2
BYLAYER
 70
0
  3

 72
65
 73
0
 40
0.0
  0
LTYPE
  5
16
100
AcDbSymbolTableRecord
100
AcDbLinetypeTableRecord
  2
CONTINUOUS
 70
64
  3
Solid line
 72
65
 73
0
 40
0.0
  0
LTYPE
  5
1F5
100
AcDbSymbolTableRecord
100
AcDbLinetypeTableRecord
  2
CENTER
 70
64
  3
____ _ ____ _ ____ _ ____ _ ____ _ ____ _ ____
 72
65
 73
4
 40
0.6
 49
0.375
 74
0
 49
-0.075
 74
0
 49
0.075
 74
0
 49
-0.075
 74
0
  0
LTYPE
  5
1F6
100
AcDbSymbolTableRecord
100
AcDbLinetypeTableRecord
  2
HIDDEN
 70
64
  3
- - - - - - - - - - - - - - - - - - - -
 72
65
 73
2
 40
0.2
 49
0.1
 74
0
 49
-0.1
 74
0
  0
LTYPE
  5
1F7
100
AcDbSymbolTableRecord
100
AcDbLinetypeTableRecord
  2
PHANTOM
 70
64
  3
_____ _ _ _____ _ _ _____ _ _ _____
 72
65
 73
6
 40
0.8
 49
0.45
 74
0
 49
-0.05
 74
0
 49
0.1
 74
0
 49
-0.05
 74
0
 49
0.1
 74
0
 49
-0.05
 74
0
  0
LTYPE
  5
1F8
100
AcDbSymbolTableRecord
100
AcDbLinetypeTableRecord
  2
DOT
 70
64
  3
. . . . . . . . . . . . . . . . . . . .
 72
65
 73
2
 40
0.2
 49
0.1
 74
0
 49
-0.1
 74
0
  0
LTYPE
  5
1F9
100
AcDbSymbolTableRecord
100
AcDbLinetypeTableRecord
  2
DASHED
 70
64
  3
- - - - - - - - - - - - - - - - - - - -
 72
65
 73
2
 40
0.2
 49
0.1
 74
0
 49
-0.1
 74
0
  0
ENDTAB
  0
TABLE
  2
LAYER
  5
2
100
AcDbSymbolTable
 70
36
  0
LAYER
  5
10
100
AcDbSymbolTableRecord
100
AcDbLayerTableRecord
  2
0
 70
0
 62
7
  6
CONTINUOUS
370
-3
390
F
  0
LAYER
  5
1FA
100
AcDbSymbolTableRecord
100
AcDbLayerTableRecord
  2
DEFAULT_1
 70
0
 62
7
  6
CENTER
370
-3
390
F
  0
LAYER
  5
1FB
100
AcDbSymbolTableRecord
100
AcDbLayerTableRecord
  2
DEFAULT_2
 70
0
 62
7
  6
HIDDEN
370
-3
390
F
  0
LAYER
  5
1FC
100
AcDbSymbolTableRecord
100
AcDbLayerTableRecord
  2
DEFAULT_3
 70
0
 62
7
  6
PHANTOM
370
-3
390
F
  0
LAYER
  5
1FD
100
AcDbSymbolTableRecord
100
AcDbLayerTableRecord
  2
00_COMPONENTS
 70
0
 62
7
  6
CONTINUOUS
370
-3
390
F
  0
LAYER
  5
1FE
100
AcDbSymbolTableRecord
100
AcDbLayerTableRecord
  2
01_1_DEFAULT_DATUMS
 70
0
 62
7
  6
CONTINUOUS
370
-3
390
F
  0
LAYER
  5
1FF
100
AcDbSymbolTableRecord
100
AcDbLayerTableRecord
  2
01_PLANES
 70
0
 62
7
  6
CONTINUOUS
370
-3
390
F
  0
LAYER
  5
200
100
AcDbSymbolTableRecord
100
AcDbLayerTableRecord
  2
02_COORD_SYS
 70
0
 62
7
  6
CONTINUOUS
370
-3
390
F
  0
LAYER
  5
201
100
AcDbSymbolTableRecord
100
AcDbLayerTableRecord
  2
03_AXES
 70
0
 62
7
  6
CONTINUOUS
370
-3
390
F
  0
LAYER
  5
202
100
AcDbSymbolTableRecord
100
AcDbLayerTableRecord
  2
04_POINTS
 70
0
 62
7
  6
CONTINUOUS
370
-3
390
F
  0
LAYER
  5
203
100
AcDbSymbolTableRecord
100
AcDbLayerTableRecord
  2
05_CURVES
 70
0
 62
7
  6
CONTINUOUS
370
-3
390
F
  0
LAYER
  5
204
100
AcDbSymbolTableRecord
100
AcDbLayerTableRecord
  2
06_SURFS
 70
0
 62
7
  6
CONTINUOUS
370
-3
390
F
  0
LAYER
  5
205
100
AcDbSymbolTableRecord
100
AcDbLayerTableRecord
  2
07_COSMETICS
 70
0
 62
7
  6
CONTINUOUS
370
-3
390
F
  0
LAYER
  5
206
100
AcDbSymbolTableRecord
100
AcDbLayerTableRecord
  2
10_NOTES
 70
0
 62
7
  6
CONTINUOUS
370
-3
390
F
  0
LAYER
  5
207
100
AcDbSymbolTableRecord
100
AcDbLayerTableRecord
  2
11_NOTES_PUB
 70
0
 62
7
  6
CONTINUOUS
370
-3
390
F
  0
LAYER
  5
208
100
AcDbSymbolTableRecord
100
AcDbLayerTableRecord
  2
13_REF_GTOL
 70
0
 62
7
  6
CONTINUOUS
370
-3
390
F
  0
LAYER
  5
209
100
AcDbSymbolTableRecord
100
AcDbLayerTableRecord
  2
16_MISC
 70
0
 62
7
  6
CONTINUOUS
370
-3
390
F
  0
LAYER
  5
20A
100
AcDbSymbolTableRecord
100
AcDbLayerTableRecord
  2
17_NO_PRINT
 70
0
 62
7
  6
CONTINUOUS
370
-3
390
F
  0
LAYER
  5
20B
100
AcDbSymbolTableRecord
100
AcDbLayerTableRecord
  2
18_DATUM_CAMS_JOINTS
 70
0
 62
7
  6
CONTINUOUS
370
-3
390
F
  0
LAYER
  5
20C
100
AcDbSymbolTableRecord
100
AcDbLayerTableRecord
  2
19_DATUM_FUNCTIONAL
 70
0
 62
7
  6
CONTINUOUS
370
-3
390
F
  0
LAYER
  5
20D
100
AcDbSymbolTableRecord
100
AcDbLayerTableRecord
  2
20_DATUM_KINEMATIC_SCHEME
 70
0
 62
7
  6
CONTINUOUS
370
-3
390
F
  0
ENDTAB
  0
TABLE
  2
STYLE
  5
3
100
AcDbSymbolTable
 70
1
  0
STYLE
  5
11
100
AcDbSymbolTableRecord
100
AcDbTextStyleTableRecord
  2
STANDARD
 70
0
 40
0.0
 41
1.0
 50
0.0
 71
0
 42
0.2
  3
ARIAL.TTF
  4

  0
STYLE
  5
20E
100
AcDbSymbolTableRecord
100
AcDbTextStyleTableRecord
  2
TEXTSTYLE_1
 70
0
 40
0.0
 41
0.8
 50
0.0
 71
0
 42
0.2
  3
gdt
  4

  0
ENDTAB
  0
TABLE
  2
VIEW
  5
6
100
AcDbSymbolTable
 70
0
  0
ENDTAB
  0
TABLE
  2
UCS
  5
7
100
AcDbSymbolTable
 70
0
  0
ENDTAB
  0
TABLE
  2
APPID
  5
9
100
AcDbSymbolTable
 70
1
  0
APPID
  5
20F
100
AcDbSymbolTableRecord
100
AcDbRegAppTableRecord
  2
ACAD
 70
0
  0
ENDTAB
  0
TABLE
  2
BLOCK_RECORD
  5
1
100
AcDbSymbolTable
 70
0
  0
BLOCK_RECORD
  5
210
100
AcDbSymbolTableRecord
100
AcDbBlockTableRecord
  2
*Model_Space
  0
BLOCK_RECORD
  5
211
100
AcDbSymbolTableRecord
100
AcDbBlockTableRecord
  2
*Paper_Space
  0
BLOCK_RECORD
  5
212
100
AcDbSymbolTableRecord
100
AcDbBlockTableRecord
  2
_FILLED
  0
ENDTAB
  0
TABLE
  2
DIMSTYLE
  5
A
100
AcDbSymbolTable
 70
1
100
AcDbDimStyleTable
 71
0
  0
DIMSTYLE
105
213
100
AcDbSymbolTableRecord
100
AcDbDimStyleTableRecord
  2
STANDARD
 70
0
  3

  4

 40
1.0
 41
0.9827197595
 42
1.0
 43
0.38
 44
1.0
 45
0.0
 46
0.0
 47
0.01
 48
0.01
140
1.3758076632
141
0.09
142
0.0
143
25.4
144
1.0
145
0.0
146
1.0
147
0.625
 71
1
 72
0
 73
0
 74
0
 75
0
 76
0
 77
1
 78
8
 79
2
170
0
171
1
172
0
173
0
174
0
175
0
176
0
177
0
178
0
270
2
179
2
271
2
272
2
273
2
274
2
275
0
280
0
281
0
282
0
283
1
284
8
285
0
286
0
287
3
288
0
340
11
278
46
341
212
342
212
343
212
344
212
  0
ENDTAB
  0
ENDSEC
  0
SECTION
  2
BLOCKS
  0
BLOCK
  5
20
100
AcDbEntity
  8
0
100
AcDbBlockBegin
  2
*Model_Space
 70
0
 10
0.0
 20
0.0
 30
0.0
  3
*Model_Space
  1

  0
ENDBLK
  5
21
100
AcDbEntity
  8
0
100
AcDbBlockEnd
  0
BLOCK
  5
1C
100
AcDbEntity
  8
0
100
AcDbBlockBegin
  2
*Paper_Space
 70
0
 10
0.0
 20
0.0
 30
0.0
  3
*Paper_Space
  1

  0
ENDBLK
  5
1D
100
AcDbEntity
  8
0
100
AcDbBlockEnd
  0
BLOCK
  5
214
100
AcDbEntity
  8
0
100
AcDbBlockBegin
  2
_FILLED
 70
64
 10
0.0
 20
0.0
  3
_FILLED
  1

  0
SOLID
  5
215
100
AcDbEntity
  8
0
  6
BYBLOCK
 62
0
100
AcDbTrace
 10
0.0
 20
0.0
 11
-1.0
 21
0.25
 12
-1.0
 22
-0.25
 13
-1.0
 23
-0.25
  0
ENDBLK
  5
216
100
AcDbEntity
  8
0
  6
BYBLOCK
 62
0
100
AcDbBlockEnd
  0
ENDSEC
  0
SECTION
  2
ENTITIES
  0
LINE
  5
217
100
AcDbEntity
  8
0
100
AcDbLine
 62
7
  6
BYLAYER
 10
41.7718324015
 20
107.954360759
 11
21.2658211223
 21
96.1152802968
  0
LINE
  5
218
100
AcDbEntity
  8
0
100
AcDbLine
 62
7
  6
BYLAYER
 10
21.5158200031
 20
96.0905181573
 11
42.0218312823
 21
107.9295986195
  0
LWPOLYLINE
  5
219
100
AcDbEntity
  8
0
100
AcDbPolyline
 62
7
  6
BYLAYER
 90
4
 70
0
 10
39.2263926695
 20
9.5837188935
 10
40.1798019924
 20
9.1008557782
 10
41.2028114197
 20
9.0544200636
 10
41.6899382818
 20
9.2428995956
  0
LINE
  5
21A
100
AcDbEntity
  8
0
100
AcDbLine
 62
7
  6
BYLAYER
 10
36.8601039828
 20
10.3579999658
 11
21.0208461395
 21
19.502592867
  0
LINE
  5
21B
100
AcDbEntity
  8
0
100
AcDbLine
 62
7
  6
BYLAYER
 10
40.466224037
 20
104.0921158108
 11
28.1626172695
 21
96.9886675334
  0
LINE
  5
21C
100
AcDbEntity
  8
0
100
AcDbLine
 62
7
  6
BYLAYER
 10
37.5672137079
 20
13.0116432755
 11
39.3349880208
 21
11.9910413892
  0
LINE
  5
21D
100
AcDbEntity
  8
0
100
AcDbLine
 62
7
  6
BYLAYER
 10
43.6943408328
 20
9.6782667798
 11
43.0691757173
 21
10.0391978621
  0
LINE
  5
21E
100
AcDbEntity
  8
0
100
AcDbLine
 62
7
  6
BYLAYER
 10
39.2265420765
 20
9.5836009235
 11
39.2263910096
 21
9.5837123127
  0
LINE
  5
21F
100
AcDbEntity
  8
0
100
AcDbLine
 62
7
  6
BYLAYER
 10
40.4662358129
 20
100.5130066161
 11
31.262266955
 21
95.199124438
  0
LINE
  5
220
100
AcDbEntity
  8
0
100
AcDbLine
 62
7
  6
BYLAYER
 10
32.2639001085
 20
94.6208443497
 11
40.4662358129
 21
99.3564368089
  0
LINE
  5
221
100
AcDbEntity
  8
0
100
AcDbLine
 62
7
  6
BYLAYER
 10
32.6881195104
 20
94.3759267045
 11
44.991726278
 21
101.4793749819
  0
LWPOLYLINE
  5
222
100
AcDbEntity
  8
0
100
AcDbPolyline
 62
7
  6
BYLAYER
 90
5
 70
0
 10
39.4597528373
 20
12.8798597295
 10
39.511714983
 20
12.7994410309
 10
39.689415463
 20
12.3855771123
 10
39.7164998452
 20
12.2204140676
 10
39.7096989291
 20
12.0895925898
  0
LINE
  5
223
100
AcDbEntity
  8
0
100
AcDbLine
 62
7
  6
BYLAYER
 10
20.8087132219
 20
72.0036951523
 11
20.8087132219
 21
57.9190284568
  0
LINE
  5
224
100
AcDbEntity
  8
0
100
AcDbLine
 62
7
  6
BYLAYER
 10
60.4667557856
 20
96.2885708576
 11
60.0486106085
 21
96.0471560681
  0
LINE
  5
225
100
AcDbEntity
  8
0
100
AcDbLine
 62
7
  6
BYLAYER
 10
59.6586046927
 20
95.8219873916
 11
59.1046885069
 21
95.5021856416
  0
LINE
  5
226
100
AcDbEntity
  8
0
100
AcDbLine
 62
7
  6
BYLAYER
 10
58.3467948808
 20
95.0646181645
 11
57.3204241263
 21
94.4720462703
  0
LINE
  5
227
100
AcDbEntity
  8
0
100
AcDbLine
 62
7
  6
BYLAYER
 10
43.4962636925
 20
86.4907111647
 11
43.0781185154
 21
86.2492963752
  0
LINE
  5
228
100
AcDbEntity
  8
0
100
AcDbLine
 62
7
  6
BYLAYER
 10
42.6881125995
 20
86.0241276987
 11
42.1341964138
 21
85.7043259487
  0
LINE
  5
229
100
AcDbEntity
  8
0
100
AcDbLine
 62
7
  6
BYLAYER
 10
41.3763027877
 20
85.2667584716
 11
40.1234450975
 21
84.5434250647
  0
LINE
  5
22A
100
AcDbEntity
  8
0
100
AcDbLine
 62
7
  6
BYLAYER
 10
58.9671102398
 20
94.0347406633
 11
45.5829051041
 21
86.3074123513
  0
LINE
  5
22B
100
AcDbEntity
  8
0
100
AcDbLine
 62
7
  6
BYLAYER
 10
21.0158200031
 20
72.1232675944
 11
20.8087132219
 21
72.0036951523
  0
LINE
  5
22C
100
AcDbEntity
  8
0
100
AcDbLine
 62
7
  6
BYLAYER
 10
45.9364599667
 20
85.6950407655
 11
59.3206651024
 21
93.4223690775
  0
LINE
  5
22D
100
AcDbEntity
  8
0
100
AcDbLine
 62
7
  6
BYLAYER
 10
21.0158200031
 20
95.6822669487
 11
21.0158200031
 21
72.0036968519
  0
LINE
  5
22E
100
AcDbEntity
  8
0
100
AcDbLine
 62
7
  6
BYLAYER
 10
21.0208461395
 20
19.502592867
 11
21.0208461395
 21
57.7965562304
  0
LINE
  5
22F
100
AcDbEntity
  8
0
100
AcDbLine
 62
7
  6
BYLAYER
 10
21.1622680845
 20
71.799574775
 11
21.1622680845
 21
95.4781448718
  0
LINE
  5
230
100
AcDbEntity
  8
0
100
AcDbLine
 62
7
  6
BYLAYER
 10
58.7803659183
 20
92.0489759179
 11
46.4767591508
 21
84.9455276405
  0
LINE
  5
231
100
AcDbEntity
  8
0
100
AcDbLine
 62
7
  6
BYLAYER
 10
62.5280133116
 20
94.0493606956
 11
61.2938803229
 21
93.3368379356
  0
LINE
  5
232
100
AcDbEntity
  8
0
100
AcDbLine
 62
7
  6
BYLAYER
 10
60.2251737415
 20
92.7198235862
 11
59.4776245276
 21
92.2882284226
  0
LINE
  5
233
100
AcDbEntity
  8
0
100
AcDbLine
 62
7
  6
BYLAYER
 10
45.2048204547
 20
84.0478703373
 11
44.3233882297
 21
83.5389782426
  0
LINE
  5
234
100
AcDbEntity
  8
0
100
AcDbLine
 62
7
  6
BYLAYER
 10
43.2546816484
 20
82.9219638933
 11
42.0220020324
 21
82.2102802333
  0
LINE
  5
235
100
AcDbEntity
  8
0
100
AcDbLine
 62
7
  6
BYLAYER
 10
42.375556895
 20
81.5979086475
 11
45.9364599667
 21
83.6537847226
  0
LINE
  5
236
100
AcDbEntity
  8
0
100
AcDbLine
 62
7
  6
BYLAYER
 10
59.3206651024
 20
91.3811130347
 11
62.8815681742
 21
93.4369891098
  0
LINE
  5
237
100
AcDbEntity
  8
0
100
AcDbLine
 62
7
  6
BYLAYER
 10
46.4767591508
 20
83.2990227534
 11
55.6807571333
 21
88.6129217465
  0
LINE
  5
238
100
AcDbEntity
  8
0
100
AcDbLine
 62
7
  6
BYLAYER
 10
46.4767591508
 20
79.7199121709
 11
58.7803659183
 21
86.8233604483
  0
LINE
  5
239
100
AcDbEntity
  8
0
100
AcDbLine
 62
7
  6
BYLAYER
 10
42.7523197478
 20
85.9096361797
 11
42.7153923367
 21
85.8356138358
  0
LINE
  5
23A
100
AcDbEntity
  8
0
100
AcDbLine
 62
7
  6
BYLAYER
 10
21.0208461395
 20
57.5259862314
 11
20.9744030785
 21
57.5527995385
  0
LINE
  5
23B
100
AcDbEntity
  8
0
100
AcDbLine
 62
7
  6
BYLAYER
 10
21.0208461395
 20
57.7965562304
 11
20.8087132219
 21
57.9190284568
  0
LINE
  5
23C
100
AcDbEntity
  8
0
100
AcDbLine
 62
7
  6
BYLAYER
 10
38.6985892682
 20
48.1620890594
 11
39.3349880208
 21
47.7946723803
  0
LINE
  5
23D
100
AcDbEntity
  8
0
100
AcDbLine
 62
7
  6
BYLAYER
 10
41.6955242563
 20
46.4343269954
 11
39.3349880208
 21
47.7971580109
  0
LINE
  5
23E
100
AcDbEntity
  8
0
100
AcDbLine
 62
7
  6
BYLAYER
 10
39.8985184957
 20
48.7732268433
 11
42.2590547321
 21
47.4103958289
  0
LINE
  5
23F
100
AcDbEntity
  8
0
100
AcDbLine
 62
7
  6
BYLAYER
 10
39.9006710906
 20
48.7744696371
 11
39.2642723379
 21
49.1418863162
  0
LINE
  5
240
100
AcDbEntity
  8
0
100
AcDbLine
 62
7
  6
BYLAYER
 10
36.8601039828
 20
12.6033816129
 11
36.8601039828
 21
10.3579999658
  0
LINE
  5
241
100
AcDbEntity
  8
0
100
AcDbLine
 62
7
  6
BYLAYER
 10
38.107517391
 20
85.695021947
 11
38.107517391
 21
83.6537659042
  0
LINE
  5
242
100
AcDbEntity
  8
0
100
AcDbLine
 62
7
  6
BYLAYER
 10
38.6985892682
 20
48.1620890594
 11
38.6985892682
 21
59.1848716907
  0
LINE
  5
243
100
AcDbEntity
  8
0
100
AcDbLine
 62
7
  6
BYLAYER
 10
42.2341084542
 20
50.8565117625
 11
42.8705072069
 21
50.4890950834
  0
LINE
  5
244
100
AcDbEntity
  8
0
100
AcDbLine
 62
7
  6
BYLAYER
 10
42.8705072069
 20
50.4890950834
 11
45.0411393208
 21
49.0166235273
  0
LINE
  5
245
100
AcDbEntity
  8
0
100
AcDbLine
 62
7
  6
BYLAYER
 10
39.022296372
 20
84.2763535053
 11
39.022296372
 21
85.9093583396
  0
LINE
  5
246
100
AcDbEntity
  8
0
100
AcDbLine
 62
7
  6
BYLAYER
 10
39.3349880208
 20
11.9910413892
 11
39.3349880208
 21
47.7971580109
  0
LINE
  5
247
100
AcDbEntity
  8
0
100
AcDbLine
 62
7
  6
BYLAYER
 10
39.3719873126
 20
84.2514925043
 11
39.3719873126
 21
85.2312954049
  0
LINE
  5
248
100
AcDbEntity
  8
0
100
AcDbLine
 62
7
  6
BYLAYER
 10
40.0420865589
 20
56.2046244642
 11
40.0420865589
 21
52.9386147957
  0
LINE
  5
249
100
AcDbEntity
  8
0
100
AcDbLine
 62
7
  6
BYLAYER
 10
40.4662358129
 20
99.3564368089
 11
40.466224037
 21
104.0921158108
  0
LINE
  5
24A
100
AcDbEntity
  8
0
100
AcDbLine
 62
7
  6
BYLAYER
 10
40.5219873126
 20
60.4294165766
 11
40.5219873126
 21
60.6224885267
  0
LINE
  5
24B
100
AcDbEntity
  8
0
100
AcDbLine
 62
7
  6
BYLAYER
 10
41.6684501138
 20
81.5979069478
 11
41.6684501138
 21
57.4702605217
  0
LINE
  5
24C
100
AcDbEntity
  8
0
100
AcDbLine
 62
7
  6
BYLAYER
 10
41.6955242563
 20
46.4343269954
 11
41.6955242562
 21
12.8071010469
  0
LINE
  5
24D
100
AcDbEntity
  8
0
100
AcDbLine
 62
7
  6
BYLAYER
 10
42.375556895
 20
57.4702622213
 11
42.375556895
 21
81.5979086475
  0
LINE
  5
24E
100
AcDbEntity
  8
0
100
AcDbLine
 62
7
  6
BYLAYER
 10
59.722811841
 20
95.7074958727
 11
59.6858844298
 21
95.6334735287
  0
LINE
  5
24F
100
AcDbEntity
  8
0
100
AcDbLine
 62
7
  6
BYLAYER
 10
62.8815681742
 20
71.7996750559
 11
42.375556895
 21
59.9605945936
  0
LINE
  5
250
100
AcDbEntity
  8
0
100
AcDbLine
 62
7
  6
BYLAYER
 10
54.0403524901
 20
58.1233529994
 11
52.628558413
 21
58.1233496059
  0
LINE
  5
251
100
AcDbEntity
  8
0
100
AcDbLine
 62
7
  6
BYLAYER
 10
48.1301691749
 20
54.3670098813
 11
45.7696329394
 21
55.5105560245
  0
LINE
  5
252
100
AcDbEntity
  8
0
100
AcDbLine
 62
7
  6
BYLAYER
 10
43.0119226752
 20
54.653240242
 11
40.0720113332
 21
56.3505604481
  0
LINE
  5
253
100
AcDbEntity
  8
0
100
AcDbLine
 62
7
  6
BYLAYER
 10
40.1036207559
 20
56.5047120597
 11
43.0119226752
 21
54.8256411494
  0
LINE
  5
254
100
AcDbEntity
  8
0
100
AcDbLine
 62
7
  6
BYLAYER
 10
38.8021454285
 20
58.9559786167
 11
41.7720062741
 21
57.2413674478
  0
LINE
  5
255
100
AcDbEntity
  8
0
100
AcDbLine
 62
7
  6
BYLAYER
 10
41.6684501138
 20
57.4702605217
 11
38.6985892682
 21
59.1848716907
  0
LINE
  5
256
100
AcDbEntity
  8
0
100
AcDbLine
 62
7
  6
BYLAYER
 10
45.7696329394
 20
55.5105560245
 11
45.1332341868
 21
55.8779727036
  0
LINE
  5
257
100
AcDbEntity
  8
0
100
AcDbLine
 62
7
  6
BYLAYER
 10
42.7754395726
 20
12.8343253935
 11
42.7754395726
 21
46.4615513426
  0
LINE
  5
258
100
AcDbEntity
  8
0
100
AcDbLine
 62
7
  6
BYLAYER
 10
43.0119226752
 20
54.653240242
 11
43.0119226752
 21
54.8256411494
  0
LINE
  5
259
100
AcDbEntity
  8
0
100
AcDbLine
 62
7
  6
BYLAYER
 10
43.5219873126
 20
60.4294165766
 11
43.5219873126
 21
60.6224825529
  0
LINE
  5
25A
100
AcDbEntity
  8
0
100
AcDbLine
 62
7
  6
BYLAYER
 10
44.6719873126
 20
84.2514925043
 11
44.6719873126
 21
85.2312954049
  0
LINE
  5
25B
100
AcDbEntity
  8
0
100
AcDbLine
 62
7
  6
BYLAYER
 10
44.7089995578
 20
14.1674593488
 11
44.7089995578
 21
13.9506601079
  0
LINE
  5
25C
100
AcDbEntity
  8
0
100
AcDbLine
 62
7
  6
BYLAYER
 10
45.0216846084
 20
84.2760965785
 11
45.0216778945
 21
85.9093727603
  0
LINE
  5
25D
100
AcDbEntity
  8
0
100
AcDbLine
 62
7
  6
BYLAYER
 10
45.1332341868
 20
55.8779727036
 11
45.1332341868
 21
58.8932931906
  0
LINE
  5
25E
100
AcDbEntity
  8
0
100
AcDbLine
 62
7
  6
BYLAYER
 10
45.7696329394
 20
55.5105560245
 11
45.7696329394
 21
59.2607159886
  0
LINE
  5
25F
100
AcDbEntity
  8
0
100
AcDbLine
 62
7
  6
BYLAYER
 10
45.9364599667
 20
83.6537847226
 11
45.9364599667
 21
85.6950407655
  0
LINE
  5
260
100
AcDbEntity
  8
0
100
AcDbLine
 62
7
  6
BYLAYER
 10
62.8815681742
 20
69.3093426836
 11
42.375556895
 21
57.4702622213
  0
LINE
  5
261
100
AcDbEntity
  8
0
100
AcDbLine
 62
7
  6
BYLAYER
 10
62.7780121924
 20
69.0804497128
 11
42.2720009132
 21
57.2413692505
  0
LINE
  5
262
100
AcDbEntity
  8
0
100
AcDbLine
 62
7
  6
BYLAYER
 10
49.2100844913
 20
60.0562523901
 11
56.0470405779
 21
64.0035472649
  0
LINE
  5
263
100
AcDbEntity
  8
0
100
AcDbLine
 62
7
  6
BYLAYER
 10
20.8087132219
 20
72.0036951523
 11
41.6684501138
 21
59.9605928939
  0
LINE
  5
264
100
AcDbEntity
  8
0
100
AcDbLine
 62
7
  6
BYLAYER
 10
45.3503404901
 20
59.0186388251
 11
45.7696329394
 21
58.776565693
  0
LINE
  5
265
100
AcDbEntity
  8
0
100
AcDbLine
 62
7
  6
BYLAYER
 10
51.3750502763
 20
55.7223813464
 11
50.6145700268
 21
56.1614348905
  0
LINE
  5
266
100
AcDbEntity
  8
0
100
AcDbLine
 62
7
  6
BYLAYER
 10
53.0639353296
 20
56.1237301926
 11
52.734625755
 21
56.313852863
  0
LINE
  5
267
100
AcDbEntity
  8
0
100
AcDbLine
 62
7
  6
BYLAYER
 10
46.4767591508
 20
84.9455276405
 11
46.4767591508
 21
79.7199121709
  0
LINE
  5
268
100
AcDbEntity
  8
0
100
AcDbLine
 62
7
  6
BYLAYER
 10
48.1301691749
 20
60.0290280429
 11
48.1301691749
 21
54.3670098813
  0
LINE
  5
269
100
AcDbEntity
  8
0
100
AcDbLine
 62
7
  6
BYLAYER
 10
49.2100844913
 20
54.3942366309
 11
49.2100844913
 21
60.0562523901
  0
LINE
  5
26A
100
AcDbEntity
  8
0
100
AcDbLine
 62
7
  6
BYLAYER
 10
52.5016269884
 20
58.7032723176
 11
52.734625755
 21
58.8377934153
  0
LINE
  5
26B
100
AcDbEntity
  8
0
100
AcDbLine
 62
7
  6
BYLAYER
 10
51.6386130409
 20
57.5518077905
 11
52.1112349825
 21
57.8246745668
  0
LINE
  5
26C
100
AcDbEntity
  8
0
100
AcDbLine
 62
7
  6
BYLAYER
 10
52.5633791915
 20
58.0857185894
 11
52.628558413
 21
58.1233496059
  0
LINE
  5
26D
100
AcDbEntity
  8
0
100
AcDbLine
 62
7
  6
BYLAYER
 10
51.956811534
 20
57.4905721872
 11
52.734625755
 21
57.9396407564
  0
LINE
  5
26E
100
AcDbEntity
  8
0
100
AcDbLine
 62
7
  6
BYLAYER
 10
39.2642723379
 20
49.1418863162
 11
42.2341084542
 21
50.8565117625
  0
LINE
  5
26F
100
AcDbEntity
  8
0
100
AcDbLine
 62
7
  6
BYLAYER
 10
56.3761851985
 20
59.0213948399
 11
59.3460213148
 21
60.7360202862
  0
LINE
  5
270
100
AcDbEntity
  8
0
100
AcDbLine
 62
7
  6
BYLAYER
 10
42.8705072069
 20
50.4890950834
 11
39.8985184957
 21
48.7732268433
  0
LINE
  5
271
100
AcDbEntity
  8
0
100
AcDbLine
 62
7
  6
BYLAYER
 10
57.0125839511
 20
58.6539781608
 11
59.9845726623
 21
60.3698464009
  0
LINE
  5
272
100
AcDbEntity
  8
0
100
AcDbLine
 62
7
  6
BYLAYER
 10
52.5664092113
 20
57.1386287661
 11
51.956811534
 21
57.4905721872
  0
LINE
  5
273
100
AcDbEntity
  8
0
100
AcDbLine
 62
7
  6
BYLAYER
 10
48.1301691749
 20
60.0290280429
 11
47.6152795595
 21
60.3262942008
  0
LINE
  5
274
100
AcDbEntity
  8
0
100
AcDbLine
 62
7
  6
BYLAYER
 10
53.3442234322
 20
57.5876973354
 11
52.734625755
 21
57.9396407564
  0
LINE
  5
275
100
AcDbEntity
  8
0
100
AcDbLine
 62
7
  6
BYLAYER
 10
53.3442234322
 20
58.4858499942
 11
52.734625755
 21
58.8377934153
  0
LINE
  5
276
100
AcDbEntity
  8
0
100
AcDbLine
 62
7
  6
BYLAYER
 10
52.2861211087
 20
59.824390069
 11
52.0484363373
 21
59.9616143313
  0
LINE
  5
277
100
AcDbEntity
  8
0
100
AcDbLine
 62
7
  6
BYLAYER
 10
52.734625755
 20
60.4635813087
 11
53.0639353296
 21
60.2734586383
  0
LINE
  5
278
100
AcDbEntity
  8
0
100
AcDbLine
 62
7
  6
BYLAYER
 10
53.975006162
 20
60.2257389152
 11
53.2488510341
 21
60.6449752894
  0
LINE
  5
279
100
AcDbEntity
  8
0
100
AcDbLine
 62
7
  6
BYLAYER
 10
41.394762276
 20
85.8504956802
 11
41.4040108647
 21
85.8097499863
  0
LINE
  5
27A
100
AcDbEntity
  8
0
100
AcDbLine
 62
7
  6
BYLAYER
 10
41.394887493
 20
85.8504668985
 11
41.4040108647
 21
85.8097499863
  0
LINE
  5
27B
100
AcDbEntity
  8
0
100
AcDbLine
 62
7
  6
BYLAYER
 10
51.6386189188
 20
56.7367197525
 11
51.6386189188
 21
57.6348724114
  0
LINE
  5
27C
100
AcDbEntity
  8
0
100
AcDbLine
 62
7
  6
BYLAYER
 10
52.628558413
 20
58.1233496059
 11
52.628558413
 21
58.7765557724
  0
LINE
  5
27D
100
AcDbEntity
  8
0
100
AcDbLine
 62
7
  6
BYLAYER
 10
52.734625755
 20
56.313852863
 11
52.734625755
 21
57.9396407564
  0
LINE
  5
27E
100
AcDbEntity
  8
0
100
AcDbLine
 62
7
  6
BYLAYER
 10
52.734625755
 20
58.8377934153
 11
52.734625755
 21
60.4635813087
  0
LINE
  5
27F
100
AcDbEntity
  8
0
100
AcDbLine
 62
7
  6
BYLAYER
 10
44.7004054893
 20
13.8421944579
 11
44.2861057618
 21
11.3682804851
  0
LINE
  5
280
100
AcDbEntity
  8
0
100
AcDbLine
 62
7
  6
BYLAYER
 10
41.2449783011
 20
10.3122604297
 11
41.6955242562
 21
12.8071010469
  0
LINE
  5
281
100
AcDbEntity
  8
0
100
AcDbLine
 62
7
  6
BYLAYER
 10
42.7668455042
 20
12.7258597436
 11
42.3162995491
 21
10.2310191268
  0
LINE
  5
282
100
AcDbEntity
  8
0
100
AcDbLine
 62
7
  6
BYLAYER
 10
61.9653006546
 20
58.7877343034
 11
59.1832160654
 21
57.1815066048
  0
LINE
  5
283
100
AcDbEntity
  8
0
100
AcDbLine
 62
7
  6
BYLAYER
 10
45.0411393208
 20
49.0166235273
 11
42.2590547321
 21
47.4103958289
  0
LINE
  5
284
100
AcDbEntity
  8
0
100
AcDbLine
 62
7
  6
BYLAYER
 10
42.7754395726
 20
46.4615513426
 11
45.5575220813
 21
48.06777784
  0
LINE
  5
285
100
AcDbEntity
  8
0
100
AcDbLine
 62
7
  6
BYLAYER
 10
59.6996029878
 20
56.2326633205
 11
62.4816854965
 21
57.8388898179
  0
LINE
  5
286
100
AcDbEntity
  8
0
100
AcDbLine
 62
7
  6
BYLAYER
 10
57.0125839511
 20
58.6539781608
 11
56.3761851985
 21
59.0213948399
  0
LINE
  5
287
100
AcDbEntity
  8
0
100
AcDbLine
 62
7
  6
BYLAYER
 10
59.3460213148
 20
60.7360202862
 11
59.9824200674
 21
60.3686036071
  0
LINE
  5
288
100
AcDbEntity
  8
0
100
AcDbLine
 62
7
  6
BYLAYER
 10
60.3824132806
 20
60.4082259147
 11
59.746014528
 21
60.7756425938
  0
LINE
  5
289
100
AcDbEntity
  8
0
100
AcDbLine
 62
7
  6
BYLAYER
 10
59.1832160654
 20
57.1815066048
 11
57.0125839511
 21
58.6539781608
  0
LINE
  5
28A
100
AcDbEntity
  8
0
100
AcDbLine
 62
7
  6
BYLAYER
 10
55.6807571333
 20
88.6129217465
 11
55.6807571333
 21
90.2594266336
  0
LINE
  5
28B
100
AcDbEntity
  8
0
100
AcDbLine
 62
7
  6
BYLAYER
 10
56.0470405779
 20
64.0035472649
 11
56.0470405779
 21
58.3415315057
  0
LINE
  5
28C
100
AcDbEntity
  8
0
100
AcDbLine
 62
7
  6
BYLAYER
 10
56.2813527977
 20
58.6681217062
 11
56.2813527977
 21
64.3301398686
  0
LINE
  5
28D
100
AcDbEntity
  8
0
100
AcDbLine
 62
7
  6
BYLAYER
 10
58.5682070939
 20
63.6346116271
 11
55.9568256197
 21
65.1422593167
  0
LINE
  5
28E
100
AcDbEntity
  8
0
100
AcDbLine
 62
7
  6
BYLAYER
 10
61.9653006546
 20
58.7877343034
 11
59.9845726623
 21
60.3698464009
  0
LINE
  5
28F
100
AcDbEntity
  8
0
100
AcDbLine
 62
7
  6
BYLAYER
 10
60.4163927927
 20
60.3871729995
 11
62.4152782606
 21
58.7905575675
  0
LINE
  5
290
100
AcDbEntity
  8
0
100
AcDbLine
 62
7
  6
BYLAYER
 10
55.8347212244
 20
65.071762732
 11
55.980633342
 21
64.9552150146
  0
LINE
  5
291
100
AcDbEntity
  8
0
100
AcDbLine
 62
7
  6
BYLAYER
 10
41.3285845295
 20
85.8356105023
 11
41.2916548773
 21
85.9096361797
  0
LINE
  5
292
100
AcDbEntity
  8
0
100
AcDbLine
 62
7
  6
BYLAYER
 10
58.9496732348
 20
96.5476285303
 11
58.9493932954
 21
97.4142044378
  0
LINE
  5
293
100
AcDbEntity
  8
0
100
AcDbLine
 62
7
  6
BYLAYER
 10
58.5682070939
 20
63.6346116271
 11
58.5682070939
 21
66.6499321142
  0
LINE
  5
294
100
AcDbEntity
  8
0
100
AcDbLine
 62
7
  6
BYLAYER
 10
58.7803659183
 20
86.8233604483
 11
58.7803659183
 21
92.0489759179
  0
LINE
  5
295
100
AcDbEntity
  8
0
100
AcDbLine
 62
7
  6
BYLAYER
 10
59.3206651024
 20
93.4223690775
 11
59.3206651024
 21
91.3811130347
  0
LINE
  5
296
100
AcDbEntity
  8
0
100
AcDbLine
 62
7
  6
BYLAYER
 10
59.477595088
 20
96.5439809552
 11
59.477595088
 21
97.7235691805
  0
LINE
  5
297
100
AcDbEntity
  8
0
100
AcDbLine
 62
7
  6
BYLAYER
 10
59.4776245276
 20
91.8969015648
 11
59.4776245276
 21
93.6411446385
  0
LINE
  5
298
100
AcDbEntity
  8
0
100
AcDbLine
 62
7
  6
BYLAYER
 10
59.9117043846
 20
60.6799836746
 11
59.9117043846
 21
67.4255960065
  0
LINE
  5
299
100
AcDbEntity
  8
0
100
AcDbLine
 62
7
  6
BYLAYER
 10
41.1110831476
 20
86.5409918843
 11
41.8661140308
 21
85.578123172
  0
LINE
  5
29A
100
AcDbEntity
  8
0
100
AcDbLine
 62
7
  6
BYLAYER
 10
60.4924794057
 20
70.2272762696
 11
60.4924794057
 21
70.4203422458
  0
LINE
  5
29B
100
AcDbEntity
  8
0
100
AcDbLine
 62
7
  6
BYLAYER
 10
60.5481255114
 20
23.3121283956
 11
60.5481255114
 21
23.0953291546
  0
LINE
  5
29C
100
AcDbEntity
  8
0
100
AcDbLine
 62
7
  6
BYLAYER
 10
61.6424794057
 20
94.0493521972
 11
61.6424794057
 21
95.0291550978
  0
LINE
  5
29D
100
AcDbEntity
  8
0
100
AcDbLine
 62
7
  6
BYLAYER
 10
62.4816854965
 20
57.8388898179
 11
62.4816854965
 21
24.2116638688
  0
LINE
  5
29E
100
AcDbEntity
  8
0
100
AcDbLine
 62
7
  6
BYLAYER
 10
62.7159977164
 20
24.5382564725
 11
62.7159977164
 21
58.1654824215
  0
LINE
  5
29F
100
AcDbEntity
  8
0
100
AcDbLine
 62
7
  6
BYLAYER
 10
62.8815681742
 20
93.4369891098
 11
62.8815681742
 21
69.3093426836
  0
LINE
  5
2A0
100
AcDbEntity
  8
0
100
AcDbLine
 62
7
  6
BYLAYER
 10
63.0280133116
 20
93.6411094871
 11
63.0280133116
 21
69.5134630609
  0
LINE
  5
2A1
100
AcDbEntity
  8
0
100
AcDbLine
 62
7
  6
BYLAYER
 10
38.107517391
 20
83.6537659042
 11
41.6684501138
 21
81.5979069478
  0
LINE
  5
2A2
100
AcDbEntity
  8
0
100
AcDbLine
 62
7
  6
BYLAYER
 10
42.0220020324
 20
82.2102802333
 11
40.7844731444
 21
82.9247517064
  0
LINE
  5
2A3
100
AcDbEntity
  8
0
100
AcDbLine
 62
7
  6
BYLAYER
 10
39.7213094474
 20
83.538555667
 11
38.8391571073
 21
84.0478550362
  0
LINE
  5
2A4
100
AcDbEntity
  8
0
100
AcDbLine
 62
7
  6
BYLAYER
 10
21.1622680845
 20
95.4781448718
 11
38.107517391
 21
85.695021947
  0
LINE
  5
2A5
100
AcDbEntity
  8
0
100
AcDbLine
 62
7
  6
BYLAYER
 10
62.7066554405
 20
24.4163533929
 11
62.7159977164
 21
24.5382564725
  0
LINE
  5
2A6
100
AcDbEntity
  8
0
100
AcDbLine
 62
7
  6
BYLAYER
 10
62.0950379283
 20
21.6502108913
 11
62.473091428
 21
24.1031982189
  0
LINE
  5
2A7
100
AcDbEntity
  8
0
100
AcDbLine
 62
7
  6
BYLAYER
 10
60.1252317154
 20
20.5129495318
 11
60.5395314429
 21
22.9868635046
  0
LINE
  5
2A8
100
AcDbEntity
  8
0
100
AcDbLine
 62
7
  6
BYLAYER
 10
38.4610693096
 20
86.3073952325
 11
21.5158200031
 21
96.0905181573
  0
LINE
  5
2A9
100
AcDbEntity
  8
0
100
AcDbLine
 62
7
  6
BYLAYER
 10
58.3652543692
 20
95.6483553731
 11
58.3745029578
 21
95.6076096792
  0
LINE
  5
2AA
100
AcDbEntity
  8
0
100
AcDbLine
 62
7
  6
BYLAYER
 10
58.3653795862
 20
95.6483265914
 11
58.3745029578
 21
95.6076096792
  0
LINE
  5
2AB
100
AcDbEntity
  8
0
100
AcDbLine
 62
7
  6
BYLAYER
 10
62.7066625496
 20
24.4163995008
 11
62.3285467522
 21
21.9630094414
  0
LINE
  5
2AC
100
AcDbEntity
  8
0
100
AcDbLine
 62
7
  6
BYLAYER
 10
42.7635219744
 20
85.1726619864
 11
43.3571537799
 21
85.2442517362
  0
LINE
  5
2AD
100
AcDbEntity
  8
0
100
AcDbLine
 62
7
  6
BYLAYER
 10
43.8958124812
 20
86.3131424126
 11
43.5996061382
 21
86.4605891341
  0
LINE
  5
2AE
100
AcDbEntity
  8
0
100
AcDbLine
 62
7
  6
BYLAYER
 10
28.1626172695
 20
96.9886675334
 11
32.6881195104
 21
94.3759267045
  0
LINE
  5
2AF
100
AcDbEntity
  8
0
100
AcDbLine
 62
7
  6
BYLAYER
 10
58.2990766226
 20
95.6334701952
 11
58.2621469704
 21
95.7074958727
  0
LWPOLYLINE
  5
2B0
100
AcDbEntity
  8
0
100
AcDbPolyline
 62
7
  6
BYLAYER
 90
6
 70
0
 10
39.0459503022
 20
12.0048561446
 10
38.7276417418
 20
11.7251523742
 10
38.4951835948
 20
11.1275758488
 10
38.5028989966
 20
10.7741539323
 10
38.7725920444
 20
10.070435088
 10
39.2265420765
 20
9.5836009235
  0
LINE
  5
2B1
100
AcDbEntity
  8
0
100
AcDbLine
 62
7
  6
BYLAYER
 10
59.7340140676
 20
94.9705216793
 11
60.327645873
 21
95.0421114292
  0
LINE
  5
2B2
100
AcDbEntity
  8
0
100
AcDbLine
 62
7
  6
BYLAYER
 10
58.9422414178
 20
94.0701193578
 11
58.9353359783
 21
94.0701805468
  0
LINE
  5
2B3
100
AcDbEntity
  8
0
100
AcDbLine
 62
7
  6
BYLAYER
 10
54.2548216886
 20
89.436167335
 11
58.7803659183
 21
86.8233604483
  0
LINE
  5
2B4
100
AcDbEntity
  8
0
100
AcDbLine
 62
7
  6
BYLAYER
 10
40.8904552149
 20
99.1115191638
 11
40.4662358129
 21
99.3564368089
  0
LINE
  5
2B5
100
AcDbEntity
  8
0
100
AcDbLine
 62
7
  6
BYLAYER
 10
41.8920883683
 20
99.6898088826
 11
40.4662358129
 21
100.5130066161
  0
LINE
  5
2B6
100
AcDbEntity
  8
0
100
AcDbLine
 62
7
  6
BYLAYER
 10
58.0815752407
 20
96.3388515772
 11
58.8366061239
 21
95.3759828649
  0
LINE
  5
2B7
100
AcDbEntity
  8
0
100
AcDbLine
 62
7
  6
BYLAYER
 10
43.9443113808
 20
9.6535535655
 11
44.0005283254
 21
9.7056189519
  0
LINE
  5
2B8
100
AcDbEntity
  8
0
100
AcDbLine
 62
7
  6
BYLAYER
 10
36.8601039828
 20
12.6033816129
 11
37.5672198174
 21
13.0116326935
  0
LINE
  5
2B9
100
AcDbEntity
  8
0
100
AcDbLine
 62
7
  6
BYLAYER
 10
39.1785017315
 20
12.0813867466
 11
39.0453141616
 21
12.0044913263
  0
LINE
  5
2BA
100
AcDbEntity
  8
0
100
AcDbLine
 62
7
  6
BYLAYER
 10
39.7160117013
 20
12.2110242006
 11
39.3349880208
 21
11.9910413892
  0
LINE
  5
2BB
100
AcDbEntity
  8
0
100
AcDbLine
 62
7
  6
BYLAYER
 10
39.7125038548
 20
12.1970354066
 11
39.489950994
 21
12.0685452194
  0
LINE
  5
2BC
100
AcDbEntity
  8
0
100
AcDbLine
 62
7
  6
BYLAYER
 10
38.5826911703
 20
11.3525302057
 11
36.8601039828
 21
10.3579999658
  0
LINE
  5
2BD
100
AcDbEntity
  8
0
100
AcDbLine
 62
7
  6
BYLAYER
 10
60.5481255114
 20
23.3121283956
 11
44.7089995578
 21
14.1674593488
  0
LINE
  5
2BE
100
AcDbEntity
  8
0
100
AcDbLine
 62
7
  6
BYLAYER
 10
58.9422414178
 20
94.0701193578
 11
58.935357882
 21
94.0709544497
  0
LINE
  5
2BF
100
AcDbEntity
  8
0
100
AcDbLine
 62
7
  6
BYLAYER
 10
44.991726278
 20
101.4793749819
 11
40.466224037
 21
104.0921158108
  0
LINE
  5
2C0
100
AcDbEntity
  8
0
100
AcDbLine
 62
7
  6
BYLAYER
 10
59.5568127441
 20
18.6869903371
 11
59.5005957995
 21
18.6349249507
  0
LWPOLYLINE
  5
2C1
100
AcDbEntity
  8
0
100
AcDbPolyline
 62
7
  6
BYLAYER
 90
3
 70
0
 10
61.5423472242
 20
20.70462629
 10
61.972974927
 20
21.0845772531
 10
62.3285553484
 20
21.9631258563
  0
LINE
  5
2C2
100
AcDbEntity
  8
0
100
AcDbLine
 62
7
  6
BYLAYER
 10
62.4816854965
 20
24.2116638688
 11
60.5481255114
 21
23.0953291546
  0
LINE
  5
2C3
100
AcDbEntity
  8
0
100
AcDbLine
 62
7
  6
BYLAYER
 10
44.7089995578
 20
13.9506601079
 11
42.7754395726
 21
12.8343253935
  0
LINE
  5
2C4
100
AcDbEntity
  8
0
100
AcDbLine
 62
7
  6
BYLAYER
 10
60.3824359405
 20
22.9458996423
 11
44.7066397685
 21
13.895528526
  0
LINE
  5
2C5
100
AcDbEntity
  8
0
100
AcDbLine
 62
7
  6
BYLAYER
 10
42.7668455042
 20
12.7258597436
 11
44.7004054893
 21
13.8421944579
  0
LINE
  5
2C6
100
AcDbEntity
  8
0
100
AcDbLine
 62
7
  6
BYLAYER
 10
60.5395314429
 20
22.9868635046
 11
62.473091428
 21
24.1031982189
  0
LINE
  5
2C7
100
AcDbEntity
  8
0
100
AcDbLine
 62
7
  6
BYLAYER
 10
62.0950379283
 20
21.6502108913
 11
60.1252317154
 21
20.5129495318
  0
LINE
  5
2C8
100
AcDbEntity
  8
0
100
AcDbLine
 62
7
  6
BYLAYER
 10
44.2861057618
 20
11.3682804851
 11
42.3162995491
 21
10.2310191268
  0
LINE
  5
2C9
100
AcDbEntity
  8
0
100
AcDbLine
 62
7
  6
BYLAYER
 10
61.5437257562
 20
20.7054206315
 11
59.8389166521
 21
19.7211545115
  0
LINE
  5
2CA
100
AcDbEntity
  8
0
100
AcDbLine
 62
7
  6
BYLAYER
 10
43.6969976278
 20
10.4016688475
 11
41.6893954531
 21
9.2425861103
  0
LINE
  5
2CB
100
AcDbEntity
  8
0
100
AcDbLine
 62
7
  6
BYLAYER
 10
44.0005283254
 20
9.7056189519
 11
59.5568127441
 21
18.6869903371
  0
LINE
  5
2CC
100
AcDbEntity
  8
0
100
AcDbLine
 62
7
  6
BYLAYER
 10
59.5006241322
 20
18.6348760254
 11
43.9443397135
 21
9.6535046403
  0
LINE
  5
2CD
100
AcDbEntity
  8
0
100
AcDbLine
 62
7
  6
BYLAYER
 10
60.8663045743
 20
96.1110021056
 11
60.5700982313
 21
96.258448827
  0
LINE
  5
2CE
100
AcDbEntity
  8
0
100
AcDbLine
 62
7
  6
BYLAYER
 10
61.6424794057
 20
94.5606123685
 11
62.5280133116
 21
94.0493606956
  0
LINE
  5
2CF
100
AcDbEntity
  8
0
100
AcDbLine
 62
7
  6
BYLAYER
 10
61.6424794057
 20
94.7297081639
 11
62.7780090698
 21
94.0741246379
  0
LINE
  5
2D0
100
AcDbEntity
  8
0
100
AcDbLine
 62
7
  6
BYLAYER
 10
42.0218312823
 20
107.9295986195
 11
58.9670805888
 21
98.1464756948
  0
LINE
  5
2D1
100
AcDbEntity
  8
0
100
AcDbLine
 62
7
  6
BYLAYER
 10
42.2718270406
 20
107.9543625618
 11
59.217076347
 21
98.171239637
  0
ARC
  5
2D2
100
AcDbEntity
  8
0
100
AcDbCircle
 62
7
  6
BYLAYER
 10
101.9955460106
 20
99.5602330918
 40
62.1322129747
100
AcDbArc
 50
192.4678674433
 51
192.7474636663
  0
ARC
  5
2D3
100
AcDbEntity
  8
0
100
AcDbCircle
 62
7
  6
BYLAYER
 10
118.9660380992
 20
109.3580927837
 40
62.1322129701
100
AcDbArc
 50
192.4678674433
 51
192.7474636663
  0
ARC
  5
2D4
100
AcDbEntity
  8
0
100
AcDbCircle
 62
7
  6
BYLAYER
 10
2.5200757051
 20
108.5747882513
 40
58.5445134388
100
AcDbArc
 50
347.2444163476
 51
347.5409046465
  0
ARC
  5
2D5
100
AcDbEntity
  8
0
100
AcDbCircle
 62
7
  6
BYLAYER
 10
-14.4504163861
 20
98.7769285579
 40
58.5445134369
100
AcDbArc
 50
347.2444163476
 51
347.5409046465
  0
ARC
  5
2D6
100
AcDbEntity
  8
0
100
AcDbCircle
 62
7
  6
BYLAYER
 10
47.8779603337
 20
98.9646735671
 40
12.266564273
100
AcDbArc
 50
341.9069855192
 51
342.3476396404
  0
ARC
  5
2D7
100
AcDbEntity
  8
0
100
AcDbCircle
 62
7
  6
BYLAYER
 10
30.9074682408
 20
89.1668138742
 40
12.2665642728
100
AcDbArc
 50
341.9069855192
 51
342.3476396404
  0
ARC
  5
2D8
100
AcDbEntity
  8
0
100
AcDbCircle
 62
7
  6
BYLAYER
 10
38.7621456229
 20
56.2086651004
 40
7.1110265166
100
AcDbArc
 50
328.9569416852
 51
331.043796918
  0
ARC
  5
2D9
100
AcDbEntity
  8
0
100
AcDbCircle
 62
7
  6
BYLAYER
 10
62.618257014
 20
90.4915809397
 40
6.7333742653
100
AcDbArc
 50
143.3324424303
 51
145.1287184796
  0
ARC
  5
2DA
100
AcDbEntity
  8
0
100
AcDbCircle
 62
7
  6
BYLAYER
 10
49.5679516718
 20
58.5724293288
 40
4.49489028
100
AcDbArc
 50
354.2661166152
 51
5.7338833848
  0
ARC
  5
2DB
100
AcDbEntity
  8
0
100
AcDbCircle
 62
7
  6
BYLAYER
 10
58.9924794057
 20
92.5704621942
 40
4.01125
100
AcDbArc
 50
66.8400985807
 51
113.1599014193
  0
ARC
  5
2DC
100
AcDbEntity
  8
0
100
AcDbCircle
 62
7
  6
BYLAYER
 10
42.0219873126
 20
82.7726025013
 40
4.01125
100
AcDbArc
 50
66.8400985807
 51
113.1599014193
  0
ARC
  5
2DD
100
AcDbEntity
  8
0
100
AcDbCircle
 62
7
  6
BYLAYER
 10
54.5077135011
 20
62.2565072901
 40
3.7359254609
100
AcDbArc
 50
298.337952161
 51
300.0090136997
  0
ARC
  5
2DE
100
AcDbEntity
  8
0
100
AcDbCircle
 62
7
  6
BYLAYER
 10
58.2682774795
 20
97.6999950351
 40
3.506526216
100
AcDbArc
 50
240.0490736968
 51
243.4447335172
  0
ARC
  5
2DF
100
AcDbEntity
  8
0
100
AcDbCircle
 62
7
  6
BYLAYER
 10
59.6560046885
 20
94.0139209712
 40
2.4212755105
100
AcDbArc
 50
58.4012877868
 51
60.0092315891
  0
ARC
  5
2E0
100
AcDbEntity
  8
0
100
AcDbCircle
 62
7
  6
BYLAYER
 10
42.6855125955
 20
84.2160612786
 40
2.4212755101
100
AcDbArc
 50
58.4012877866
 51
60.0092315892
  0
ARC
  5
2E1
100
AcDbEntity
  8
0
100
AcDbCircle
 62
7
  6
BYLAYER
 10
53.3619717956
 20
58.5821466937
 40
1.9835406257
100
AcDbArc
 50
112.4005361927
 51
113.6436397163
  0
ARC
  5
2E2
100
AcDbEntity
  8
0
100
AcDbCircle
 62
7
  6
BYLAYER
 10
53.3385222002
 20
58.6391778221
 40
1.9218767773
100
AcDbArc
 50
111.4030174624
 51
112.4021228183
  0
ARC
  5
2E3
100
AcDbEntity
  8
0
100
AcDbCircle
 62
7
  6
BYLAYER
 10
42.7870690363
 20
84.7210141833
 40
1.8998955126
100
AcDbArc
 50
53.3738685464
 51
55.1552170744
  0
ARC
  5
2E4
100
AcDbEntity
  8
0
100
AcDbCircle
 62
7
  6
BYLAYER
 10
59.7575611295
 20
94.5188738763
 40
1.8998955125
100
AcDbArc
 50
53.3738685463
 51
55.1552170744
  0
ARC
  5
2E5
100
AcDbEntity
  8
0
100
AcDbCircle
 62
7
  6
BYLAYER
 10
53.29513306
 20
58.7530328149
 40
1.800040163
100
AcDbArc
 50
108.1427771081
 51
111.4396779493
  0
ARC
  5
2E6
100
AcDbEntity
  8
0
100
AcDbCircle
 62
7
  6
BYLAYER
 10
60.5069588842
 20
94.6730164142
 40
1.4234029408
100
AcDbArc
 50
74.3464374349
 51
75.6918897453
  0
ARC
  5
2E7
100
AcDbEntity
  8
0
100
AcDbCircle
 62
7
  6
BYLAYER
 10
43.5364667911
 20
84.8751567214
 40
1.4234029407
100
AcDbArc
 50
74.3464374349
 51
75.6918897453
  0
ARC
  5
2E8
100
AcDbEntity
  8
0
100
AcDbCircle
 62
7
  6
BYLAYER
 10
40.6923790498
 20
47.664210661
 40
1.3760460633
100
AcDbArc
 50
143.2902737457
 51
156.9649016946
  0
ARC
  5
2E9
100
AcDbEntity
  8
0
100
AcDbCircle
 62
7
  6
BYLAYER
 10
57.2232364488
 20
95.0291458906
 40
0.8807570431
100
AcDbArc
 50
179.5438635189
 51
179.9994010457
  0
ARC
  5
2EA
100
AcDbEntity
  8
0
100
AcDbCircle
 62
7
  6
BYLAYER
 10
42.0222291196
 20
60.7368334623
 40
0.8607733766
100
AcDbArc
 50
269.9850229821
 51
275.1816767398
  0
ARC
  5
2EB
100
AcDbEntity
  8
0
100
AcDbCircle
 62
7
  6
BYLAYER
 10
42.021774771
 20
60.7368303907
 40
0.8607703061
100
AcDbArc
 50
264.8185911829
 51
270.0152659047
  0
ARC
  5
2EC
100
AcDbEntity
  8
0
100
AcDbCircle
 62
7
  6
BYLAYER
 10
55.4813527977
 20
64.3301398686
 40
0.8
100
AcDbArc
 50
359.9372822758
 51
51.3837897605
  0
ARC
  5
2ED
100
AcDbEntity
  8
0
100
AcDbCircle
 62
7
  6
BYLAYER
 10
61.9159977164
 20
58.1654824215
 40
0.8
100
AcDbArc
 50
359.9372822758
 51
51.3837897605
  0
ARC
  5
2EE
100
AcDbEntity
  8
0
100
AcDbCircle
 62
7
  6
BYLAYER
 10
62.5280133116
 20
93.6411094871
 40
0.5
100
AcDbArc
 50
0.0
 51
60.0005612632
  0
ARC
  5
2EF
100
AcDbEntity
  8
0
100
AcDbCircle
 62
7
  6
BYLAYER
 10
21.5158200031
 20
95.6822669487
 40
0.5
100
AcDbArc
 50
119.9998519061
 51
180.0
  0
ARC
  5
2F0
100
AcDbEntity
  8
0
100
AcDbCircle
 62
7
  6
BYLAYER
 10
42.0218312823
 20
107.521347411
 40
0.5
100
AcDbArc
 50
60.0005612632
 51
119.9998519061
  0
ARC
  5
2F1
100
AcDbEntity
  8
0
100
AcDbCircle
 62
7
  6
BYLAYER
 10
42.0220020324
 20
57.6743825986
 40
0.5
100
AcDbArc
 50
240.0005612632
 51
299.9998519061
  0
ARC
  5
2F2
100
AcDbEntity
  8
0
100
AcDbCircle
 62
7
  6
BYLAYER
 10
62.5280133116
 20
69.5134630609
 40
0.5
100
AcDbArc
 50
299.9998519061
 51
360.0
  0
ARC
  5
2F3
100
AcDbEntity
  8
0
100
AcDbCircle
 62
7
  6
BYLAYER
 10
60.2415469413
 20
60.1555982278
 40
0.2896625947
100
AcDbArc
 50
75.2833950954
 51
78.6548292465
  0
SPLINE
  5
2F4
100
AcDbEntity
  8
0
100
AcDbSpline
 62
7
  6
BYLAYER
 70
0
 71
3
 72
9
 73
5
 74
0
 42
0.0000001
 43
0.0000001
 44
0.0000000001
 40
0.0
 40
0.0
 40
0.0
 40
0.0
 40
0.2557236216
 40
1.0
 40
1.0
 40
1.0
 40
1.0
 10
51.6386189188
 20
57.6348724114
 30
0.0
 10
51.7194512851
 20
57.6648492005
 30
0.0
 10
52.034007181
 20
57.7861496374
 30
0.0
 10
52.3422281647
 20
57.924077188
 30
0.0
 10
52.5664092113
 20
58.036781425
 30
0.0
  0
SPLINE
  5
2F5
100
AcDbEntity
  8
0
100
AcDbSpline
 62
7
  6
BYLAYER
 70
0
 71
3
 72
10
 73
6
 74
0
 42
0.0000001
 43
0.0000001
 44
0.0000000001
 40
0.0
 40
0.0
 40
0.0
 40
0.0
 40
0.4817262831
 40
0.7362788966
 40
1.0
 40
1.0
 40
1.0
 40
1.0
 10
52.2861211087
 20
55.6746616233
 30
0.0
 10
52.3653116981
 20
55.9011881612
 30
0.0
 10
52.4581612203
 20
56.2578091809
 30
0.0
 10
52.5348044617
 20
56.7501793312
 30
0.0
 10
52.5582846872
 20
57.0075088361
 30
0.0
 10
52.5664092113
 20
57.1386287661
 30
0.0
  0
SPLINE
  5
2F6
100
AcDbEntity
  8
0
100
AcDbSpline
 62
7
  6
BYLAYER
 70
0
 71
3
 72
9
 73
5
 74
0
 42
0.0000001
 43
0.0000001
 44
0.0000000001
 40
0.0
 40
0.0
 40
0.0
 40
0.0
 40
0.487644849
 40
1.0
 40
1.0
 40
1.0
 40
1.0
 10
52.5664092113
 20
58.036781425
 30
0.0
 10
52.5494115331
 20
58.3307300442
 30
0.0
 10
52.4826488536
 20
58.9319413583
 30
0.0
 10
52.3608844812
 20
59.5242003357
 30
0.0
 10
52.2861211087
 20
59.824390069
 30
0.0
  0
SPLINE
  5
2F7
100
AcDbEntity
  8
0
100
AcDbSpline
 62
7
  6
BYLAYER
 70
0
 71
3
 72
9
 73
5
 74
0
 42
0.0000001
 43
0.0000001
 44
0.0000000001
 40
0.0
 40
0.0
 40
0.0
 40
0.0
 40
0.2576891463
 40
1.0
 40
1.0
 40
1.0
 40
1.0
 10
53.3442234322
 20
58.4858499942
 30
0.0
 10
53.4071366163
 20
58.5275632362
 30
0.0
 10
53.6485522186
 20
58.6934823452
 30
0.0
 10
53.87863088
 20
58.8761464607
 30
0.0
 10
54.0403524901
 20
59.0215056583
 30
0.0
  0
SPLINE
  5
2F8
100
AcDbEntity
  8
0
100
AcDbSpline
 62
7
  6
BYLAYER
 70
0
 71
3
 72
26
 73
22
 74
0
 42
0.0000001
 43
0.0000001
 44
0.0000000001
 40
0.0
 40
0.0
 40
0.0
 40
0.0
 40
0.0678264802
 40
0.138355878
 40
0.2108206852
 40
0.2843993125
 40
0.3582171078
 40
0.4313957477
 40
0.5030784239
 40
0.5724648118
 40
0.638845444
 40
0.7016409066
 40
0.7604470631
 40
0.8150884285
 40
0.8656800925
 40
0.8896143123
 40
0.9127450608
 40
0.9351943246
 40
0.9571065849
 40
0.9786481507
 40
1.0
 40
1.0
 40
1.0
 40
1.0
 10
53.0639353296
 20
56.1237301926
 30
0.0
 10
53.1460316854
 20
56.1916459612
 30
0.0
 10
53.3067834152
 20
56.3384580526
 30
0.0
 10
53.5311570641
 20
56.5825397173
 30
0.0
 10
53.7403849936
 20
56.8512743486
 30
0.0
 10
53.9307487143
 20
57.1398644511
 30
0.0
 10
54.0988844509
 20
57.4432274392
 30
0.0
 10
54.24181794
 20
57.7559848272
 30
0.0
 10
54.3570193926
 20
58.0726105008
 30
0.0
 10
54.4424532607
 20
58.3875176873
 30
0.0
 10
54.4966040576
 20
58.6951769826
 30
0.0
 10
54.5184965858
 20
58.9902140585
 30
0.0
 10
54.5076671655
 20
59.2675449907
 30
0.0
 10
54.4641847055
 20
59.5223480763
 30
0.0
 10
54.3998624456
 20
59.7158750128
 30
0.0
 10
54.3321883169
 20
59.8537689171
 30
0.0
 10
54.2748495045
 20
59.9469148172
 30
0.0
 10
54.2102713221
 20
60.0312432824
 30
0.0
 10
54.1387031214
 20
60.1063415564
 30
0.0
 10
54.0604974959
 20
60.1718416612
 30
0.0
 10
54.0040539874
 20
60.2089687073
 30
0.0
 10
53.9750055374
 20
60.2257378332
 30
0.0
  0
SPLINE
  5
2F9
100
AcDbEntity
  8
0
100
AcDbSpline
 62
7
  6
BYLAYER
 70
0
 71
3
 72
14
 73
10
 74
0
 42
0.0000001
 43
0.0000001
 44
0.0000000001
 40
0.0
 40
0.0
 40
0.0
 40
0.0
 40
0.1144100091
 40
0.2299782589
 40
0.3478048225
 40
0.4688730315
 40
0.723717533
 40
0.8590601573
 40
1.0
 40
1.0
 40
1.0
 40
1.0
 10
51.3750509009
 20
55.7223824284
 30
0.0
 10
51.4060809827
 20
55.7044693436
 30
0.0
 10
51.4707662246
 20
55.6723077835
 30
0.0
 10
51.5737544986
 20
55.6360797084
 30
0.0
 10
51.6823732497
 20
55.611937736
 30
0.0
 10
51.8364135559
 20
55.5956906277
 30
0.0
 10
51.9975253232
 20
55.6050916702
 30
0.0
 10
52.1608530494
 20
55.6371410656
 30
0.0
 10
52.24417471
 20
55.6609273378
 30
0.0
 10
52.2861211087
 20
55.6746616233
 30
0.0
  0
SPLINE
  5
2FA
100
AcDbEntity
  8
0
100
AcDbSpline
 62
7
  6
BYLAYER
 70
0
 71
3
 72
9
 73
5
 74
0
 42
0.0000001
 43
0.0000001
 44
0.0000000001
 40
0.0
 40
0.0
 40
0.0
 40
0.0
 40
0.242659087
 40
1.0
 40
1.0
 40
1.0
 40
1.0
 10
52.4051051283
 20
56.0766713144
 30
0.0
 10
52.4330957067
 20
56.093876275
 30
0.0
 10
52.5470815872
 20
56.1669857393
 30
0.0
 10
52.6556154872
 20
56.2484901193
 30
0.0
 10
52.734625755
 20
56.313852863
 30
0.0
  0
SPLINE
  5
2FB
100
AcDbEntity
  8
0
100
AcDbSpline
 62
7
  6
BYLAYER
 70
0
 71
3
 72
26
 73
22
 74
0
 42
0.0000001
 43
0.0000001
 44
0.0000000001
 40
0.0
 40
0.0
 40
0.0
 40
0.0
 40
0.0678264802
 40
0.138355878
 40
0.2108206852
 40
0.2843993125
 40
0.3582171078
 40
0.4313957477
 40
0.5030784239
 40
0.5724648118
 40
0.638845444
 40
0.7016409066
 40
0.7604470631
 40
0.8150884285
 40
0.8656800925
 40
0.8896143123
 40
0.9127450608
 40
0.9351943246
 40
0.9571065849
 40
0.9786481507
 40
1.0
 40
1.0
 40
1.0
 40
1.0
 10
52.2861211087
 20
59.824390069
 30
0.0
 10
52.2040247529
 20
59.7564743004
 30
0.0
 10
52.0432730231
 20
59.609662209
 30
0.0
 10
51.8188993742
 20
59.3655805444
 30
0.0
 10
51.6096714447
 20
59.0968459131
 30
0.0
 10
51.419307724
 20
58.8082558105
 30
0.0
 10
51.2511719874
 20
58.5048928224
 30
0.0
 10
51.1082384983
 20
58.1921354344
 30
0.0
 10
50.9930370457
 20
57.8755097608
 30
0.0
 10
50.9076031776
 20
57.5606025743
 30
0.0
 10
50.8534523807
 20
57.252943279
 30
0.0
 10
50.8315598525
 20
56.9579062031
 30
0.0
 10
50.8423892728
 20
56.6805752709
 30
0.0
 10
50.8858717328
 20
56.4257721853
 30
0.0
 10
50.9501939927
 20
56.2322452488
 30
0.0
 10
51.0178681215
 20
56.0943513445
 30
0.0
 10
51.0752069338
 20
56.0012054444
 30
0.0
 10
51.1397851162
 20
55.9168769793
 30
0.0
 10
51.2113533169
 20
55.8417787052
 30
0.0
 10
51.2895589424
 20
55.7762786004
 30
0.0
 10
51.3460024509
 20
55.7391515543
 30
0.0
 10
51.3750509009
 20
55.7223824284
 30
0.0
  0
SPLINE
  5
2FC
100
AcDbEntity
  8
0
100
AcDbSpline
 62
7
  6
BYLAYER
 70
0
 71
3
 72
9
 73
5
 74
0
 42
0.0000001
 43
0.0000001
 44
0.0000000001
 40
0.0
 40
0.0
 40
0.0
 40
0.0
 40
0.2442296197
 40
1.0
 40
1.0
 40
1.0
 40
1.0
 10
52.5664092113
 20
57.1386287661
 30
0.0
 10
52.4928449413
 20
57.101645243
 30
0.0
 10
52.1894044251
 20
56.9546753894
 30
0.0
 10
51.8775145753
 20
56.8253145203
 30
0.0
 10
51.6386189188
 20
56.7367197525
 30
0.0
  0
SPLINE
  5
2FD
100
AcDbEntity
  8
0
100
AcDbSpline
 62
7
  6
BYLAYER
 70
0
 71
3
 72
9
 73
5
 74
0
 42
0.0000001
 43
0.0000001
 44
0.0000000001
 40
0.0
 40
0.0
 40
0.0
 40
0.0
 40
0.2424873564
 40
1.0
 40
1.0
 40
1.0
 40
1.0
 10
54.0403524901
 20
58.1233529994
 30
0.0
 10
53.9875225626
 20
58.0758682145
 30
0.0
 10
53.7657378076
 20
57.8844215686
 30
0.0
 10
53.529169071
 20
57.7103215882
 30
0.0
 10
53.3442234322
 20
57.5876973354
 30
0.0
  0
SPLINE
  5
2FE
100
AcDbEntity
  8
0
100
AcDbSpline
 62
7
  6
BYLAYER
 70
0
 71
3
 72
14
 73
10
 74
0
 42
0.0000001
 43
0.0000001
 44
0.0000000001
 40
0.0
 40
0.0
 40
0.0
 40
0.0
 40
0.1144100091
 40
0.2299782589
 40
0.3478048225
 40
0.4688730315
 40
0.723717533
 40
0.8590601573
 40
1.0
 40
1.0
 40
1.0
 40
1.0
 10
53.9750055374
 20
60.2257378332
 30
0.0
 10
53.9439754556
 20
60.243650918
 30
0.0
 10
53.8792902137
 20
60.2758124782
 30
0.0
 10
53.7763019397
 20
60.3120405532
 30
0.0
 10
53.6676831886
 20
60.3361825256
 30
0.0
 10
53.5136428824
 20
60.352429634
 30
0.0
 10
53.3525311151
 20
60.3430285914
 30
0.0
 10
53.189203389
 20
60.310979196
 30
0.0
 10
53.1058817283
 20
60.2871929238
 30
0.0
 10
53.0639353296
 20
60.2734586383
 30
0.0
  0
SPLINE
  5
2FF
100
AcDbEntity
  8
0
100
AcDbSpline
 62
7
  6
BYLAYER
 70
0
 71
3
 72
9
 73
5
 74
0
 42
0.0000001
 43
0.0000001
 44
0.0000000001
 40
0.0
 40
0.0
 40
0.0
 40
0.0
 40
0.5123557561
 40
1.0
 40
1.0
 40
1.0
 40
1.0
 10
53.0639353296
 20
60.2734586383
 30
0.0
 10
53.1386987904
 20
59.9732685504
 30
0.0
 10
53.2604631302
 20
59.3810095633
 30
0.0
 10
53.3272257751
 20
58.7797982487
 30
0.0
 10
53.3442234322
 20
58.4858499942
 30
0.0
  0
SPLINE
  5
300
100
AcDbEntity
  8
0
100
AcDbSpline
 62
7
  6
BYLAYER
 70
0
 71
3
 72
10
 73
6
 74
0
 42
0.0000001
 43
0.0000001
 44
0.0000000001
 40
0.0
 40
0.0
 40
0.0
 40
0.0
 40
0.263721569
 40
0.5182743225
 40
1.0
 40
1.0
 40
1.0
 40
1.0
 10
53.3442234322
 20
57.5876973354
 30
0.0
 10
53.3360988937
 20
57.4565771737
 30
0.0
 10
53.3126186271
 20
57.1992473684
 30
0.0
 10
53.2359753235
 20
56.706877226
 30
0.0
 10
53.1431258196
 20
56.350256446
 30
0.0
 10
53.0639353296
 20
56.1237301926
 30
0.0
  0
SPLINE
  5
301
100
AcDbEntity
  8
0
100
AcDbSpline
 62
7
  6
BYLAYER
 70
0
 71
3
 72
9
 73
5
 74
0
 42
0.0000001
 43
0.0000001
 44
0.0000000001
 40
0.0
 40
0.0
 40
0.0
 40
0.0
 40
0.2494002061
 40
1.0
 40
1.0
 40
1.0
 40
1.0
 10
58.3745029578
 20
95.6076096792
 30
0.0
 10
58.3826070982
 20
95.5719787548
 30
0.0
 10
58.4152752329
 20
95.4291522071
 30
0.0
 10
58.4487369904
 20
95.2865042294
 30
0.0
 10
58.4746843663
 20
95.179634756
 30
0.0
  0
SPLINE
  5
302
100
AcDbEntity
  8
0
100
AcDbSpline
 62
7
  6
BYLAYER
 70
0
 71
3
 72
9
 73
5
 74
0
 42
0.0000001
 43
0.0000001
 44
0.0000000001
 40
0.0
 40
0.0
 40
0.0
 40
0.0
 40
0.2377467811
 40
1.0
 40
1.0
 40
1.0
 40
1.0
 10
57.6573129384
 20
96.0939050848
 30
0.0
 10
57.7094805181
 20
96.0898465092
 30
0.0
 10
57.9281924778
 20
96.0637637396
 30
0.0
 10
58.1421459738
 20
96.003552978
 30
0.0
 10
58.2990743816
 20
95.9442416647
 30
0.0
  0
SPLINE
  5
303
100
AcDbEntity
  8
0
100
AcDbSpline
 62
7
  6
BYLAYER
 70
0
 71
3
 72
9
 73
5
 74
0
 42
0.0000001
 43
0.0000001
 44
0.0000000001
 40
0.0
 40
0.0
 40
0.0
 40
0.0
 40
0.2505563252
 40
1.0
 40
1.0
 40
1.0
 40
1.0
 10
59.528954342
 20
95.2572411889
 30
0.0
 10
59.5367544486
 20
95.2898761548
 30
0.0
 10
59.5676166105
 20
95.4201904901
 30
0.0
 10
59.5975883484
 20
95.5507143134
 30
0.0
 10
59.6197578694
 20
95.6485996973
 30
0.0
  0
SPLINE
  5
304
100
AcDbEntity
  8
0
100
AcDbSpline
 62
7
  6
BYLAYER
 70
0
 71
3
 72
14
 73
10
 74
0
 42
0.0000001
 43
0.0000001
 44
0.0000000001
 40
0.0
 40
0.0
 40
0.0
 40
0.0
 40
0.2965637538
 40
0.4321393822
 40
0.5590226024
 40
0.6777800715
 40
0.7895713255
 40
0.8961911625
 40
1.0
 40
1.0
 40
1.0
 40
1.0
 10
57.4148639953
 20
96.2584461661
 30
0.0
 10
57.2588703172
 20
96.1917080238
 30
0.0
 10
57.0383141494
 20
96.0753217176
 30
0.0
 10
56.7837380478
 20
95.8807224316
 30
0.0
 10
56.6277858891
 20
95.7273054734
 30
0.0
 10
56.5033290322
 20
95.5640663855
 30
0.0
 10
56.412272235
 20
95.3929068216
 30
0.0
 10
56.3562575135
 20
95.2161641179
 30
0.0
 10
56.3429801108
 20
95.0955469093
 30
0.0
 10
56.3425073162
 20
95.0361575968
 30
0.0
  0
SPLINE
  5
305
100
AcDbEntity
  8
0
100
AcDbSpline
 62
7
  6
BYLAYER
 70
0
 71
3
 72
11
 73
7
 74
0
 42
0.0000001
 43
0.0000001
 44
0.0000000001
 40
0.0
 40
0.0
 40
0.0
 40
0.0
 40
0.2290150475
 40
0.4700745561
 40
0.7264406442
 40
1.0
 40
1.0
 40
1.0
 40
1.0
 10
60.8587332426
 20
96.052266476
 30
0.0
 10
60.7703290004
 20
96.0748163632
 30
0.0
 10
60.5840925024
 20
96.103766467
 30
0.0
 10
60.2935372334
 20
96.0985870937
 30
0.0
 10
59.9898347739
 20
96.0462554492
 30
0.0
 10
59.7878242302
 20
95.9827749476
 30
0.0
 10
59.6858821887
 20
95.9442449981
 30
0.0
  0
SPLINE
  5
306
100
AcDbEntity
  8
0
100
AcDbSpline
 62
7
  6
BYLAYER
 70
0
 71
3
 72
9
 73
5
 74
0
 42
0.0000001
 43
0.0000001
 44
0.0000000001
 40
0.0
 40
0.0
 40
0.0
 40
0.0
 40
0.4863440087
 40
1.0
 40
1.0
 40
1.0
 40
1.0
 10
58.7233424577
 20
95.3885257425
 30
0.0
 10
58.5333487401
 20
95.2409511093
 30
0.0
 10
58.1652174401
 20
94.9079153842
 30
0.0
 10
57.842320943
 20
94.5314653568
 30
0.0
 10
57.6882038596
 20
94.3294586966
 30
0.0
  0
SPLINE
  5
307
100
AcDbEntity
  8
0
100
AcDbSpline
 62
7
  6
BYLAYER
 70
0
 71
3
 72
9
 73
5
 74
0
 42
0.0000001
 43
0.0000001
 44
0.0000000001
 40
0.0
 40
0.0
 40
0.0
 40
0.0
 40
0.500036384
 40
1.0
 40
1.0
 40
1.0
 40
1.0
 10
59.2616221275
 20
95.3885270364
 30
0.0
 10
59.1735634581
 20
95.3687936172
 30
0.0
 10
58.9924755153
 20
95.3500613246
 30
0.0
 10
58.8113884162
 20
95.3687956588
 30
0.0
 10
58.7233424577
 20
95.3885257425
 30
0.0
  0
SPLINE
  5
308
100
AcDbEntity
  8
0
100
AcDbSpline
 62
7
  6
BYLAYER
 70
0
 71
3
 72
9
 73
5
 74
0
 42
0.0000001
 43
0.0000001
 44
0.0000000001
 40
0.0
 40
0.0
 40
0.0
 40
0.0
 40
0.2425594715
 40
1.0
 40
1.0
 40
1.0
 40
1.0
 10
59.2616221275
 20
95.3885270364
 30
0.0
 10
59.3173810867
 20
95.3452177701
 30
0.0
 10
59.5432692219
 20
95.1615578838
 30
0.0
 10
59.7533600442
 20
94.9587216129
 30
0.0
 10
59.9033835707
 20
94.7971649368
 30
0.0
  0
SPLINE
  5
309
100
AcDbEntity
  8
0
100
AcDbSpline
 62
7
  6
BYLAYER
 70
0
 71
3
 72
9
 73
5
 74
0
 42
0.0000001
 43
0.0000001
 44
0.0000000001
 40
0.0
 40
0.0
 40
0.0
 40
0.0
 40
0.2508062413
 40
1.0
 40
1.0
 40
1.0
 40
1.0
 10
59.6858844298
 20
95.6334735287
 30
0.0
 10
59.6762103544
 20
95.6009105088
 30
0.0
 10
59.6374347271
 20
95.4711384203
 30
0.0
 10
59.5977229737
 20
95.3416406777
 30
0.0
 10
59.5669404972
 20
95.244950217
 30
0.0
  0
SPLINE
  5
30A
100
AcDbEntity
  8
0
100
AcDbSpline
 62
7
  6
BYLAYER
 70
0
 71
3
 72
9
 73
5
 74
0
 42
0.0000001
 43
0.0000001
 44
0.0000000001
 40
0.0
 40
0.0
 40
0.0
 40
0.0
 40
0.4984173373
 40
1.0
 40
1.0
 40
1.0
 40
1.0
 10
58.447190167
 20
95.1544946494
 30
0.0
 10
58.4212946169
 20
95.2336633252
 30
0.0
 10
58.3711468328
 20
95.3930942673
 30
0.0
 10
58.3229486938
 20
95.553116047
 30
0.0
 10
58.2990766226
 20
95.6334701952
 30
0.0
  0
SPLINE
  5
30B
100
AcDbEntity
  8
0
100
AcDbSpline
 62
7
  6
BYLAYER
 70
0
 71
3
 72
14
 73
10
 74
0
 42
0.0000001
 43
0.0000001
 44
0.0000000001
 40
0.0
 40
0.0
 40
0.0
 40
0.0
 40
0.1089759543
 40
0.219848255
 40
0.3343596802
 40
0.4539536106
 40
0.5797322476
 40
0.7124854736
 40
1.0
 40
1.0
 40
1.0
 40
1.0
 10
61.6424780041
 20
95.0291550979
 30
0.0
 10
61.6424818678
 20
95.0772911244
 30
0.0
 10
61.6344547295
 20
95.1745794544
 30
0.0
 10
61.5987015849
 20
95.3184779661
 30
0.0
 10
61.5395663929
 20
95.4595273002
 30
0.0
 10
61.4578300533
 20
95.5964228938
 30
0.0
 10
61.3542748369
 20
95.7280132228
 30
0.0
 10
61.1840056152
 20
95.8994078548
 30
0.0
 10
61.032838871
 20
96.0096663612
 30
0.0
 10
60.9246725784
 20
96.0762150537
 30
0.0
  0
SPLINE
  5
30C
100
AcDbEntity
  8
0
100
AcDbSpline
 62
7
  6
BYLAYER
 70
0
 71
3
 72
17
 73
13
 74
0
 42
0.0000001
 43
0.0000001
 44
0.0000000001
 40
0.0
 40
0.0
 40
0.0
 40
0.0
 40
0.0465752262
 40
0.0938347282
 40
0.1424144797
 40
0.1928618712
 40
0.300828119
 40
0.4200447339
 40
0.550921868
 40
0.6925564239
 40
0.8430895956
 40
1.0
 40
1.0
 40
1.0
 40
1.0
 10
61.6424766271
 20
94.0493521991
 30
0.0
 10
61.642475614
 20
94.0051999995
 30
0.0
 10
61.6357363067
 20
93.9161089429
 30
0.0
 10
61.6057046746
 20
93.7840228507
 30
0.0
 10
61.5559413502
 20
93.6541000787
 30
0.0
 10
61.461936318
 20
93.4812984681
 30
0.0
 10
61.2939154043
 20
93.2755686794
 30
0.0
 10
61.0300402431
 20
93.0593564807
 30
0.0
 10
60.707230745
 20
92.8729942093
 30
0.0
 10
60.3347602694
 20
92.7214545484
 30
0.0
 10
59.9233097663
 20
92.6088384562
 30
0.0
 10
59.6349382119
 20
92.5624976274
 30
0.0
 10
59.4870773594
 20
92.5462825202
 30
0.0
  0
SPLINE
  5
30D
100
AcDbEntity
  8
0
100
AcDbSpline
 62
7
  6
BYLAYER
 70
0
 71
3
 72
9
 73
5
 74
0
 42
0.0000001
 43
0.0000001
 44
0.0000000001
 40
0.0
 40
0.0
 40
0.0
 40
0.0
 40
0.4990225806
 40
1.0
 40
1.0
 40
1.0
 40
1.0
 10
59.2616163537
 20
96.1891894508
 30
0.0
 10
59.2362986336
 20
96.0747349921
 30
0.0
 10
59.185038435
 20
95.8454938769
 30
0.0
 10
59.1320448535
 20
95.6166422097
 30
0.0
 10
59.1046885069
 20
95.5021856416
 30
0.0
  0
SPLINE
  5
30E
100
AcDbEntity
  8
0
100
AcDbSpline
 62
7
  6
BYLAYER
 70
0
 71
3
 72
9
 73
5
 74
0
 42
0.0000001
 43
0.0000001
 44
0.0000000001
 40
0.0
 40
0.0
 40
0.0
 40
0.0
 40
0.2581154612
 40
1.0
 40
1.0
 40
1.0
 40
1.0
 10
59.1046885069
 20
95.5021856416
 30
0.0
 10
59.1211160012
 20
95.5002019125
 30
0.0
 10
59.1845203047
 20
95.4907560172
 30
0.0
 10
59.2470054903
 20
95.4743740421
 30
0.0
 10
59.2915221209
 20
95.4576356075
 30
0.0
  0
SPLINE
  5
30F
100
AcDbEntity
  8
0
100
AcDbSpline
 62
7
  6
BYLAYER
 70
0
 71
3
 72
11
 73
7
 74
0
 42
0.0000001
 43
0.0000001
 44
0.0000000001
 40
0.0
 40
0.0
 40
0.0
 40
0.0
 40
0.2899049337
 40
0.552995559
 40
0.7886009954
 40
1.0
 40
1.0
 40
1.0
 40
1.0
 10
59.2915221209
 20
95.4576356075
 30
0.0
 10
59.3204173678
 20
95.4467708768
 30
0.0
 10
59.3742621032
 20
95.4223013573
 30
0.0
 10
59.4443069166
 20
95.3751355194
 30
0.0
 10
59.4975422334
 20
95.3205756578
 30
0.0
 10
59.5212865442
 20
95.2784056823
 30
0.0
 10
59.528954342
 20
95.2572411889
 30
0.0
  0
SPLINE
  5
310
100
AcDbEntity
  8
0
100
AcDbSpline
 62
7
  6
BYLAYER
 70
0
 71
3
 72
9
 73
5
 74
0
 42
0.0000001
 43
0.0000001
 44
0.0000000001
 40
0.0
 40
0.0
 40
0.0
 40
0.0
 40
0.244523374
 40
1.0
 40
1.0
 40
1.0
 40
1.0
 10
60.692167911
 20
96.173777204
 30
0.0
 10
60.6743075714
 20
96.1840886426
 30
0.0
 10
60.6006920035
 20
96.2252593442
 30
0.0
 10
60.5248974264
 20
96.2625047437
 30
0.0
 10
60.4667557856
 20
96.2885708576
 30
0.0
  0
SPLINE
  5
311
100
AcDbEntity
  8
0
100
AcDbSpline
 62
7
  6
BYLAYER
 70
0
 71
3
 72
9
 73
5
 74
0
 42
0.0000001
 43
0.0000001
 44
0.0000000001
 40
0.0
 40
0.0
 40
0.0
 40
0.0
 40
0.2454547052
 40
1.0
 40
1.0
 40
1.0
 40
1.0
 10
60.8430763315
 20
96.0781236012
 30
0.0
 10
60.8310785707
 20
96.0864797966
 30
0.0
 10
60.7818185749
 20
96.1199755425
 30
0.0
 10
60.7310923773
 20
96.1513046503
 30
0.0
 10
60.692167911
 20
96.173777204
 30
0.0
  0
SPLINE
  5
312
100
AcDbEntity
  8
0
100
AcDbSpline
 62
7
  6
BYLAYER
 70
0
 71
3
 72
9
 73
5
 74
0
 42
0.0000001
 43
0.0000001
 44
0.0000000001
 40
0.0
 40
0.0
 40
0.0
 40
0.0
 40
0.2379441331
 40
1.0
 40
1.0
 40
1.0
 40
1.0
 10
60.327645873
 20
95.0421114292
 30
0.0
 10
60.2945668545
 20
95.0217209559
 30
0.0
 10
60.154871683
 20
94.9371229798
 30
0.0
 10
60.0127062743
 20
94.8566347589
 30
0.0
 10
59.9033835707
 20
94.7971649368
 30
0.0
  0
SPLINE
  5
313
100
AcDbEntity
  8
0
100
AcDbSpline
 62
7
  6
BYLAYER
 70
0
 71
3
 72
9
 73
5
 74
0
 42
0.0000001
 43
0.0000001
 44
0.0000000001
 40
0.0
 40
0.0
 40
0.0
 40
0.0
 40
0.2425582917
 40
1.0
 40
1.0
 40
1.0
 40
1.0
 10
59.6858844298
 20
95.6334735287
 30
0.0
 10
59.7416431184
 20
95.5901644726
 30
0.0
 10
59.9675315104
 20
95.4065048962
 30
0.0
 10
60.1776221112
 20
95.2036683587
 30
0.0
 10
60.327645873
 20
95.0421114292
 30
0.0
  0
SPLINE
  5
314
100
AcDbEntity
  8
0
100
AcDbSpline
 62
7
  6
BYLAYER
 70
0
 71
3
 72
11
 73
7
 74
0
 42
0.0000001
 43
0.0000001
 44
0.0000000001
 40
0.0
 40
0.0
 40
0.0
 40
0.0
 40
0.2626459699
 40
0.511375355
 40
0.7539174086
 40
1.0
 40
1.0
 40
1.0
 40
1.0
 10
59.6858821887
 20
95.9442449981
 30
0.0
 10
59.6980007377
 20
95.9262195227
 30
0.0
 10
59.7183902649
 20
95.888772046
 30
0.0
 10
59.7356642358
 20
95.8282884225
 30
0.0
 10
59.7378202794
 20
95.7667441023
 30
0.0
 10
59.729255351
 20
95.7267962383
 30
0.0
 10
59.7227971268
 20
95.707497514
 30
0.0
  0
SPLINE
  5
315
100
AcDbEntity
  8
0
100
AcDbSpline
 62
7
  6
BYLAYER
 70
0
 71
3
 72
17
 73
13
 74
0
 42
0.0000001
 43
0.0000001
 44
0.0000000001
 40
0.0
 40
0.0
 40
0.0
 40
0.0
 40
0.1568776401
 40
0.3074055781
 40
0.4490479871
 40
0.5799340608
 40
0.6991557005
 40
0.8071254789
 40
0.8575748253
 40
0.9061581081
 40
0.9534207628
 40
1.0
 40
1.0
 40
1.0
 40
1.0
 10
59.4876833462
 20
93.5261521009
 30
0.0
 10
59.6354796774
 20
93.5423817621
 30
0.0
 10
59.9237487176
 20
93.5887399587
 30
0.0
 10
60.3350735126
 20
93.7013645082
 30
0.0
 10
60.707462068
 20
93.8529080409
 30
0.0
 10
61.0302064319
 20
94.0392675594
 30
0.0
 10
61.2940184799
 20
94.2554678522
 30
0.0
 10
61.4619980998
 20
94.4611730777
 30
0.0
 10
61.5559650347
 20
94.6339573352
 30
0.0
 10
61.6057211012
 20
94.7638595435
 30
0.0
 10
61.6357442458
 20
94.8959294169
 30
0.0
 10
61.6424744606
 20
94.9850084456
 30
0.0
 10
61.6424780041
 20
95.0291550979
 30
0.0
  0
SPLINE
  5
316
100
AcDbEntity
  8
0
100
AcDbSpline
 62
7
  6
BYLAYER
 70
0
 71
3
 72
9
 73
5
 74
0
 42
0.0000001
 43
0.0000001
 44
0.0000000001
 40
0.0
 40
0.0
 40
0.0
 40
0.0
 40
0.2377546769
 40
1.0
 40
1.0
 40
1.0
 40
1.0
 10
58.0815752407
 20
96.3388515772
 30
0.0
 10
58.1337445582
 20
96.3347928664
 30
0.0
 10
58.3524566124
 20
96.3087105256
 30
0.0
 10
58.5664098861
 20
96.2484988619
 30
0.0
 10
58.7233366839
 20
96.189188157
 30
0.0
  0
SPLINE
  5
317
100
AcDbEntity
  8
0
100
AcDbSpline
 62
7
  6
BYLAYER
 70
0
 71
3
 72
9
 73
5
 74
0
 42
0.0000001
 43
0.0000001
 44
0.0000000001
 40
0.0
 40
0.0
 40
0.0
 40
0.0
 40
0.4961231417
 40
1.0
 40
1.0
 40
1.0
 40
1.0
 10
57.6573129384
 20
96.0939050848
 30
0.0
 10
57.7226646066
 20
96.1419920904
 30
0.0
 10
57.8599705435
 20
96.2315339206
 30
0.0
 10
58.0062050994
 20
96.3055360702
 30
0.0
 10
58.0815752407
 20
96.3388515772
 30
0.0
  0
SPLINE
  5
318
100
AcDbEntity
  8
0
100
AcDbSpline
 62
7
  6
BYLAYER
 70
0
 71
3
 72
9
 73
5
 74
0
 42
0.0000001
 43
0.0000001
 44
0.0000000001
 40
0.0
 40
0.0
 40
0.0
 40
0.0
 40
0.5140363712
 40
1.0
 40
1.0
 40
1.0
 40
1.0
 10
57.2173238726
 20
94.5125572139
 30
0.0
 10
57.3770919278
 20
94.7271241818
 30
0.0
 10
57.7132289466
 20
95.1263760087
 30
0.0
 10
58.0993434907
 20
95.4783306251
 30
0.0
 10
58.2990766226
 20
95.6334701952
 30
0.0
  0
SPLINE
  5
319
100
AcDbEntity
  8
0
100
AcDbSpline
 62
7
  6
BYLAYER
 70
0
 71
3
 72
11
 73
7
 74
0
 42
0.0000001
 43
0.0000001
 44
0.0000000001
 40
0.0
 40
0.0
 40
0.0
 40
0.0
 40
0.274177401
 40
0.5305525385
 40
0.7713063589
 40
1.0
 40
1.0
 40
1.0
 40
1.0
 10
59.2616163537
 20
96.1891894508
 30
0.0
 10
59.3666356397
 20
96.2288824737
 30
0.0
 10
59.5746676946
 20
96.2938927474
 30
0.0
 10
59.8873876165
 20
96.3456704668
 30
0.0
 10
60.1859293701
 20
96.3473239184
 30
0.0
 10
60.3765842825
 20
96.3138408504
 30
0.0
 10
60.4667557856
 20
96.2885708576
 30
0.0
  0
SPLINE
  5
31A
100
AcDbEntity
  8
0
100
AcDbSpline
 62
7
  6
BYLAYER
 70
0
 71
3
 72
9
 73
5
 74
0
 42
0.0000001
 43
0.0000001
 44
0.0000000001
 40
0.0
 40
0.0
 40
0.0
 40
0.0
 40
0.4999997431
 40
1.0
 40
1.0
 40
1.0
 40
1.0
 10
58.7233366839
 20
96.189188157
 30
0.0
 10
58.8113890347
 20
96.2089201603
 30
0.0
 10
58.9924763824
 20
96.227661509
 30
0.0
 10
59.1735638084
 20
96.2089210106
 30
0.0
 10
59.2616163537
 20
96.1891894508
 30
0.0
  0
SPLINE
  5
31B
100
AcDbEntity
  8
0
100
AcDbSpline
 62
7
  6
BYLAYER
 70
0
 71
3
 72
9
 73
5
 74
0
 42
0.0000001
 43
0.0000001
 44
0.0000000001
 40
0.0
 40
0.0
 40
0.0
 40
0.0
 40
0.501328086
 40
1.0
 40
1.0
 40
1.0
 40
1.0
 10
58.9128757843
 20
95.3675974426
 30
0.0
 10
58.8791904044
 20
95.5044155314
 30
0.0
 10
58.8150780488
 20
95.7780821467
 30
0.0
 10
58.7536084694
 20
96.0523390139
 30
0.0
 10
58.7233366839
 20
96.189188157
 30
0.0
  0
SPLINE
  5
31C
100
AcDbEntity
  8
0
100
AcDbSpline
 62
7
  6
BYLAYER
 70
0
 71
3
 72
11
 73
7
 74
0
 42
0.0000001
 43
0.0000001
 44
0.0000000001
 40
0.0
 40
0.0
 40
0.0
 40
0.0
 40
0.2460746161
 40
0.4886168313
 40
0.7373526693
 40
1.0
 40
1.0
 40
1.0
 40
1.0
 10
58.2621612622
 20
95.7074974668
 30
0.0
 10
58.2557033583
 20
95.7267952457
 30
0.0
 10
58.2471391472
 20
95.766741825
 30
0.0
 10
58.2492938868
 20
95.8282850347
 30
0.0
 10
58.2665677282
 20
95.8887683114
 30
0.0
 10
58.2869561775
 20
95.9262162574
 30
0.0
 10
58.2990743816
 20
95.9442416647
 30
0.0
  0
SPLINE
  5
31D
100
AcDbEntity
  8
0
100
AcDbSpline
 62
7
  6
BYLAYER
 70
0
 71
3
 72
14
 73
10
 74
0
 42
0.0000001
 43
0.0000001
 44
0.0000000001
 40
0.0
 40
0.0
 40
0.0
 40
0.0
 40
0.2892740944
 40
0.4225579996
 40
0.5485029494
 40
0.6678926515
 40
0.7818729144
 40
0.891955009
 40
1.0
 40
1.0
 40
1.0
 40
1.0
 10
40.1481621439
 20
83.1696454966
 30
0.0
 10
40.0318410555
 20
83.236801989
 30
0.0
 10
39.8689288214
 20
83.3489634596
 30
0.0
 10
39.6846275588
 20
83.52536112
 30
0.0
 10
39.5724432566
 20
83.6613226422
 30
0.0
 10
39.4838003886
 20
83.8032826051
 30
0.0
 10
39.41957889
 20
83.9499373874
 30
0.0
 10
39.3807191691
 20
84.0998436424
 30
0.0
 10
39.3719889401
 20
84.201325233
 30
0.0
 10
39.3719900912
 20
84.2514925025
 30
0.0
  0
SPLINE
  5
31E
100
AcDbEntity
  8
0
100
AcDbSpline
 62
7
  6
BYLAYER
 70
0
 71
3
 72
9
 73
5
 74
0
 42
0.0000001
 43
0.0000001
 44
0.0000000001
 40
0.0
 40
0.0
 40
0.0
 40
0.0
 40
0.2494002061
 40
1.0
 40
1.0
 40
1.0
 40
1.0
 10
41.4040108647
 20
85.8097499863
 30
0.0
 10
41.412115005
 20
85.7741190619
 30
0.0
 10
41.4447831398
 20
85.6312925142
 30
0.0
 10
41.4782448972
 20
85.4886445365
 30
0.0
 10
41.5041922732
 20
85.3817750631
 30
0.0
  0
SPLINE
  5
31F
100
AcDbEntity
  8
0
100
AcDbSpline
 62
7
  6
BYLAYER
 70
0
 71
3
 72
9
 73
5
 74
0
 42
0.0000001
 43
0.0000001
 44
0.0000000001
 40
0.0
 40
0.0
 40
0.0
 40
0.0
 40
0.2377467811
 40
1.0
 40
1.0
 40
1.0
 40
1.0
 10
40.6868208452
 20
86.2960453919
 30
0.0
 10
40.738988425
 20
86.2919868163
 30
0.0
 10
40.9577003847
 20
86.2659040467
 30
0.0
 10
41.1716538807
 20
86.2056932851
 30
0.0
 10
41.3285822884
 20
86.1463819717
 30
0.0
  0
SPLINE
  5
320
100
AcDbEntity
  8
0
100
AcDbSpline
 62
7
  6
BYLAYER
 70
0
 71
3
 72
9
 73
5
 74
0
 42
0.0000001
 43
0.0000001
 44
0.0000000001
 40
0.0
 40
0.0
 40
0.0
 40
0.0
 40
0.2505563252
 40
1.0
 40
1.0
 40
1.0
 40
1.0
 10
42.5584622488
 20
85.459381496
 30
0.0
 10
42.5662623555
 20
85.4920164619
 30
0.0
 10
42.5971245174
 20
85.6223307972
 30
0.0
 10
42.6270962553
 20
85.7528546205
 30
0.0
 10
42.6492657762
 20
85.8507400043
 30
0.0
  0
SPLINE
  5
321
100
AcDbEntity
  8
0
100
AcDbSpline
 62
7
  6
BYLAYER
 70
0
 71
3
 72
14
 73
10
 74
0
 42
0.0000001
 43
0.0000001
 44
0.0000000001
 40
0.0
 40
0.0
 40
0.0
 40
0.0
 40
0.2967321145
 40
0.4323161337
 40
0.5591620292
 40
0.6778520172
 40
0.7895729322
 40
0.8961552159
 40
1.0
 40
1.0
 40
1.0
 40
1.0
 10
40.4443719022
 20
86.4605864732
 30
0.0
 10
40.2876561705
 20
86.3935394176
 30
0.0
 10
40.0661345377
 20
86.2765423176
 30
0.0
 10
39.8107278384
 20
86.0807428115
 30
0.0
 10
39.6545217836
 20
85.9263840794
 30
0.0
 10
39.530161391
 20
85.7621368443
 30
0.0
 10
39.4395704281
 20
85.58993717
 30
0.0
 10
39.3844193635
 20
85.412161418
 30
0.0
 10
39.3719879155
 20
85.2909483011
 30
0.0
 10
39.3719873126
 20
85.2312954049
 30
0.0
  0
SPLINE
  5
322
100
AcDbEntity
  8
0
100
AcDbSpline
 62
7
  6
BYLAYER
 70
0
 71
3
 72
11
 73
7
 74
0
 42
0.0000001
 43
0.0000001
 44
0.0000000001
 40
0.0
 40
0.0
 40
0.0
 40
0.0
 40
0.2290150475
 40
0.4700745561
 40
0.7264406442
 40
1.0
 40
1.0
 40
1.0
 40
1.0
 10
43.8882411495
 20
86.254406783
 30
0.0
 10
43.7998369073
 20
86.2769566703
 30
0.0
 10
43.6136004092
 20
86.3059067741
 30
0.0
 10
43.3230451403
 20
86.3007274008
 30
0.0
 10
43.0193426807
 20
86.2483957563
 30
0.0
 10
42.817332137
 20
86.1849152547
 30
0.0
 10
42.7153900956
 20
86.1463853052
 30
0.0
  0
SPLINE
  5
323
100
AcDbEntity
  8
0
100
AcDbSpline
 62
7
  6
BYLAYER
 70
0
 71
3
 72
10
 73
6
 74
0
 42
0.0000001
 43
0.0000001
 44
0.0000000001
 40
0.0
 40
0.0
 40
0.0
 40
0.0
 40
0.2380393711
 40
0.4854216629
 40
1.0
 40
1.0
 40
1.0
 40
1.0
 10
41.7528503646
 20
85.5906660496
 30
0.0
 10
41.6417748225
 20
85.5043898686
 30
0.0
 10
41.422935045
 20
85.3183547003
 30
0.0
 10
41.0042020915
 20
84.9009430145
 30
0.0
 10
40.7215461595
 20
84.5479232657
 30
0.0
 10
40.5477109326
 20
84.298480612
 30
0.0
  0
SPLINE
  5
324
100
AcDbEntity
  8
0
100
AcDbSpline
 62
7
  6
BYLAYER
 70
0
 71
3
 72
9
 73
5
 74
0
 42
0.0000001
 43
0.0000001
 44
0.0000000001
 40
0.0
 40
0.0
 40
0.0
 40
0.0
 40
0.500036384
 40
1.0
 40
1.0
 40
1.0
 40
1.0
 10
42.2911300344
 20
85.5906673435
 30
0.0
 10
42.203071365
 20
85.5709339242
 30
0.0
 10
42.0219834221
 20
85.5522016317
 30
0.0
 10
41.8408963231
 20
85.5709359659
 30
0.0
 10
41.7528503646
 20
85.5906660496
 30
0.0
  0
SPLINE
  5
325
100
AcDbEntity
  8
0
100
AcDbSpline
 62
7
  6
BYLAYER
 70
0
 71
3
 72
9
 73
5
 74
0
 42
0.0000001
 43
0.0000001
 44
0.0000000001
 40
0.0
 40
0.0
 40
0.0
 40
0.0
 40
0.2425594715
 40
1.0
 40
1.0
 40
1.0
 40
1.0
 10
42.2911300344
 20
85.5906673435
 30
0.0
 10
42.3468889935
 20
85.5473580772
 30
0.0
 10
42.5727771287
 20
85.3636981909
 30
0.0
 10
42.7828679511
 20
85.16086192
 30
0.0
 10
42.9328914776
 20
84.9993052439
 30
0.0
  0
SPLINE
  5
326
100
AcDbEntity
  8
0
100
AcDbSpline
 62
7
  6
BYLAYER
 70
0
 71
3
 72
9
 73
5
 74
0
 42
0.0000001
 43
0.0000001
 44
0.0000000001
 40
0.0
 40
0.0
 40
0.0
 40
0.0
 40
0.2508062413
 40
1.0
 40
1.0
 40
1.0
 40
1.0
 10
42.7153923367
 20
85.8356138358
 30
0.0
 10
42.7057182613
 20
85.8030508159
 30
0.0
 10
42.666942634
 20
85.6732787274
 30
0.0
 10
42.6272308805
 20
85.5437809848
 30
0.0
 10
42.596448404
 20
85.4470905241
 30
0.0
  0
SPLINE
  5
327
100
AcDbEntity
  8
0
100
AcDbSpline
 62
7
  6
BYLAYER
 70
0
 71
3
 72
9
 73
5
 74
0
 42
0.0000001
 43
0.0000001
 44
0.0000000001
 40
0.0
 40
0.0
 40
0.0
 40
0.0
 40
0.4984173373
 40
1.0
 40
1.0
 40
1.0
 40
1.0
 10
41.4766980739
 20
85.3566349565
 30
0.0
 10
41.4508025238
 20
85.4358036323
 30
0.0
 10
41.4006547397
 20
85.5952345744
 30
0.0
 10
41.3524566006
 20
85.7552563541
 30
0.0
 10
41.3285845295
 20
85.8356105023
 30
0.0
  0
SPLINE
  5
328
100
AcDbEntity
  8
0
100
AcDbSpline
 62
7
  6
BYLAYER
 70
0
 71
3
 72
14
 73
10
 74
0
 42
0.0000001
 43
0.0000001
 44
0.0000000001
 40
0.0
 40
0.0
 40
0.0
 40
0.0
 40
0.1089759543
 40
0.219848255
 40
0.3343596802
 40
0.4539536106
 40
0.5797322476
 40
0.7124854736
 40
1.0
 40
1.0
 40
1.0
 40
1.0
 10
44.671985911
 20
85.231295405
 30
0.0
 10
44.6719897747
 20
85.2794314315
 30
0.0
 10
44.6639626364
 20
85.3767197614
 30
0.0
 10
44.6282094918
 20
85.5206182732
 30
0.0
 10
44.5690742998
 20
85.6616676073
 30
0.0
 10
44.4873379602
 20
85.7985632009
 30
0.0
 10
44.3837827437
 20
85.9301535298
 30
0.0
 10
44.2135135221
 20
86.1015481619
 30
0.0
 10
44.0623467779
 20
86.2118066683
 30
0.0
 10
43.9541804853
 20
86.2783553608
 30
0.0
  0
SPLINE
  5
329
100
AcDbEntity
  8
0
100
AcDbSpline
 62
7
  6
BYLAYER
 70
0
 71
3
 72
23
 73
19
 74
0
 42
0.0000001
 43
0.0000001
 44
0.0000000001
 40
0.0
 40
0.0
 40
0.0
 40
0.0
 40
0.0428141385
 40
0.0873960751
 40
0.1351783895
 40
0.1870871145
 40
0.2435339384
 40
0.3044910719
 40
0.3695880389
 40
0.4381955038
 40
0.5094933742
 40
0.5825295744
 40
0.6562720933
 40
0.7296605758
 40
0.8016507927
 40
0.8712489826
 40
0.9376160825
 40
1.0
 40
1.0
 40
1.0
 40
1.0
 10
44.6719845339
 20
84.2514925061
 30
0.0
 10
44.6719828029
 20
84.1760534279
 30
0.0
 10
44.651807273
 20
84.0214051761
 30
0.0
 10
44.5631094951
 20
83.7981103861
 30
0.0
 10
44.4191968471
 20
83.5864263032
 30
0.0
 10
44.2241403895
 20
83.3905415859
 30
0.0
 10
43.9824295621
 20
83.2139311402
 30
0.0
 10
43.6992253265
 20
83.0599026526
 30
0.0
 10
43.3804582395
 20
82.9314780759
 30
0.0
 10
43.0328200607
 20
82.8312823473
 30
0.0
 10
42.6636558601
 20
82.7614168165
 30
0.0
 10
42.2808139039
 20
82.7233487836
 30
0.0
 10
41.8924526267
 20
82.7178765442
 30
0.0
 10
41.5068485454
 20
82.7451270139
 30
0.0
 10
41.1322459983
 20
82.8045381204
 30
0.0
 10
40.7765398432
 20
82.8948153549
 30
0.0
 10
40.447411749
 20
83.0140976695
 30
0.0
 10
40.2433573099
 20
83.1146857852
 30
0.0
 10
40.1481621439
 20
83.1696454966
 30
0.0
  0
SPLINE
  5
32A
100
AcDbEntity
  8
0
100
AcDbSpline
 62
7
  6
BYLAYER
 70
0
 71
3
 72
9
 73
5
 74
0
 42
0.0000001
 43
0.0000001
 44
0.0000000001
 40
0.0
 40
0.0
 40
0.0
 40
0.0
 40
0.4990225806
 40
1.0
 40
1.0
 40
1.0
 40
1.0
 10
42.2911242605
 20
86.3913297579
 30
0.0
 10
42.2658065405
 20
86.2768752991
 30
0.0
 10
42.2145463418
 20
86.047634184
 30
0.0
 10
42.1615527603
 20
85.8187825168
 30
0.0
 10
42.1341964138
 20
85.7043259487
 30
0.0
  0
SPLINE
  5
32B
100
AcDbEntity
  8
0
100
AcDbSpline
 62
7
  6
BYLAYER
 70
0
 71
3
 72
9
 73
5
 74
0
 42
0.0000001
 43
0.0000001
 44
0.0000000001
 40
0.0
 40
0.0
 40
0.0
 40
0.0
 40
0.2581154612
 40
1.0
 40
1.0
 40
1.0
 40
1.0
 10
42.1341964138
 20
85.7043259487
 30
0.0
 10
42.150623908
 20
85.7023422196
 30
0.0
 10
42.2140282115
 20
85.6928963242
 30
0.0
 10
42.2765133971
 20
85.6765143492
 30
0.0
 10
42.3210300277
 20
85.6597759146
 30
0.0
  0
SPLINE
  5
32C
100
AcDbEntity
  8
0
100
AcDbSpline
 62
7
  6
BYLAYER
 70
0
 71
3
 72
11
 73
7
 74
0
 42
0.0000001
 43
0.0000001
 44
0.0000000001
 40
0.0
 40
0.0
 40
0.0
 40
0.0
 40
0.2899049337
 40
0.552995559
 40
0.7886009954
 40
1.0
 40
1.0
 40
1.0
 40
1.0
 10
42.3210300277
 20
85.6597759146
 30
0.0
 10
42.3499252747
 20
85.6489111839
 30
0.0
 10
42.40377001
 20
85.6244416644
 30
0.0
 10
42.4738148235
 20
85.5772758265
 30
0.0
 10
42.5270501402
 20
85.5227159649
 30
0.0
 10
42.5507944511
 20
85.4805459893
 30
0.0
 10
42.5584622488
 20
85.459381496
 30
0.0
  0
SPLINE
  5
32D
100
AcDbEntity
  8
0
100
AcDbSpline
 62
7
  6
BYLAYER
 70
0
 71
3
 72
9
 73
5
 74
0
 42
0.0000001
 43
0.0000001
 44
0.0000000001
 40
0.0
 40
0.0
 40
0.0
 40
0.0
 40
0.244523374
 40
1.0
 40
1.0
 40
1.0
 40
1.0
 10
43.7216758179
 20
86.3759175111
 30
0.0
 10
43.7038154783
 20
86.3862289497
 30
0.0
 10
43.6301999104
 20
86.4273996513
 30
0.0
 10
43.5544053332
 20
86.4646450508
 30
0.0
 10
43.4962636925
 20
86.4907111647
 30
0.0
  0
SPLINE
  5
32E
100
AcDbEntity
  8
0
100
AcDbSpline
 62
7
  6
BYLAYER
 70
0
 71
3
 72
9
 73
5
 74
0
 42
0.0000001
 43
0.0000001
 44
0.0000000001
 40
0.0
 40
0.0
 40
0.0
 40
0.0
 40
0.2454547052
 40
1.0
 40
1.0
 40
1.0
 40
1.0
 10
43.8725842384
 20
86.2802639083
 30
0.0
 10
43.8605864776
 20
86.2886201037
 30
0.0
 10
43.8113264817
 20
86.3221158496
 30
0.0
 10
43.7606002841
 20
86.3534449574
 30
0.0
 10
43.7216758179
 20
86.3759175111
 30
0.0
  0
SPLINE
  5
32F
100
AcDbEntity
  8
0
100
AcDbSpline
 62
7
  6
BYLAYER
 70
0
 71
3
 72
9
 73
5
 74
0
 42
0.0000001
 43
0.0000001
 44
0.0000000001
 40
0.0
 40
0.0
 40
0.0
 40
0.0
 40
0.2379441331
 40
1.0
 40
1.0
 40
1.0
 40
1.0
 10
43.3571537799
 20
85.2442517362
 30
0.0
 10
43.3240747613
 20
85.223861263
 30
0.0
 10
43.1843795898
 20
85.1392632869
 30
0.0
 10
43.0422141811
 20
85.058775066
 30
0.0
 10
42.9328914776
 20
84.9993052439
 30
0.0
  0
SPLINE
  5
330
100
AcDbEntity
  8
0
100
AcDbSpline
 62
7
  6
BYLAYER
 70
0
 71
3
 72
9
 73
5
 74
0
 42
0.0000001
 43
0.0000001
 44
0.0000000001
 40
0.0
 40
0.0
 40
0.0
 40
0.0
 40
0.2425582917
 40
1.0
 40
1.0
 40
1.0
 40
1.0
 10
42.7153923367
 20
85.8356138358
 30
0.0
 10
42.7711510253
 20
85.7923047797
 30
0.0
 10
42.9970394173
 20
85.6086452033
 30
0.0
 10
43.2071300181
 20
85.4058086657
 30
0.0
 10
43.3571537799
 20
85.2442517362
 30
0.0
  0
SPLINE
  5
331
100
AcDbEntity
  8
0
100
AcDbSpline
 62
7
  6
BYLAYER
 70
0
 71
3
 72
11
 73
7
 74
0
 42
0.0000001
 43
0.0000001
 44
0.0000000001
 40
0.0
 40
0.0
 40
0.0
 40
0.0
 40
0.2626459699
 40
0.511375355
 40
0.7539174086
 40
1.0
 40
1.0
 40
1.0
 40
1.0
 10
42.7153900956
 20
86.1463853052
 30
0.0
 10
42.7275086446
 20
86.1283598298
 30
0.0
 10
42.7478981717
 20
86.0909123531
 30
0.0
 10
42.7651721426
 20
86.0304287296
 30
0.0
 10
42.7673281863
 20
85.9688844093
 30
0.0
 10
42.7587632578
 20
85.9289365454
 30
0.0
 10
42.7523050337
 20
85.909637821
 30
0.0
  0
SPLINE
  5
332
100
AcDbEntity
  8
0
100
AcDbSpline
 62
7
  6
BYLAYER
 70
0
 71
3
 72
23
 73
19
 74
0
 42
0.0000001
 43
0.0000001
 44
0.0000000001
 40
0.0
 40
0.0
 40
0.0
 40
0.0
 40
0.062332947
 40
0.1286225114
 40
0.1981708583
 40
0.2701125888
 40
0.3434702878
 40
0.417202014
 40
0.490245386
 40
0.5615669435
 40
0.63020953
 40
0.6953467226
 40
0.756342713
 40
0.8128224394
 40
0.8647589609
 40
0.9125651446
 40
0.9571675434
 40
1.0
 40
1.0
 40
1.0
 40
1.0
 10
40.1481621439
 20
84.1494483971
 30
0.0
 10
40.2432800985
 20
84.0945342472
 30
0.0
 10
40.4471156703
 20
83.9940160734
 30
0.0
 10
40.7759402407
 20
83.874820342
 30
0.0
 10
41.1313210381
 20
83.7845255863
 30
0.0
 10
41.5056866925
 20
83.7250698632
 30
0.0
 10
41.8911237366
 20
83.6977155599
 30
0.0
 10
42.2794268026
 20
83.7030641297
 30
0.0
 10
42.6623161622
 20
83.7410201872
 30
0.0
 10
43.0316160071
 20
83.8107972872
 30
0.0
 10
43.3794542519
 20
83.9109314037
 30
0.0
 10
43.6984498042
 20
84.0393295681
 30
0.0
 10
43.9818761788
 20
84.1933663307
 30
0.0
 10
44.22377213
 20
84.3700228341
 30
0.0
 10
44.4189859375
 20
84.5659628979
 30
0.0
 10
44.5630197439
 20
84.7777197745
 30
0.0
 10
44.6518018867
 20
85.0011051552
 30
0.0
 10
44.6719798532
 20
85.1558239382
 30
0.0
 10
44.671985911
 20
85.231295405
 30
0.0
  0
SPLINE
  5
333
100
AcDbEntity
  8
0
100
AcDbSpline
 62
7
  6
BYLAYER
 70
0
 71
3
 72
9
 73
5
 74
0
 42
0.0000001
 43
0.0000001
 44
0.0000000001
 40
0.0
 40
0.0
 40
0.0
 40
0.0
 40
0.2377546769
 40
1.0
 40
1.0
 40
1.0
 40
1.0
 10
41.1110831476
 20
86.5409918843
 30
0.0
 10
41.1632524651
 20
86.5369331735
 30
0.0
 10
41.3819645193
 20
86.5108508327
 30
0.0
 10
41.5959177929
 20
86.450639169
 30
0.0
 10
41.7528445908
 20
86.3913284641
 30
0.0
  0
SPLINE
  5
334
100
AcDbEntity
  8
0
100
AcDbSpline
 62
7
  6
BYLAYER
 70
0
 71
3
 72
9
 73
5
 74
0
 42
0.0000001
 43
0.0000001
 44
0.0000000001
 40
0.0
 40
0.0
 40
0.0
 40
0.0
 40
0.4961231417
 40
1.0
 40
1.0
 40
1.0
 40
1.0
 10
40.6868208452
 20
86.2960453919
 30
0.0
 10
40.7521725135
 20
86.3441323974
 30
0.0
 10
40.8894784504
 20
86.4336742277
 30
0.0
 10
41.0357130063
 20
86.5076763773
 30
0.0
 10
41.1110831476
 20
86.5409918843
 30
0.0
  0
SPLINE
  5
335
100
AcDbEntity
  8
0
100
AcDbSpline
 62
7
  6
BYLAYER
 70
0
 71
3
 72
14
 73
10
 74
0
 42
0.0000001
 43
0.0000001
 44
0.0000000001
 40
0.0
 40
0.0
 40
0.0
 40
0.0
 40
0.1080463078
 40
0.2181299618
 40
0.3321103572
 40
0.4514993678
 40
0.577443348
 40
0.7107265095
 40
1.0
 40
1.0
 40
1.0
 40
1.0
 10
39.3719873126
 20
85.2312954049
 30
0.0
 10
39.3719868056
 20
85.1811274789
 30
0.0
 10
39.3807180933
 20
85.0796446241
 30
0.0
 10
39.4195778469
 20
84.9297367949
 30
0.0
 10
39.4838004225
 20
84.7830817337
 30
0.0
 10
39.5724442529
 20
84.6411230694
 30
0.0
 10
39.6846282357
 20
84.50516257
 30
0.0
 10
39.8689293416
 20
84.3287659664
 30
0.0
 10
40.031841194
 20
84.2166048096
 30
0.0
 10
40.1481621439
 20
84.1494483971
 30
0.0
  0
SPLINE
  5
336
100
AcDbEntity
  8
0
100
AcDbSpline
 62
7
  6
BYLAYER
 70
0
 71
3
 72
10
 73
6
 74
0
 42
0.0000001
 43
0.0000001
 44
0.0000000001
 40
0.0
 40
0.0
 40
0.0
 40
0.0
 40
0.514616409
 40
0.7619881134
 40
1.0
 40
1.0
 40
1.0
 40
1.0
 10
40.1234450975
 20
84.5434250647
 30
0.0
 10
40.2972931738
 20
84.7928861563
 30
0.0
 10
40.5799612114
 20
85.1459175068
 30
0.0
 10
40.9986983166
 20
85.5633249246
 30
0.0
 10
41.2175218202
 20
85.7493442889
 30
0.0
 10
41.3285845295
 20
85.8356105023
 30
0.0
  0
SPLINE
  5
337
100
AcDbEntity
  8
0
100
AcDbSpline
 62
7
  6
BYLAYER
 70
0
 71
3
 72
9
 73
5
 74
0
 42
0.0000001
 43
0.0000001
 44
0.0000000001
 40
0.0
 40
0.0
 40
0.0
 40
0.0
 40
0.2445234602
 40
1.0
 40
1.0
 40
1.0
 40
1.0
 10
40.3222988072
 20
84.4132742655
 30
0.0
 10
40.340159207
 20
84.4029629168
 30
0.0
 10
40.4137746839
 20
84.3617920621
 30
0.0
 10
40.4895692989
 20
84.3245467227
 30
0.0
 10
40.5477109326
 20
84.298480612
 30
0.0
  0
SPLINE
  5
338
100
AcDbEntity
  8
0
100
AcDbSpline
 62
7
  6
BYLAYER
 70
0
 71
3
 72
9
 73
5
 74
0
 42
0.0000001
 43
0.0000001
 44
0.0000000001
 40
0.0
 40
0.0
 40
0.0
 40
0.0
 40
0.2438302273
 40
1.0
 40
1.0
 40
1.0
 40
1.0
 10
40.1234450975
 20
84.5434250647
 30
0.0
 10
40.138951357
 20
84.5318964558
 30
0.0
 10
40.2032812791
 20
84.4856084177
 30
0.0
 10
40.2704039136
 20
84.4432351185
 30
0.0
 10
40.3222988072
 20
84.4132742655
 30
0.0
  0
SPLINE
  5
339
100
AcDbEntity
  8
0
100
AcDbSpline
 62
7
  6
BYLAYER
 70
0
 71
3
 72
11
 73
7
 74
0
 42
0.0000001
 43
0.0000001
 44
0.0000000001
 40
0.0
 40
0.0
 40
0.0
 40
0.0
 40
0.274177401
 40
0.5305525385
 40
0.7713063589
 40
1.0
 40
1.0
 40
1.0
 40
1.0
 10
42.2911242605
 20
86.3913297579
 30
0.0
 10
42.3961435466
 20
86.4310227808
 30
0.0
 10
42.6041756015
 20
86.4960330545
 30
0.0
 10
42.9168955234
 20
86.5478107739
 30
0.0
 10
43.215437277
 20
86.5494642255
 30
0.0
 10
43.4060921894
 20
86.5159811575
 30
0.0
 10
43.4962636925
 20
86.4907111647
 30
0.0
  0
SPLINE
  5
33A
100
AcDbEntity
  8
0
100
AcDbSpline
 62
7
  6
BYLAYER
 70
0
 71
3
 72
9
 73
5
 74
0
 42
0.0000001
 43
0.0000001
 44
0.0000000001
 40
0.0
 40
0.0
 40
0.0
 40
0.0
 40
0.4999997431
 40
1.0
 40
1.0
 40
1.0
 40
1.0
 10
41.7528445908
 20
86.3913284641
 30
0.0
 10
41.8408969416
 20
86.4110604673
 30
0.0
 10
42.0219842892
 20
86.429801816
 30
0.0
 10
42.2030717153
 20
86.4110613177
 30
0.0
 10
42.2911242605
 20
86.3913297579
 30
0.0
  0
SPLINE
  5
33B
100
AcDbEntity
  8
0
100
AcDbSpline
 62
7
  6
BYLAYER
 70
0
 71
3
 72
9
 73
5
 74
0
 42
0.0000001
 43
0.0000001
 44
0.0000000001
 40
0.0
 40
0.0
 40
0.0
 40
0.0
 40
0.501328086
 40
1.0
 40
1.0
 40
1.0
 40
1.0
 10
41.9423836912
 20
85.5697377497
 30
0.0
 10
41.9086983113
 20
85.7065558385
 30
0.0
 10
41.8445859557
 20
85.9802224538
 30
0.0
 10
41.7831163763
 20
86.254479321
 30
0.0
 10
41.7528445908
 20
86.3913284641
 30
0.0
  0
SPLINE
  5
33C
100
AcDbEntity
  8
0
100
AcDbSpline
 62
7
  6
BYLAYER
 70
0
 71
3
 72
11
 73
7
 74
0
 42
0.0000001
 43
0.0000001
 44
0.0000000001
 40
0.0
 40
0.0
 40
0.0
 40
0.0
 40
0.2460746161
 40
0.4886168313
 40
0.7373526693
 40
1.0
 40
1.0
 40
1.0
 40
1.0
 10
41.2916691691
 20
85.9096377739
 30
0.0
 10
41.2852112652
 20
85.9289355528
 30
0.0
 10
41.2766470541
 20
85.9688821321
 30
0.0
 10
41.2788017936
 20
86.0304253418
 30
0.0
 10
41.296075635
 20
86.0909086185
 30
0.0
 10
41.3164640844
 20
86.1283565645
 30
0.0
 10
41.3285822884
 20
86.1463819717
 30
0.0
  0
SPLINE
  5
33D
100
AcDbEntity
  8
0
100
AcDbSpline
 62
7
  6
BYLAYER
 70
0
 71
3
 72
15
 73
11
 74
0
 42
0.0000001
 43
0.0000001
 44
0.0000000001
 40
0.0
 40
0.0
 40
0.0
 40
0.0
 40
0.1141543519
 40
0.237325601
 40
0.366974755
 40
0.4999984147
 40
0.6330222943
 40
0.7626720931
 40
0.8858443543
 40
1.0
 40
1.0
 40
1.0
 40
1.0
 10
42.8705072069
 20
50.4890950834
 30
0.0
 10
43.068975724
 20
50.6036802512
 30
0.0
 10
43.4609865795
 20
50.8784770894
 30
0.0
 10
44.0003721119
 20
51.3831160251
 30
0.0
 10
44.4974450288
 20
51.9796369017
 30
0.0
 10
44.9334828145
 20
52.6456623116
 30
0.0
 10
45.2922559233
 20
53.3562977339
 30
0.0
 10
45.5603199422
 20
54.0850405748
 30
0.0
 10
45.7276568198
 20
54.8044877688
 30
0.0
 10
45.7696329394
 20
55.2813820656
 30
0.0
 10
45.7696329394
 20
55.5105560245
 30
0.0
  0
SPLINE
  5
33E
100
AcDbEntity
  8
0
100
AcDbSpline
 62
7
  6
BYLAYER
 70
0
 71
3
 72
19
 73
15
 74
0
 42
0.0000001
 43
0.0000001
 44
0.0000000001
 40
0.0
 40
0.0
 40
0.0
 40
0.0
 40
0.042968895
 40
0.0873101601
 40
0.1341865547
 40
0.1844393434
 40
0.2385512327
 40
0.2966806207
 40
0.3587218222
 40
0.4243440106
 40
0.5641199607
 40
0.7108680149
 40
0.8582964681
 40
1.0
 40
1.0
 40
1.0
 40
1.0
 10
51.1285983121
 20
55.4028134814
 30
0.0
 10
51.0640458811
 20
55.4400826687
 30
0.0
 10
50.9410355968
 20
55.5309591895
 30
0.0
 10
50.7872413511
 20
55.7078406034
 30
0.0
 10
50.6650716966
 20
55.922330897
 30
0.0
 10
50.5761885722
 20
56.1703742606
 30
0.0
 10
50.5215025183
 20
56.4478157853
 30
0.0
 10
50.5015116322
 20
56.7502050932
 30
0.0
 10
50.5164652821
 20
57.0727627145
 30
0.0
 10
50.5838676501
 20
57.5323975942
 30
0.0
 10
50.7546346961
 20
58.1221725231
 30
0.0
 10
51.0732219609
 20
58.807159875
 30
0.0
 10
51.4897955772
 20
59.4412587489
 30
0.0
 10
51.8268276458
 20
59.8162060627
 30
0.0
 10
52.0067001754
 20
59.9837493902
 30
0.0
  0
SPLINE
  5
33F
100
AcDbEntity
  8
0
100
AcDbSpline
 62
7
  6
BYLAYER
 70
0
 71
3
 72
9
 73
5
 74
0
 42
0.0000001
 43
0.0000001
 44
0.0000000001
 40
0.0
 40
0.0
 40
0.0
 40
0.0
 40
0.5156821822
 40
1.0
 40
1.0
 40
1.0
 40
1.0
 10
52.0067001754
 20
59.9837493902
 30
0.0
 10
52.1046471038
 20
60.0749826338
 30
0.0
 10
52.3034016817
 20
60.24273071
 30
0.0
 10
52.5196912051
 20
60.3875372346
 30
0.0
 10
52.6285625346
 20
60.4503937508
 30
0.0
  0
SPLINE
  5
340
100
AcDbEntity
  8
0
100
AcDbSpline
 62
7
  6
BYLAYER
 70
0
 71
3
 72
11
 73
7
 74
0
 42
0.0000001
 43
0.0000001
 44
0.0000000001
 40
0.0
 40
0.0
 40
0.0
 40
0.0
 40
0.2788541006
 40
0.534728324
 40
0.772380204
 40
1.0
 40
1.0
 40
1.0
 40
1.0
 10
44.2861057618
 20
11.3682804851
 30
0.0
 10
44.2681779985
 20
11.261228172
 30
0.0
 10
44.2180912506
 20
11.0579735988
 30
0.0
 10
44.0916697027
 20
10.7828739507
 30
0.0
 10
43.9189391956
 20
10.5582956821
 30
0.0
 10
43.7737238574
 20
10.4459757124
 30
0.0
 10
43.6969949827
 20
10.4016734285
 30
0.0
  0
SPLINE
  5
341
100
AcDbEntity
  8
0
100
AcDbSpline
 62
7
  6
BYLAYER
 70
0
 71
3
 72
9
 73
5
 74
0
 42
0.0000001
 43
0.0000001
 44
0.0000000001
 40
0.0
 40
0.0
 40
0.0
 40
0.0
 40
0.2588880015
 40
1.0
 40
1.0
 40
1.0
 40
1.0
 10
44.7089995578
 20
13.9506601079
 30
0.0
 10
44.7089995578
 20
13.9412647235
 30
0.0
 10
44.7083215626
 20
13.9049800276
 30
0.0
 10
44.7048478151
 20
13.8687209822
 30
0.0
 10
44.7004054893
 20
13.8421944579
 30
0.0
  0
SPLINE
  5
342
100
AcDbEntity
  8
0
100
AcDbSpline
 62
7
  6
BYLAYER
 70
0
 71
3
 72
10
 73
6
 74
0
 42
0.0000001
 43
0.0000001
 44
0.0000000001
 40
0.0
 40
0.0
 40
0.0
 40
0.0
 40
0.535524801
 40
0.7747580336
 40
1.0
 40
1.0
 40
1.0
 40
1.0
 10
39.3349942345
 20
13.3093123032
 30
0.0
 10
39.3349917926
 20
13.2284370814
 30
0.0
 10
39.3502823558
 20
13.1100849734
 30
0.0
 10
39.4051627738
 20
12.9688814819
 30
0.0
 10
39.4405261984
 20
12.907921042
 30
0.0
 10
39.4597529532
 20
12.8798598478
 30
0.0
  0
SPLINE
  5
343
100
AcDbEntity
  8
0
100
AcDbSpline
 62
7
  6
BYLAYER
 70
0
 71
3
 72
13
 73
9
 74
0
 42
0.0000001
 43
0.0000001
 44
0.0000000001
 40
0.0
 40
0.0
 40
0.0
 40
0.0
 40
0.2893747747
 40
0.5483111102
 40
0.6677410883
 40
0.7817665345
 40
0.8919061156
 40
1.0
 40
1.0
 40
1.0
 40
1.0
 10
52.6285625346
 20
60.4503937508
 30
0.0
 10
52.7602303365
 20
60.5264117379
 30
0.0
 10
53.0219223755
 20
60.6510357604
 30
0.0
 10
53.3664865408
 20
60.7340666785
 30
0.0
 10
53.6258230954
 20
60.7430758271
 30
0.0
 10
53.8059401596
 20
60.7229579506
 30
0.0
 10
53.9749256886
 20
60.6762880258
 30
0.0
 10
54.0793432034
 20
60.6273555212
 30
0.0
 10
54.128526757
 20
60.5989595175
 30
0.0
  0
SPLINE
  5
344
100
AcDbEntity
  8
0
100
AcDbSpline
 62
7
  6
BYLAYER
 70
0
 71
3
 72
9
 73
5
 74
0
 42
0.0000001
 43
0.0000001
 44
0.0000000001
 40
0.0
 40
0.0
 40
0.0
 40
0.0
 40
0.2376260094
 40
1.0
 40
1.0
 40
1.0
 40
1.0
 10
56.3082698199
 20
58.3476346812
 30
0.0
 10
56.3668111865
 20
58.3645022021
 30
0.0
 10
56.6106360209
 20
58.4442293669
 30
0.0
 10
56.8433115152
 20
58.5562492577
 30
0.0
 10
57.0125839511
 20
58.6539781608
 30
0.0
  0
SPLINE
  5
345
100
AcDbEntity
  8
0
100
AcDbSpline
 62
7
  6
BYLAYER
 70
0
 71
3
 72
14
 73
10
 74
0
 42
0.0000001
 43
0.0000001
 44
0.0000000001
 40
0.0
 40
0.0
 40
0.0
 40
0.0
 40
0.3277211209
 40
0.4718456934
 40
0.6020051966
 40
0.7183222721
 40
0.8220303793
 40
0.9149701604
 40
1.0
 40
1.0
 40
1.0
 40
1.0
 10
56.2813527977
 20
58.6681217062
 30
0.0
 10
56.2813527977
 20
58.473722501
 30
0.0
 10
56.3009920734
 20
58.1926462081
 30
0.0
 10
56.3775053969
 20
57.8433474119
 30
0.0
 10
56.4503487141
 20
57.6228821239
 30
0.0
 10
56.5384029406
 20
57.4341760142
 30
0.0
 10
56.6380365223
 20
57.2768578351
 30
0.0
 10
56.7468758062
 20
57.1493112884
 30
0.0
 10
56.8272842596
 20
57.0801402824
 30
0.0
 10
56.8680239382
 20
57.050402897
 30
0.0
  0
SPLINE
  5
346
100
AcDbEntity
  8
0
100
AcDbSpline
 62
7
  6
BYLAYER
 70
0
 71
3
 72
12
 73
8
 74
0
 42
0.0000001
 43
0.0000001
 44
0.0000000001
 40
0.0
 40
0.0
 40
0.0
 40
0.0
 40
0.1132311859
 40
0.2352224598
 40
0.4950424994
 40
0.7576786968
 40
1.0
 40
1.0
 40
1.0
 40
1.0
 10
42.7754395726
 20
12.8343253936
 30
0.0
 10
42.7389726571
 20
12.8132713357
 30
0.0
 10
42.6594953432
 20
12.7758192312
 30
0.0
 10
42.483625473
 20
12.7201081488
 30
0.0
 10
42.2436845076
 20
12.689443883
 30
0.0
 10
41.9584468863
 20
12.7117890024
 30
0.0
 10
41.7766231887
 20
12.7678132063
 30
0.0
 10
41.6955242562
 20
12.8071010469
 30
0.0
  0
SPLINE
  5
347
100
AcDbEntity
  8
0
100
AcDbSpline
 62
7
  6
BYLAYER
 70
0
 71
3
 72
9
 73
5
 74
0
 42
0.0000001
 43
0.0000001
 44
0.0000000001
 40
0.0
 40
0.0
 40
0.0
 40
0.0
 40
0.2412724317
 40
1.0
 40
1.0
 40
1.0
 40
1.0
 10
42.7668456094
 20
12.7258598044
 30
0.0
 10
42.7682918829
 20
12.7344958964
 30
0.0
 10
42.7734598428
 20
12.7704265067
 30
0.0
 10
42.7754396779
 20
12.8067894048
 30
0.0
 10
42.7754396779
 20
12.8343254543
 30
0.0
  0
SPLINE
  5
348
100
AcDbEntity
  8
0
100
AcDbSpline
 62
7
  6
BYLAYER
 70
0
 71
3
 72
11
 73
7
 74
0
 42
0.0000001
 43
0.0000001
 44
0.0000000001
 40
0.0
 40
0.0
 40
0.0
 40
0.0
 40
0.2522074624
 40
0.5157050072
 40
0.7706440749
 40
1.0
 40
1.0
 40
1.0
 40
1.0
 10
41.6955242562
 20
12.8071010469
 30
0.0
 10
41.7736694123
 20
12.7545013903
 30
0.0
 10
41.9503071731
 20
12.6710625525
 30
0.0
 10
42.2351096944
 20
12.6142089978
 30
0.0
 10
42.5168370069
 20
12.6260029367
 30
0.0
 10
42.692201661
 20
12.6838292167
 30
0.0
 10
42.7668455042
 20
12.7258597436
 30
0.0
  0
SPLINE
  5
349
100
AcDbEntity
  8
0
100
AcDbSpline
 62
7
  6
BYLAYER
 70
0
 71
3
 72
11
 73
7
 74
0
 42
0.0000001
 43
0.0000001
 44
0.0000000001
 40
0.0
 40
0.0
 40
0.0
 40
0.0
 40
0.2896011632
 40
0.549106992
 40
0.7822337779
 40
1.0
 40
1.0
 40
1.0
 40
1.0
 10
60.5481255114
 20
23.3121283956
 30
0.0
 10
60.5481255114
 20
23.2716086527
 30
0.0
 10
60.5419556068
 20
23.1945215457
 30
0.0
 10
60.5107696651
 20
23.0886018863
 30
0.0
 10
60.4582125092
 20
23.0026226084
 30
0.0
 10
60.4088010265
 20
22.9611716569
 30
0.0
 10
60.3824200148
 20
22.945927097
 30
0.0
  0
SPLINE
  5
34A
100
AcDbEntity
  8
0
100
AcDbSpline
 62
7
  6
BYLAYER
 70
0
 71
3
 72
11
 73
7
 74
0
 42
0.0000001
 43
0.0000001
 44
0.0000000001
 40
0.0
 40
0.0
 40
0.0
 40
0.0
 40
0.2733485915
 40
0.5273938441
 40
0.7670535579
 40
1.0
 40
1.0
 40
1.0
 40
1.0
 10
42.3163168183
 20
10.231029097
 30
0.0
 10
42.2971365767
 20
10.1227967204
 30
0.0
 10
42.2432594782
 20
9.9163161332
 30
0.0
 10
42.1082207301
 20
9.6365301358
 30
0.0
 10
41.9242139366
 20
9.4061709491
 30
0.0
 10
41.7710324762
 20
9.2897832178
 30
0.0
 10
41.6899375324
 20
9.2428993033
 30
0.0
  0
SPLINE
  5
34B
100
AcDbEntity
  8
0
100
AcDbSpline
 62
7
  6
BYLAYER
 70
0
 71
3
 72
9
 73
5
 74
0
 42
0.0000001
 43
0.0000001
 44
0.0000000001
 40
0.0
 40
0.0
 40
0.0
 40
0.0
 40
0.2412724182
 40
1.0
 40
1.0
 40
1.0
 40
1.0
 10
60.5395314429
 20
22.9868635046
 30
0.0
 10
60.5409777062
 20
22.9954995978
 30
0.0
 10
60.5461456742
 20
23.0314302061
 30
0.0
 10
60.5481255114
 20
23.0677931047
 30
0.0
 10
60.5481255114
 20
23.0953291546
 30
0.0
  0
SPLINE
  5
34C
100
AcDbEntity
  8
0
100
AcDbSpline
 62
7
  6
BYLAYER
 70
0
 71
3
 72
9
 73
5
 74
0
 42
0.0000001
 43
0.0000001
 44
0.0000000001
 40
0.0
 40
0.0
 40
0.0
 40
0.0
 40
0.4931006537
 40
1.0
 40
1.0
 40
1.0
 40
1.0
 10
39.0460246313
 20
12.004904602
 30
0.0
 10
39.0764408449
 20
12.0224060364
 30
0.0
 10
39.1417514233
 20
12.0519086515
 30
0.0
 10
39.2113796226
 20
12.068611559
 30
0.0
 10
39.2470504625
 20
12.0739894907
 30
0.0
  0
SPLINE
  5
34D
100
AcDbEntity
  8
0
100
AcDbSpline
 62
7
  6
BYLAYER
 70
0
 71
3
 72
9
 73
5
 74
0
 42
0.0000001
 43
0.0000001
 44
0.0000000001
 40
0.0
 40
0.0
 40
0.0
 40
0.0
 40
0.5177145325
 40
1.0
 40
1.0
 40
1.0
 40
1.0
 10
39.489952241
 20
12.0685499545
 30
0.0
 10
39.5288813697
 20
12.0649867984
 30
0.0
 10
39.6050841436
 20
12.0657725196
 30
0.0
 10
39.6791392367
 20
12.0847975219
 30
0.0
 10
39.7128217846
 20
12.0986416189
 30
0.0
  0
SPLINE
  5
34E
100
AcDbEntity
  8
0
100
AcDbSpline
 62
7
  6
BYLAYER
 70
0
 71
3
 72
17
 73
13
 74
0
 42
0.0000001
 43
0.0000001
 44
0.0000000001
 40
0.0
 40
0.0
 40
0.0
 40
0.0
 40
0.1546875577
 40
0.2972962538
 40
0.426801482
 40
0.5445860142
 40
0.6003334832
 40
0.6548296302
 40
0.7088938862
 40
0.7633849047
 40
0.8766316001
 40
1.0
 40
1.0
 40
1.0
 40
1.0
 10
39.1870024812
 20
9.8737412807
 30
0.0
 10
39.2948176704
 20
9.7942663214
 30
0.0
 10
39.5134230644
 20
9.6560810758
 30
0.0
 10
39.8561217209
 20
9.5123509383
 30
0.0
 10
40.1900639929
 20
9.4469922771
 30
0.0
 10
40.4557559579
 20
9.461210103
 30
0.0
 10
40.646062504
 20
9.5165325924
 30
0.0
 10
40.7753185959
 20
9.5774377232
 30
0.0
 10
40.8921590086
 20
9.6578124355
 30
0.0
 10
41.0312101631
 20
9.7914419544
 30
0.0
 10
41.1673937764
 20
10.0083693289
 30
0.0
 10
41.2259636574
 20
10.2071485145
 30
0.0
 10
41.2449680289
 20
10.3122673459
 30
0.0
  0
SPLINE
  5
34F
100
AcDbEntity
  8
0
100
AcDbSpline
 62
7
  6
BYLAYER
 70
0
 71
3
 72
18
 73
14
 74
0
 42
0.0000001
 43
0.0000001
 44
0.0000000001
 40
0.0
 40
0.0
 40
0.0
 40
0.0
 40
0.1040303331
 40
0.1522819624
 40
0.1999913801
 40
0.2491733846
 40
0.30146519
 40
0.3578119373
 40
0.4186841677
 40
0.5535307102
 40
0.7011501503
 40
0.8531112999
 40
1.0
 40
1.0
 40
1.0
 40
1.0
 10
39.1480228771
 20
10.9930877806
 30
0.0
 10
39.0968385515
 20
11.0005256456
 30
0.0
 10
39.0179596027
 20
10.9978121076
 30
0.0
 10
38.9257844989
 20
10.9581414871
 30
0.0
 10
38.8683946697
 20
10.9129386686
 30
0.0
 10
38.8238501885
 20
10.8526572849
 30
0.0
 10
38.7926317068
 20
10.7800367401
 30
0.0
 10
38.7750025903
 20
10.6971404079
 30
0.0
 10
38.7702302301
 20
10.5713824026
 30
0.0
 10
38.8032895127
 20
10.4017216788
 30
0.0
 10
38.8901072081
 20
10.2023659361
 30
0.0
 10
39.0193499692
 20
10.0201665215
 30
0.0
 10
39.1282255112
 20
9.917081711
 30
0.0
 10
39.1870011892
 20
9.8737360853
 30
0.0
  0
SPLINE
  5
350
100
AcDbEntity
  8
0
100
AcDbSpline
 62
7
  6
BYLAYER
 70
0
 71
3
 72
9
 73
5
 74
0
 42
0.0000001
 43
0.0000001
 44
0.0000000001
 40
0.0
 40
0.0
 40
0.0
 40
0.0
 40
0.2473378521
 40
1.0
 40
1.0
 40
1.0
 40
1.0
 10
39.3349888395
 20
13.3093083191
 30
0.0
 10
39.3594760412
 20
13.2841066085
 30
0.0
 10
39.4562125545
 20
13.1800338805
 30
0.0
 10
39.5440542307
 20
13.0677162754
 30
0.0
 10
39.6045623517
 20
12.9795530411
 30
0.0
  0
SPLINE
  5
351
100
AcDbEntity
  8
0
100
AcDbSpline
 62
7
  6
BYLAYER
 70
0
 71
3
 72
18
 73
14
 74
0
 42
0.0000001
 43
0.0000001
 44
0.0000000001
 40
0.0
 40
0.0
 40
0.0
 40
0.0
 40
0.1585519898
 40
0.3106192664
 40
0.4507693193
 40
0.5153661858
 40
0.5760565072
 40
0.6863550967
 40
0.7377143795
 40
0.7878158882
 40
0.8379457032
 40
0.8894184482
 40
1.0
 40
1.0
 40
1.0
 40
1.0
 10
39.6045623517
 20
12.9795530411
 30
0.0
 10
39.6828755085
 20
12.8654470154
 30
0.0
 10
39.8185888562
 20
12.6290404527
 30
0.0
 10
39.9554706743
 20
12.2582099818
 30
0.0
 10
40.006797235
 20
11.9483715089
 30
0.0
 10
40.0030702486
 20
11.7160480294
 30
0.0
 10
39.972744804
 20
11.512351647
 30
0.0
 10
39.9011538759
 20
11.3270296525
 30
0.0
 10
39.7866588831
 20
11.1804783255
 30
0.0
 10
39.6849605654
 20
11.0943063552
 30
0.0
 10
39.5673031956
 20
11.0314086169
 30
0.0
 10
39.3886785848
 20
10.9786883007
 30
0.0
 10
39.2435456513
 20
10.9792114707
 30
0.0
 10
39.1480244168
 20
10.9930818769
 30
0.0
  0
SPLINE
  5
352
100
AcDbEntity
  8
0
100
AcDbSpline
 62
7
  6
BYLAYER
 70
0
 71
3
 72
22
 73
18
 74
0
 42
0.0000001
 43
0.0000001
 44
0.0000000001
 40
0.0
 40
0.0
 40
0.0
 40
0.0
 40
0.0428180624
 40
0.0874059579
 40
0.1351958364
 40
0.1871108904
 40
0.2435656117
 40
0.3045313216
 40
0.3696364993
 40
0.4382541773
 40
0.5095612971
 40
0.5826057986
 40
0.7296242987
 40
0.8016222563
 40
0.8712293002
 40
0.9376190463
 40
1.0
 40
1.0
 40
1.0
 40
1.0
 10
54.128526757
 20
60.5989595175
 30
0.0
 10
54.2024853171
 20
60.5562597247
 30
0.0
 10
54.3426935398
 20
60.4489613763
 30
0.0
 10
54.5114191316
 20
60.235611956
 30
0.0
 10
54.6374769866
 20
59.9746858131
 30
0.0
 10
54.7191407262
 20
59.6725773654
 30
0.0
 10
54.7554797905
 20
59.3356297502
 30
0.0
 10
54.7461827901
 20
58.9707865206
 30
0.0
 10
54.6916797991
 20
58.5855609437
 30
0.0
 10
54.5931260713
 20
58.1880269949
 30
0.0
 10
54.4526517994
 20
57.7865116122
 30
0.0
 10
54.2130956903
 20
57.2564737907
 30
0.0
 10
53.9062434672
 20
56.7573317616
 30
0.0
 10
53.5435972749
 20
56.309532873
 30
0.0
 10
53.2536927803
 20
56.0118602762
 30
0.0
 10
52.9504260907
 20
55.7567304998
 30
0.0
 10
52.7363116173
 20
55.6135878386
 30
0.0
 10
52.6285625346
 20
55.551379248
 30
0.0
  0
SPLINE
  5
353
100
AcDbEntity
  8
0
100
AcDbSpline
 62
7
  6
BYLAYER
 70
0
 71
3
 72
9
 73
5
 74
0
 42
0.0000001
 43
0.0000001
 44
0.0000000001
 40
0.0
 40
0.0
 40
0.0
 40
0.0
 40
0.2420455509
 40
1.0
 40
1.0
 40
1.0
 40
1.0
 10
50.8331720122
 20
55.7521584565
 30
0.0
 10
50.8588145973
 20
55.752189626
 30
0.0
 10
50.9647442788
 20
55.755420964
 30
0.0
 10
51.070181981
 20
55.7707032554
 30
0.0
 10
51.1486493403
 20
55.7877544518
 30
0.0
  0
SPLINE
  5
354
100
AcDbEntity
  8
0
100
AcDbSpline
 62
7
  6
BYLAYER
 70
0
 71
3
 72
8
 73
4
 74
0
 42
0.0000001
 43
0.0000001
 44
0.0000000001
 40
0.0
 40
0.0
 40
0.0
 40
0.0
 40
1.0
 40
1.0
 40
1.0
 40
1.0
 10
39.226409727
 20
9.5837376607
 30
0.0
 10
39.2187144655
 20
9.5894709164
 30
0.0
 10
39.2117268704
 20
9.5962596771
 30
0.0
 10
39.2056657313
 20
9.6036994259
 30
0.0
  0
SPLINE
  5
355
100
AcDbEntity
  8
0
100
AcDbSpline
 62
7
  6
BYLAYER
 70
0
 71
3
 72
11
 73
7
 74
0
 42
0.0000001
 43
0.0000001
 44
0.0000000001
 40
0.0
 40
0.0
 40
0.0
 40
0.0
 40
0.2020338157
 40
0.4357102732
 40
0.7041903298
 40
1.0
 40
1.0
 40
1.0
 40
1.0
 10
39.2056657313
 20
9.6036994259
 30
0.0
 10
39.1937984329
 20
9.6182659485
 30
0.0
 10
39.1753463304
 20
9.6555990467
 30
0.0
 10
39.1657799258
 20
9.7210033237
 30
0.0
 10
39.1701688116
 20
9.7954223262
 30
0.0
 10
39.1803399867
 20
9.8470359684
 30
0.0
 10
39.1869992345
 20
9.8737274937
 30
0.0
  0
SPLINE
  5
356
100
AcDbEntity
  8
0
100
AcDbSpline
 62
7
  6
BYLAYER
 70
0
 71
3
 72
9
 73
5
 74
0
 42
0.0000001
 43
0.0000001
 44
0.0000000001
 40
0.0
 40
0.0
 40
0.0
 40
0.0
 40
0.4740464618
 40
1.0
 40
1.0
 40
1.0
 40
1.0
 10
59.8443935431
 20
19.8196989688
 30
0.0
 10
59.9168095218
 20
19.9142171496
 30
0.0
 10
60.0390629467
 20
20.1377133852
 30
0.0
 10
60.103411742
 20
20.3826556081
 30
0.0
 10
60.1252317154
 20
20.5129495318
 30
0.0
  0
SPLINE
  5
357
100
AcDbEntity
  8
0
100
AcDbSpline
 62
7
  6
BYLAYER
 70
0
 71
3
 72
14
 73
10
 74
0
 42
0.0000001
 43
0.0000001
 44
0.0000000001
 40
0.0
 40
0.0
 40
0.0
 40
0.0
 40
0.1061958425
 40
0.2250370375
 40
0.3546611899
 40
0.4907120082
 40
0.6281561092
 40
0.7618122451
 40
1.0
 40
1.0
 40
1.0
 40
1.0
 10
42.3162900036
 20
10.2310265804
 30
0.0
 10
42.2816652315
 20
10.2115300498
 30
0.0
 10
42.2043443197
 20
10.1770458319
 30
0.0
 10
42.0757677451
 20
10.1423048662
 30
0.0
 10
41.9323713104
 20
10.1256702414
 30
0.0
 10
41.7811295299
 20
10.1279106116
 30
0.0
 10
41.6299785974
 20
10.1504035199
 30
0.0
 10
41.4460248076
 20
10.2011324229
 30
0.0
 10
41.3189153599
 20
10.2624944782
 30
0.0
 10
41.2449783017
 20
10.312260433
 30
0.0
  0
SPLINE
  5
358
100
AcDbEntity
  8
0
100
AcDbSpline
 62
7
  6
BYLAYER
 70
0
 71
3
 72
11
 73
7
 74
0
 42
0.0000001
 43
0.0000001
 44
0.0000000001
 40
0.0
 40
0.0
 40
0.0
 40
0.0
 40
0.2505311515
 40
0.5112129691
 40
0.7658409551
 40
1.0
 40
1.0
 40
1.0
 40
1.0
 10
39.1480321655
 20
10.9930807505
 30
0.0
 10
39.1259921813
 20
11.0776073259
 30
0.0
 10
39.1050830918
 20
11.2568501519
 30
0.0
 10
39.1361128052
 20
11.5242491765
 30
0.0
 10
39.2243673097
 20
11.7725800845
 30
0.0
 10
39.3215274485
 20
11.916014888
 30
0.0
 10
39.3779835844
 20
11.9749936449
 30
0.0
  0
SPLINE
  5
359
100
AcDbEntity
  8
0
100
AcDbSpline
 62
7
  6
BYLAYER
 70
0
 71
3
 72
9
 73
5
 74
0
 42
0.0000001
 43
0.0000001
 44
0.0000000001
 40
0.0
 40
0.0
 40
0.0
 40
0.0
 40
0.2591457648
 40
1.0
 40
1.0
 40
1.0
 40
1.0
 10
39.3779835844
 20
11.9749936449
 30
0.0
 10
39.3867098605
 20
11.9841098359
 30
0.0
 10
39.4212972361
 20
12.0183875991
 30
0.0
 10
39.459648979
 20
12.048972594
 30
0.0
 10
39.4899601262
 20
12.0685377465
 30
0.0
  0
SPLINE
  5
35A
100
AcDbEntity
  8
0
100
AcDbSpline
 62
7
  6
BYLAYER
 70
0
 71
3
 72
12
 73
8
 74
0
 42
0.0000001
 43
0.0000001
 44
0.0000000001
 40
0.0
 40
0.0
 40
0.0
 40
0.0
 40
0.2423203816
 40
0.5049558069
 40
0.7647759777
 40
0.8867678364
 40
1.0
 40
1.0
 40
1.0
 40
1.0
 10
61.965300655
 20
58.7877343037
 30
0.0
 10
62.0398751413
 20
58.7371459017
 30
0.0
 10
62.179307012
 20
58.6076960216
 30
0.0
 10
62.3412788656
 20
58.3718465733
 30
0.0
 10
62.4346938108
 20
58.148719105
 30
0.0
 10
62.4743814857
 20
57.9685547623
 30
0.0
 10
62.4816854965
 20
57.8809985658
 30
0.0
 10
62.4816854965
 20
57.8388898179
 30
0.0
  0
SPLINE
  5
35B
100
AcDbEntity
  8
0
100
AcDbSpline
 62
7
  6
BYLAYER
 70
0
 71
3
 72
15
 73
11
 74
0
 42
0.0000001
 43
0.0000001
 44
0.0000000001
 40
0.0
 40
0.0
 40
0.0
 40
0.0
 40
0.1511889185
 40
0.2929646715
 40
0.4253277191
 40
0.5491847072
 40
0.6660975777
 40
0.778287438
 40
0.8885671515
 40
1.0
 40
1.0
 40
1.0
 40
1.0
 10
59.6996029878
 20
56.2326633205
 30
0.0
 10
59.5597363225
 20
56.1519117457
 30
0.0
 10
59.2806404222
 20
56.0087596267
 30
0.0
 10
58.854152521
 20
55.8489118901
 30
0.0
 10
58.4384060692
 20
55.7533479335
 30
0.0
 10
58.0391549061
 20
55.7238768396
 30
0.0
 10
57.6618728747
 20
55.7614576698
 30
0.0
 10
57.3123701199
 20
55.8666397421
 30
0.0
 10
56.9967445292
 20
56.0380007401
 30
0.0
 10
56.8148519316
 20
56.1926282725
 30
0.0
 10
56.7320040261
 20
56.2781014028
 30
0.0
  0
SPLINE
  5
35C
100
AcDbEntity
  8
0
100
AcDbSpline
 62
7
  6
BYLAYER
 70
0
 71
3
 72
11
 73
7
 74
0
 42
0.0000001
 43
0.0000001
 44
0.0000000001
 40
0.0
 40
0.0
 40
0.0
 40
0.0
 40
0.2199614526
 40
0.4573993573
 40
0.7169387256
 40
1.0
 40
1.0
 40
1.0
 40
1.0
 10
56.7320040261
 20
56.2781014028
 30
0.0
 10
56.6184960921
 20
56.3952060944
 30
0.0
 10
56.414372823
 20
56.6709970531
 30
0.0
 10
56.2006988359
 20
57.161603928
 30
0.0
 10
56.0729022705
 20
57.7285691328
 30
0.0
 10
56.0470405779
 20
58.1316593729
 30
0.0
 10
56.0470405779
 20
58.3415315057
 30
0.0
  0
SPLINE
  5
35D
100
AcDbEntity
  8
0
100
AcDbSpline
 62
7
  6
BYLAYER
 70
0
 71
3
 72
15
 73
11
 74
0
 42
0.0000001
 43
0.0000001
 44
0.0000000001
 40
0.0
 40
0.0
 40
0.0
 40
0.0
 40
0.114155655
 40
0.2373279235
 40
0.3669777313
 40
0.5000016213
 40
0.6330252854
 40
0.7626744352
 40
0.8858456634
 40
1.0
 40
1.0
 40
1.0
 40
1.0
 10
49.2100844913
 20
54.3942366309
 30
0.0
 10
49.2100844913
 20
54.105503969
 30
0.0
 10
49.1571995784
 20
53.5046723585
 30
0.0
 10
48.9463747178
 20
52.5982521173
 30
0.0
 10
48.6086451592
 20
51.6801204665
 30
0.0
 10
48.1566325938
 20
50.7848020969
 30
0.0
 10
47.6072754239
 20
49.9456872521
 30
0.0
 10
46.9810210537
 20
49.1941401846
 30
0.0
 10
46.3014576591
 20
48.5583538476
 30
0.0
 10
45.8075693867
 20
48.2121418574
 30
0.0
 10
45.5575220813
 20
48.06777784
 30
0.0
  0
SPLINE
  5
35E
100
AcDbEntity
  8
0
100
AcDbSpline
 62
7
  6
BYLAYER
 70
0
 71
3
 72
13
 73
9
 74
0
 42
0.0000001
 43
0.0000001
 44
0.0000000001
 40
0.0
 40
0.0
 40
0.0
 40
0.0
 40
0.2893747747
 40
0.5483111102
 40
0.6677410883
 40
0.7817665345
 40
0.8919061156
 40
1.0
 40
1.0
 40
1.0
 40
1.0
 10
52.6285625346
 20
55.551379248
 30
0.0
 10
52.4968947326
 20
55.4753612609
 30
0.0
 10
52.2352026936
 20
55.3507372384
 30
0.0
 10
51.8906385284
 20
55.2677063203
 30
0.0
 10
51.6313019737
 20
55.2586971718
 30
0.0
 10
51.4511849095
 20
55.2788150483
 30
0.0
 10
51.2821993806
 20
55.325484973
 30
0.0
 10
51.1777818657
 20
55.3744174777
 30
0.0
 10
51.1285983121
 20
55.4028134814
 30
0.0
  0
SPLINE
  5
35F
100
AcDbEntity
  8
0
100
AcDbSpline
 62
7
  6
BYLAYER
 70
0
 71
3
 72
11
 73
7
 74
0
 42
0.0000001
 43
0.0000001
 44
0.0000000001
 40
0.0
 40
0.0
 40
0.0
 40
0.0
 40
0.2216957273
 40
0.4571650321
 40
0.7150911995
 40
1.0
 40
1.0
 40
1.0
 40
1.0
 10
61.5437327075
 20
20.7054246425
 30
0.0
 10
61.615969071
 20
20.7471334254
 30
0.0
 10
61.7529862624
 20
20.8554038949
 30
0.0
 10
61.9142134176
 20
21.074019319
 30
0.0
 10
62.0319734016
 20
21.3443034866
 30
0.0
 10
62.0783145451
 20
21.5443141341
 30
0.0
 10
62.0950209787
 20
21.6502011051
 30
0.0
  0
SPLINE
  5
360
100
AcDbEntity
  8
0
100
AcDbSpline
 62
7
  6
BYLAYER
 70
0
 71
3
 72
11
 73
7
 74
0
 42
0.0000001
 43
0.0000001
 44
0.0000000001
 40
0.0
 40
0.0
 40
0.0
 40
0.0
 40
0.2721678226
 40
0.5266278554
 40
0.7671731245
 40
1.0
 40
1.0
 40
1.0
 40
1.0
 10
62.473091428
 20
24.1031982189
 30
0.0
 10
62.5045649852
 20
24.1218160508
 30
0.0
 10
62.5626604838
 20
24.1630104889
 30
0.0
 10
62.6339333521
 20
24.2385126439
 30
0.0
 10
62.6839550604
 20
24.3235714501
 30
0.0
 10
62.7018839825
 20
24.3854373301
 30
0.0
 10
62.7066539165
 20
24.4163536279
 30
0.0
  0
SPLINE
  5
361
100
AcDbEntity
  8
0
100
AcDbSpline
 62
7
  6
BYLAYER
 70
0
 71
3
 72
9
 73
5
 74
0
 42
0.0000001
 43
0.0000001
 44
0.0000000001
 40
0.0
 40
0.0
 40
0.0
 40
0.0
 40
0.2588880184
 40
1.0
 40
1.0
 40
1.0
 40
1.0
 10
62.4816853913
 20
24.2116638081
 30
0.0
 10
62.4816853913
 20
24.2022684231
 30
0.0
 10
62.4810074051
 20
24.1659837267
 30
0.0
 10
62.4775336379
 20
24.1297246837
 30
0.0
 10
62.4730913228
 20
24.1031981582
 30
0.0
  0
SPLINE
  5
362
100
AcDbEntity
  8
0
100
AcDbSpline
 62
7
  6
BYLAYER
 70
0
 71
3
 72
11
 73
7
 74
0
 42
0.0000001
 43
0.0000001
 44
0.0000000001
 40
0.0
 40
0.0
 40
0.0
 40
0.0
 40
0.289534827
 40
0.5490553693
 40
0.7822374428
 40
1.0
 40
1.0
 40
1.0
 40
1.0
 10
62.4816854965
 20
57.8388898179
 30
0.0
 10
62.5166953366
 20
57.8591026379
 30
0.0
 10
62.5802374266
 20
57.9028793999
 30
0.0
 10
62.6562735583
 20
57.9826156647
 30
0.0
 10
62.704507965
 20
58.070851307
 30
0.0
 10
62.7158591985
 20
58.134202216
 30
0.0
 10
62.7159702413
 20
58.1646067498
 30
0.0
  0
SPLINE
  5
363
100
AcDbEntity
  8
0
100
AcDbSpline
 62
7
  6
BYLAYER
 70
0
 71
3
 72
14
 73
10
 74
0
 42
0.0000001
 43
0.0000001
 44
0.0000000001
 40
0.0
 40
0.0
 40
0.0
 40
0.0
 40
0.2909633851
 40
0.4241080247
 40
0.5494241784
 40
0.6679512587
 40
0.7811850364
 40
0.8910969992
 40
1.0
 40
1.0
 40
1.0
 40
1.0
 10
59.1832160474
 20
57.1815066169
 30
0.0
 10
58.9772695499
 20
57.0626040609
 30
0.0
 10
58.660434668
 20
56.9139901253
 30
0.0
 10
58.2258172023
 20
56.7973709038
 30
0.0
 10
57.9193767691
 20
56.7567008326
 30
0.0
 10
57.6264124675
 20
56.7610350491
 30
0.0
 10
57.3502176854
 20
56.8107022545
 30
0.0
 10
57.0943998547
 20
56.9054755046
 30
0.0
 10
56.9399180862
 20
56.9979305921
 30
0.0
 10
56.8680301335
 20
57.0504128328
 30
0.0
  0
SPLINE
  5
364
100
AcDbEntity
  8
0
100
AcDbSpline
 62
7
  6
BYLAYER
 70
0
 71
3
 72
9
 73
5
 74
0
 42
0.0000001
 43
0.0000001
 44
0.0000000001
 40
0.0
 40
0.0
 40
0.0
 40
0.0
 40
0.5170767897
 40
1.0
 40
1.0
 40
1.0
 40
1.0
 10
53.821078574
 20
60.3365789747
 30
0.0
 10
53.7975194889
 20
60.4190122082
 30
0.0
 10
53.7404831694
 20
60.5755036379
 30
0.0
 10
53.6573263014
 20
60.7202037011
 30
0.0
 10
53.6106669841
 20
60.7852748542
 30
0.0
  0
SPLINE
  5
365
100
AcDbEntity
  8
0
100
AcDbSpline
 62
7
  6
BYLAYER
 70
0
 71
3
 72
12
 73
8
 74
0
 42
0.0000001
 43
0.0000001
 44
0.0000000001
 40
0.0
 40
0.0
 40
0.0
 40
0.0
 40
0.1132321636
 40
0.2352240223
 40
0.4950441931
 40
0.7576796184
 40
1.0
 40
1.0
 40
1.0
 40
1.0
 10
59.6996009067
 20
56.232662119
 30
0.0
 10
59.6996009067
 20
56.2747708668
 30
0.0
 10
59.6922968959
 20
56.3623270634
 30
0.0
 10
59.652609221
 20
56.5424914061
 30
0.0
 10
59.5591942758
 20
56.7656188743
 30
0.0
 10
59.3972224222
 20
57.0014683227
 30
0.0
 10
59.2577905515
 20
57.1309182028
 30
0.0
 10
59.1832160652
 20
57.1815066048
 30
0.0
  0
SPLINE
  5
366
100
AcDbEntity
  8
0
100
AcDbSpline
 62
7
  6
BYLAYER
 70
0
 71
3
 72
11
 73
7
 74
0
 42
0.0000001
 43
0.0000001
 44
0.0000000001
 40
0.0
 40
0.0
 40
0.0
 40
0.0
 40
0.2418801894
 40
0.4882769814
 40
0.741344159
 40
1.0
 40
1.0
 40
1.0
 40
1.0
 10
62.328485166
 20
21.9630190373
 30
0.0
 10
62.3234245592
 20
21.9309524249
 30
0.0
 10
62.3044233389
 20
21.8673327491
 30
0.0
 10
62.2527486498
 20
21.7812131436
 30
0.0
 10
62.1813353606
 20
21.7077058404
 30
0.0
 10
62.1249072033
 20
21.6678928046
 30
0.0
 10
62.0950283835
 20
21.6502183436
 30
0.0
  0
SPLINE
  5
367
100
AcDbEntity
  8
0
100
AcDbSpline
 62
7
  6
BYLAYER
 70
0
 71
3
 72
11
 73
7
 74
0
 42
0.0000001
 43
0.0000001
 44
0.0000000001
 40
0.0
 40
0.0
 40
0.0
 40
0.0
 40
0.2460921647
 40
0.5087746932
 40
0.7667904535
 40
1.0
 40
1.0
 40
1.0
 40
1.0
 10
55.5667883021
 20
64.9265110412
 30
0.0
 10
55.6369240442
 20
64.8736079412
 30
0.0
 10
55.7671031409
 20
64.7441148251
 30
0.0
 10
55.9179166463
 20
64.5136359824
 30
0.0
 10
56.018863475
 20
64.262324317
 30
0.0
 10
56.0470405779
 20
64.0867991702
 30
0.0
 10
56.0470405779
 20
64.0035472649
 30
0.0
  0
SPLINE
  5
368
100
AcDbEntity
  8
0
100
AcDbSpline
 62
7
  6
BYLAYER
 70
0
 71
3
 72
11
 73
7
 74
0
 42
0.0000001
 43
0.0000001
 44
0.0000000001
 40
0.0
 40
0.0
 40
0.0
 40
0.0
 40
0.289534827
 40
0.5490553693
 40
0.7822374428
 40
1.0
 40
1.0
 40
1.0
 40
1.0
 10
56.0470405779
 20
64.0035472649
 30
0.0
 10
56.082050418
 20
64.023760085
 30
0.0
 10
56.1455925079
 20
64.0675368469
 30
0.0
 10
56.2216286396
 20
64.1472731117
 30
0.0
 10
56.2698630463
 20
64.235508754
 30
0.0
 10
56.2812142798
 20
64.298859663
 30
0.0
 10
56.2813253227
 20
64.3292641968
 30
0.0
  0
SPLINE
  5
369
100
AcDbEntity
  8
0
100
AcDbSpline
 62
7
  6
BYLAYER
 70
0
 71
3
 72
12
 73
8
 74
0
 42
0.0000001
 43
0.0000001
 44
0.0000000001
 40
0.0
 40
0.0
 40
0.0
 40
0.0
 40
0.2423213032
 40
0.5049575006
 40
0.7647775402
 40
0.8867688141
 40
1.0
 40
1.0
 40
1.0
 40
1.0
 10
48.1301691749
 20
60.0290280435
 30
0.0
 10
48.2112681074
 20
59.9897402028
 30
0.0
 10
48.3930918049
 20
59.9337159989
 30
0.0
 10
48.6783294262
 20
59.9113708795
 30
0.0
 10
48.9182703917
 20
59.9420351453
 30
0.0
 10
49.0941402618
 20
59.9977462277
 30
0.0
 10
49.1736175757
 20
60.0351983323
 30
0.0
 10
49.2100844913
 20
60.0562523901
 30
0.0
  0
SPLINE
  5
36A
100
AcDbEntity
  8
0
100
AcDbSpline
 62
7
  6
BYLAYER
 70
0
 71
3
 72
11
 73
7
 74
0
 42
0.0000001
 43
0.0000001
 44
0.0000000001
 40
0.0
 40
0.0
 40
0.0
 40
0.0
 40
0.2258423767
 40
0.4625410722
 40
0.7187883307
 40
1.0
 40
1.0
 40
1.0
 40
1.0
 10
55.9806252261
 20
64.9551951797
 30
0.0
 10
55.9615989125
 20
64.9703708335
 30
0.0
 10
55.9180350412
 20
64.9960796656
 30
0.0
 10
55.8425442976
 20
65.0166172622
 30
0.0
 10
55.758554159
 20
65.0194849201
 30
0.0
 10
55.7010282639
 20
65.0102636085
 30
0.0
 10
55.6715580393
 20
65.0032042231
 30
0.0
  0
SPLINE
  5
36B
100
AcDbEntity
  8
0
100
AcDbSpline
 62
7
  6
BYLAYER
 70
0
 71
3
 72
12
 73
8
 74
0
 42
0.0000001
 43
0.0000001
 44
0.0000000001
 40
0.0
 40
0.0
 40
0.0
 40
0.0
 40
0.2503212336
 40
0.514942114
 40
0.7716396617
 40
0.8906158483
 40
1.0
 40
1.0
 40
1.0
 40
1.0
 10
48.572835297
 20
60.9047792012
 30
0.0
 10
48.5128095975
 20
60.8469819523
 30
0.0
 10
48.4013908259
 20
60.7152993341
 30
0.0
 10
48.2676755722
 20
60.4950238615
 30
0.0
 10
48.1855538687
 20
60.2970989865
 30
0.0
 10
48.1447681268
 20
60.140657282
 30
0.0
 10
48.1332638679
 20
60.0653059281
 30
0.0
 10
48.1301747926
 20
60.0290248001
 30
0.0
  0
SPLINE
  5
36C
100
AcDbEntity
  8
0
100
AcDbSpline
 62
7
  6
BYLAYER
 70
0
 71
3
 72
11
 73
7
 74
0
 42
0.0000001
 43
0.0000001
 44
0.0000000001
 40
0.0
 40
0.0
 40
0.0
 40
0.0
 40
0.2332094779
 40
0.491225246
 40
0.7539078126
 40
1.0
 40
1.0
 40
1.0
 40
1.0
 10
49.2100844913
 20
60.0562523901
 30
0.0
 10
49.2100844912
 20
60.1395042826
 30
0.0
 10
49.1819073899
 20
60.3150294323
 30
0.0
 10
49.0809605522
 20
60.5663411273
 30
0.0
 10
48.930147005
 20
60.7968200198
 30
0.0
 10
48.7999678596
 20
60.9263131572
 30
0.0
 10
48.7298320928
 20
60.9792162585
 30
0.0
  0
SPLINE
  5
36D
100
AcDbEntity
  8
0
100
AcDbSpline
 62
7
  6
BYLAYER
 70
0
 71
3
 72
12
 73
8
 74
0
 42
0.0000001
 43
0.0000001
 44
0.0000000001
 40
0.0
 40
0.0
 40
0.0
 40
0.0
 40
0.2423203812
 40
0.504955806
 40
0.7647759763
 40
0.8867678358
 40
1.0
 40
1.0
 40
1.0
 40
1.0
 10
45.0411393209
 20
49.0166235273
 30
0.0
 10
45.1157138071
 20
48.9660351255
 30
0.0
 10
45.2551456776
 20
48.8365852457
 30
0.0
 10
45.4171175309
 20
48.6007357978
 30
0.0
 10
45.5105324767
 20
48.3776083298
 30
0.0
 10
45.5502201513
 20
48.1974439867
 30
0.0
 10
45.5575241624
 20
48.1098877896
 30
0.0
 10
45.5575241624
 20
48.0677790415
 30
0.0
  0
SPLINE
  5
36E
100
AcDbEntity
  8
0
100
AcDbSpline
 62
7
  6
BYLAYER
 70
0
 71
3
 72
15
 73
11
 74
0
 42
0.0000001
 43
0.0000001
 44
0.0000000001
 40
0.0
 40
0.0
 40
0.0
 40
0.0
 40
0.1141549864
 40
0.2373269314
 40
0.3669770891
 40
0.5000016033
 40
0.6330258946
 40
0.7626754009
 40
0.8858463197
 40
1.0
 40
1.0
 40
1.0
 40
1.0
 10
48.1301691554
 20
54.3670098905
 30
0.0
 10
48.1301691554
 20
54.1228254584
 30
0.0
 10
48.0854450051
 20
53.6146945746
 30
0.0
 10
47.9071491779
 20
52.848121266
 30
0.0
 10
47.6215272118
 20
52.0716405293
 30
0.0
 10
47.2392518285
 20
51.3144520026
 30
0.0
 10
46.7746492597
 20
50.604796427
 30
0.0
 10
46.2450134176
 20
49.9692010832
 30
0.0
 10
45.6702953576
 20
49.4315085908
 30
0.0
 10
45.2526071205
 20
49.138713812
 30
0.0
 10
45.041139303
 20
49.0166235394
 30
0.0
  0
SPLINE
  5
36F
100
AcDbEntity
  8
0
100
AcDbSpline
 62
7
  6
BYLAYER
 70
0
 71
3
 72
12
 73
8
 74
0
 42
0.0000001
 43
0.0000001
 44
0.0000000001
 40
0.0
 40
0.0
 40
0.0
 40
0.0
 40
0.1132311859
 40
0.2352224598
 40
0.4950424994
 40
0.7576786968
 40
1.0
 40
1.0
 40
1.0
 40
1.0
 10
49.2100844913
 20
54.3942342277
 30
0.0
 10
49.1736175758
 20
54.3731801699
 30
0.0
 10
49.0941402618
 20
54.3357280654
 30
0.0
 10
48.9182703917
 20
54.280016983
 30
0.0
 10
48.6783294262
 20
54.2493527172
 30
0.0
 10
48.3930918049
 20
54.2716978365
 30
0.0
 10
48.2112681074
 20
54.3277220405
 30
0.0
 10
48.1301691749
 20
54.3670098811
 30
0.0
  0
SPLINE
  5
370
100
AcDbEntity
  8
0
100
AcDbSpline
 62
7
  6
BYLAYER
 70
0
 71
3
 72
11
 73
7
 74
0
 42
0.0000001
 43
0.0000001
 44
0.0000000001
 40
0.0
 40
0.0
 40
0.0
 40
0.0
 40
0.2177686238
 40
0.450898968
 40
0.7104012862
 40
1.0
 40
1.0
 40
1.0
 40
1.0
 10
56.2813270879
 20
58.6681217095
 30
0.0
 10
56.2813154328
 20
58.6376532863
 30
0.0
 10
56.2701230982
 20
58.5741368976
 30
0.0
 10
56.2219386797
 20
58.4856356081
 30
0.0
 10
56.1458038734
 20
58.4056714449
 30
0.0
 10
56.0821305168
 20
58.3617881673
 30
0.0
 10
56.0470405779
 20
58.3415291026
 30
0.0
  0
SPLINE
  5
371
100
AcDbEntity
  8
0
100
AcDbSpline
 62
7
  6
BYLAYER
 70
0
 71
3
 72
11
 73
7
 74
0
 42
0.0000001
 43
0.0000001
 44
0.0000000001
 40
0.0
 40
0.0
 40
0.0
 40
0.0
 40
0.2126662352
 40
0.443702487
 40
0.7052107113
 40
1.0
 40
1.0
 40
1.0
 40
1.0
 10
62.4152701447
 20
58.7905377327
 30
0.0
 10
62.3890847936
 20
58.8114235348
 30
0.0
 10
62.3253340237
 20
58.8444520798
 30
0.0
 10
62.2133388153
 20
58.8582472849
 30
0.0
 10
62.0896298433
 20
58.8391576374
 30
0.0
 10
62.0072104984
 20
58.8077205518
 30
0.0
 10
61.9653053689
 20
58.7877305385
 30
0.0
  0
SPLINE
  5
372
100
AcDbEntity
  8
0
100
AcDbSpline
 62
7
  6
BYLAYER
 70
0
 71
3
 72
12
 73
8
 74
0
 42
0.0000001
 43
0.0000001
 44
0.0000000001
 40
0.0
 40
0.0
 40
0.0
 40
0.0
 40
0.2423213032
 40
0.5049575006
 40
0.7647775402
 40
0.8867688141
 40
1.0
 40
1.0
 40
1.0
 40
1.0
 10
41.6955242562
 20
46.434326996
 30
0.0
 10
41.7766231887
 20
46.3950391553
 30
0.0
 10
41.9584468862
 20
46.3390149514
 30
0.0
 10
42.2436845076
 20
46.316669832
 30
0.0
 10
42.483625473
 20
46.3473340978
 30
0.0
 10
42.6594953432
 20
46.4030451803
 30
0.0
 10
42.7389726571
 20
46.4404972848
 30
0.0
 10
42.7754395726
 20
46.4615513426
 30
0.0
  0
SPLINE
  5
373
100
AcDbEntity
  8
0
100
AcDbSpline
 62
7
  6
BYLAYER
 70
0
 71
3
 72
13
 73
9
 74
0
 42
0.0000001
 43
0.0000001
 44
0.0000000001
 40
0.0
 40
0.0
 40
0.0
 40
0.0
 40
0.1121047786
 40
0.2351721168
 40
0.4999982217
 40
0.7648252832
 40
0.8878937559
 40
1.0
 40
1.0
 40
1.0
 40
1.0
 10
42.2590603493
 20
47.4103925854
 30
0.0
 10
42.2236286554
 20
47.3857059193
 30
0.0
 10
42.1533249023
 20
47.3280545145
 30
0.0
 10
42.0196167503
 20
47.1889825437
 30
0.0
 10
41.8745314334
 20
46.9816905093
 30
0.0
 10
41.7675549419
 20
46.7523960023
 30
0.0
 10
41.7139692969
 20
46.5670639035
 30
0.0
 10
41.6991934506
 20
46.477352387
 30
0.0
 10
41.695529874
 20
46.4343237526
 30
0.0
  0
SPLINE
  5
374
100
AcDbEntity
  8
0
100
AcDbSpline
 62
7
  6
BYLAYER
 70
0
 71
3
 72
12
 73
8
 74
0
 42
0.0000001
 43
0.0000001
 44
0.0000000001
 40
0.0
 40
0.0
 40
0.0
 40
0.0
 40
0.1132321353
 40
0.235223949
 40
0.4950441264
 40
0.7576795916
 40
1.0
 40
1.0
 40
1.0
 40
1.0
 10
42.7754395726
 20
46.4615513426
 30
0.0
 10
42.7754395726
 20
46.50366008
 30
0.0
 10
42.7681355774
 20
46.5912162505
 30
0.0
 10
42.728447896
 20
46.7713805667
 30
0.0
 10
42.6350329764
 20
46.994508044
 30
0.0
 10
42.473061112
 20
47.2303575208
 30
0.0
 10
42.3336292257
 20
47.3598074208
 30
0.0
 10
42.2590547312
 20
47.4103958284
 30
0.0
  0
SPLINE
  5
375
100
AcDbEntity
  8
0
100
AcDbSpline
 62
7
  6
BYLAYER
 70
0
 71
3
 72
9
 73
5
 74
0
 42
0.0000001
 43
0.0000001
 44
0.0000000001
 40
0.0
 40
0.0
 40
0.0
 40
0.0
 40
0.2466798394
 40
1.0
 40
1.0
 40
1.0
 40
1.0
 10
62.7159720066
 20
24.5382564758
 30
0.0
 10
62.7159686337
 20
24.5294389916
 30
0.0
 10
62.7142052362
 20
24.4937049109
 30
0.0
 10
62.7052086196
 20
24.4584213726
 30
0.0
 10
62.6951324293
 20
24.4334505361
 30
0.0
  0
SPLINE
  5
376
100
AcDbEntity
  8
0
100
AcDbSpline
 62
7
  6
BYLAYER
 70
0
 71
3
 72
10
 73
6
 74
0
 42
0.0000001
 43
0.0000001
 44
0.0000000001
 40
0.0
 40
0.0
 40
0.0
 40
0.0
 40
0.4601286075
 40
0.7199990062
 40
1.0
 40
1.0
 40
1.0
 40
1.0
 10
62.6951324293
 20
24.4334505361
 30
0.0
 10
62.677202841
 20
24.3890173918
 30
0.0
 10
62.6325450906
 20
24.325852523
 30
0.0
 10
62.5540792
 20
24.257296434
 30
0.0
 10
62.5069363595
 20
24.2262423744
 30
0.0
 10
62.4816854965
 20
24.2116638689
 30
0.0
  0
SPLINE
  5
377
100
AcDbEntity
  8
0
100
AcDbSpline
 62
7
  6
BYLAYER
 70
0
 71
3
 72
11
 73
7
 74
0
 42
0.0000001
 43
0.0000001
 44
0.0000000001
 40
0.0
 40
0.0
 40
0.0
 40
0.0
 40
0.2177438688
 40
0.4508811915
 40
0.7104582954
 40
1.0
 40
1.0
 40
1.0
 40
1.0
 10
63.0279853351
 20
72.0037954333
 30
0.0
 10
63.0279853309
 20
71.984755152
 30
0.0
 10
63.0209933917
 20
71.9450579764
 30
0.0
 10
62.9908800389
 20
71.8897382599
 30
0.0
 10
62.9432840977
 20
71.8397703796
 30
0.0
 10
62.9034947004
 20
71.8123342661
 30
0.0
 10
62.8815681742
 20
71.7996750559
 30
0.0
  0
SPLINE
  5
378
100
AcDbEntity
  8
0
100
AcDbSpline
 62
7
  6
BYLAYER
 70
0
 71
3
 72
11
 73
7
 74
0
 42
0.0000001
 43
0.0000001
 44
0.0000000001
 40
0.0
 40
0.0
 40
0.0
 40
0.0
 40
0.2895421522
 40
0.5491196247
 40
0.782256727
 40
1.0
 40
1.0
 40
1.0
 40
1.0
 10
21.1622680845
 20
71.799574775
 30
0.0
 10
21.140341151
 20
71.8122340096
 30
0.0
 10
21.1005510055
 20
71.839670258
 30
0.0
 10
21.0529540641
 20
71.8896384936
 30
0.0
 10
21.0228400866
 20
71.9449587614
 30
0.0
 10
21.0158479754
 20
71.9846563776
 30
0.0
 10
21.0158479796
 20
72.0036968518
 30
0.0
  0
SPLINE
  5
379
100
AcDbEntity
  8
0
100
AcDbSpline
 62
7
  6
BYLAYER
 70
0
 71
3
 72
13
 73
9
 74
0
 42
0.0000001
 43
0.0000001
 44
0.0000000001
 40
0.0
 40
0.0
 40
0.0
 40
0.0
 40
0.1141757996
 40
0.2375697486
 40
0.4999996443
 40
0.7624297362
 40
0.885823858
 40
1.0
 40
1.0
 40
1.0
 40
1.0
 10
42.375556895
 20
59.9605945936
 30
0.0
 10
42.3513707667
 20
59.9466308093
 30
0.0
 10
42.2984245688
 20
59.922006151
 30
0.0
 10
42.1811382783
 20
59.8863223722
 30
0.0
 10
42.0220039537
 20
59.8690801611
 30
0.0
 10
41.8628695296
 20
59.8863216855
 30
0.0
 10
41.7455828715
 20
59.922004849
 30
0.0
 10
41.6926364152
 20
59.9466292422
 30
0.0
 10
41.6684501138
 20
59.9605928939
 30
0.0
  0
SPLINE
  5
37A
100
AcDbEntity
  8
0
100
AcDbSpline
 62
7
  6
BYLAYER
 70
0
 71
3
 72
11
 73
7
 74
0
 42
0.0000001
 43
0.0000001
 44
0.0000000001
 40
0.0
 40
0.0
 40
0.0
 40
0.0
 40
0.2501118204
 40
0.500032278
 40
0.7499557587
 40
1.0
 40
1.0
 40
1.0
 40
1.0
 10
58.9463852026
 20
94.161850978
 30
0.0
 10
59.0148106377
 20
94.1612838779
 30
0.0
 10
59.1528200123
 20
94.1347753641
 30
0.0
 10
59.3296840216
 20
94.0210614701
 30
0.0
 10
59.4494464827
 20
93.8479109228
 30
0.0
 10
59.4776245276
 20
93.7095539347
 30
0.0
 10
59.4776245276
 20
93.6411446385
 30
0.0
  0
SPLINE
  5
37B
100
AcDbEntity
  8
0
100
AcDbSpline
 62
7
  6
BYLAYER
 70
0
 71
3
 72
11
 73
7
 74
0
 42
0.0000001
 43
0.0000001
 44
0.0000000001
 40
0.0
 40
0.0
 40
0.0
 40
0.0
 40
0.2499504514
 40
0.4999252614
 40
0.7499449071
 40
1.0
 40
1.0
 40
1.0
 40
1.0
 10
59.2170763471
 20
98.171239637
 30
0.0
 10
59.2561081334
 20
98.1487051345
 30
0.0
 10
59.3287816505
 20
98.0934123135
 30
0.0
 10
59.4126058562
 20
97.9853893608
 30
0.0
 10
59.465542833
 20
97.8592793324
 30
0.0
 10
59.477595088
 20
97.7686578187
 30
0.0
 10
59.477595088
 20
97.7235691805
 30
0.0
  0
SPLINE
  5
37C
100
AcDbEntity
  8
0
100
AcDbSpline
 62
7
  6
BYLAYER
 70
0
 71
3
 72
14
 73
10
 74
0
 42
0.0000001
 43
0.0000001
 44
0.0000000001
 40
0.0
 40
0.0
 40
0.0
 40
0.0
 40
0.3292633861
 40
0.4730223331
 40
0.6020844398
 40
0.7169524167
 40
0.8197049074
 40
0.9129415285
 40
1.0
 40
1.0
 40
1.0
 40
1.0
 10
56.7676117337
 20
94.6865176438
 30
0.0
 10
56.642458356
 20
94.7587733454
 30
0.0
 10
56.4695716278
 20
94.8767079754
 30
0.0
 10
56.2777323648
 20
95.0590860144
 30
0.0
 10
56.1683720505
 20
95.1900262109
 30
0.0
 10
56.0867933888
 20
95.3190411823
 30
0.0
 10
56.031155286
 20
95.4442039321
 30
0.0
 10
55.9993116335
 20
95.5648551827
 30
0.0
 10
55.9924794057
 20
95.6441470274
 30
0.0
 10
55.9924794057
 20
95.6823570315
 30
0.0
  0
SPLINE
  5
37D
100
AcDbEntity
  8
0
100
AcDbSpline
 62
7
  6
BYLAYER
 70
0
 71
3
 72
11
 73
7
 74
0
 42
0.0000001
 43
0.0000001
 44
0.0000000001
 40
0.0
 40
0.0
 40
0.0
 40
0.0
 40
0.270165255
 40
0.531888505
 40
0.7775437428
 40
1.0
 40
1.0
 40
1.0
 40
1.0
 10
58.9463852026
 20
94.161850978
 30
0.0
 10
58.7425953005
 20
94.1635399589
 30
0.0
 10
58.3412022559
 20
94.1888176223
 30
0.0
 10
57.7623885486
 20
94.2914526269
 30
0.0
 10
57.2346271166
 20
94.4530156566
 30
0.0
 10
56.9129385616
 20
94.6026150587
 30
0.0
 10
56.7676117337
 20
94.6865176438
 30
0.0
  0
SPLINE
  5
37E
100
AcDbEntity
  8
0
100
AcDbSpline
 62
7
  6
BYLAYER
 70
0
 71
3
 72
11
 73
7
 74
0
 42
0.0000001
 43
0.0000001
 44
0.0000000001
 40
0.0
 40
0.0
 40
0.0
 40
0.0
 40
0.2140641713
 40
0.4462330285
 40
0.7071579177
 40
1.0
 40
1.0
 40
1.0
 40
1.0
 10
39.0222963654
 20
84.2763534809
 30
0.0
 10
39.0217528881
 20
84.2544957222
 30
0.0
 10
39.0118510056
 20
84.2088400728
 30
0.0
 10
38.9735465257
 20
84.1463750744
 30
0.0
 10
38.9144831264
 20
84.0909440907
 30
0.0
 10
38.8658598282
 20
84.0613319068
 30
0.0
 10
38.8391571073
 20
84.0478550362
 30
0.0
  0
SPLINE
  5
37F
100
AcDbEntity
  8
0
100
AcDbSpline
 62
7
  6
BYLAYER
 70
0
 71
3
 72
10
 73
6
 74
0
 42
0.0000001
 43
0.0000001
 44
0.0000000001
 40
0.0
 40
0.0
 40
0.0
 40
0.0
 40
0.5198787791
 40
0.7630519042
 40
1.0
 40
1.0
 40
1.0
 40
1.0
 10
39.3107306703
 20
84.9928924395
 30
0.0
 10
39.2244558677
 20
84.8877454011
 30
0.0
 10
39.1163144555
 20
84.7149262626
 30
0.0
 10
39.0388590224
 20
84.4639104976
 30
0.0
 10
39.0238372485
 20
84.3383252487
 30
0.0
 10
39.0222963654
 20
84.2763534809
 30
0.0
  0
SPLINE
  5
380
100
AcDbEntity
  8
0
100
AcDbSpline
 62
7
  6
BYLAYER
 70
0
 71
3
 72
11
 73
7
 74
0
 42
0.0000001
 43
0.0000001
 44
0.0000000001
 40
0.0
 40
0.0
 40
0.0
 40
0.0
 40
0.2353730459
 40
0.4774593765
 40
0.7310374422
 40
1.0
 40
1.0
 40
1.0
 40
1.0
 10
45.0216989137
 20
84.2755537222
 30
0.0
 10
45.020083633
 20
84.341196165
 30
0.0
 10
45.0035573619
 20
84.474363422
 30
0.0
 10
44.9400870415
 20
84.6693480602
 30
0.0
 10
44.8387998797
 20
84.8581980049
 30
0.0
 10
44.7501470531
 20
84.9746948029
 30
0.0
 10
44.7007932754
 20
85.0312114285
 30
0.0
  0
SPLINE
  5
381
100
AcDbEntity
  8
0
100
AcDbSpline
 62
7
  6
BYLAYER
 70
0
 71
3
 72
11
 73
7
 74
0
 42
0.0000001
 43
0.0000001
 44
0.0000000001
 40
0.0
 40
0.0
 40
0.0
 40
0.0
 40
0.2927467722
 40
0.5536519344
 40
0.7859473618
 40
1.0
 40
1.0
 40
1.0
 40
1.0
 10
45.2048204547
 20
84.0478703373
 30
0.0
 10
45.1781958372
 20
84.0613075633
 30
0.0
 10
45.1296988855
 20
84.0908164865
 30
0.0
 10
45.0707541507
 20
84.1460623651
 30
0.0
 10
45.032391821
 20
84.208246225
 30
0.0
 10
45.0222743701
 20
84.2537549059
 30
0.0
 10
45.0216989137
 20
84.2755537222
 30
0.0
  0
SPLINE
  5
382
100
AcDbEntity
  8
0
100
AcDbSpline
 62
7
  6
BYLAYER
 70
0
 71
3
 72
11
 73
7
 74
0
 42
0.0000001
 43
0.0000001
 44
0.0000000001
 40
0.0
 40
0.0
 40
0.0
 40
0.0
 40
0.2633674596
 40
0.5209895195
 40
0.7678767073
 40
1.0
 40
1.0
 40
1.0
 40
1.0
 10
58.9353359783
 20
94.0701805468
 30
0.0
 10
58.7328797113
 20
94.072090533
 30
0.0
 10
58.3322730246
 20
94.095870045
 30
0.0
 10
57.748602548
 20
94.1910111319
 30
0.0
 10
57.2017903307
 20
94.3426023777
 30
0.0
 10
56.8602463833
 20
94.4835761263
 30
0.0
 10
56.7006469132
 20
94.5633948836
 30
0.0
  0
SPLINE
  5
383
100
AcDbEntity
  8
0
100
AcDbSpline
 62
7
  6
BYLAYER
 70
0
 71
3
 72
12
 73
8
 74
0
 42
0.0000001
 43
0.0000001
 44
0.0000000001
 40
0.0
 40
0.0
 40
0.0
 40
0.0
 40
0.1339858254
 40
0.2790637129
 40
0.5609192112
 40
0.8047460835
 40
1.0
 40
1.0
 40
1.0
 40
1.0
 10
45.2048204547
 20
84.0478703373
 30
0.0
 10
45.2379556789
 20
84.0311472616
 30
0.0
 10
45.3065303174
 20
83.9954497094
 30
0.0
 10
45.443590736
 20
83.922248764
 30
0.0
 10
45.606792509
 20
83.8334140857
 30
0.0
 10
45.7819926131
 20
83.7375560188
 30
0.0
 10
45.8888280425
 20
83.6794116917
 30
0.0
 10
45.9364599667
 20
83.6537847226
 30
0.0
  0
SPLINE
  5
384
100
AcDbEntity
  8
0
100
AcDbSpline
 62
7
  6
BYLAYER
 70
0
 71
3
 72
13
 73
9
 74
0
 42
0.0000001
 43
0.0000001
 44
0.0000000001
 40
0.0
 40
0.0
 40
0.0
 40
0.0
 40
0.2716874981
 40
0.5311609062
 40
0.6544297418
 40
0.7729302482
 40
0.8876972495
 40
1.0
 40
1.0
 40
1.0
 40
1.0
 10
45.5216263248
 20
86.3217698725
 30
0.0
 10
45.4569243359
 20
86.3212333208
 30
0.0
 10
45.3296866484
 20
86.3001728731
 30
0.0
 10
45.1895035176
 20
86.2243728592
 30
0.0
 10
45.1043552059
 20
86.1396850399
 30
0.0
 10
45.0573502715
 20
86.0681534256
 30
0.0
 10
45.0283318784
 20
85.9904012707
 30
0.0
 10
45.0216778944
 20
85.9361184192
 30
0.0
 10
45.0216778944
 20
85.9093727603
 30
0.0
  0
SPLINE
  5
385
100
AcDbEntity
  8
0
100
AcDbSpline
 62
7
  6
BYLAYER
 70
0
 71
3
 72
13
 73
9
 74
0
 42
0.0000001
 43
0.0000001
 44
0.0000000001
 40
0.0
 40
0.0
 40
0.0
 40
0.0
 40
0.1141740719
 40
0.2375653782
 40
0.500000995
 40
0.7624360899
 40
0.8858267788
 40
1.0
 40
1.0
 40
1.0
 40
1.0
 10
45.9364599667
 20
85.6950407655
 30
0.0
 10
45.9364599667
 20
85.7229681418
 30
0.0
 10
45.9313142168
 20
85.7811324973
 30
0.0
 10
45.9035746252
 20
85.900548271
 30
0.0
 10
45.8389406427
 20
86.0469872444
 30
0.0
 10
45.744437274
 20
86.1761808849
 30
0.0
 10
45.6548897946
 20
86.2599110636
 30
0.0
 10
45.6070908781
 20
86.2934490041
 30
0.0
 10
45.5829051041
 20
86.3074123513
 30
0.0
  0
SPLINE
  5
386
100
AcDbEntity
  8
0
100
AcDbSpline
 62
7
  6
BYLAYER
 70
0
 71
3
 72
17
 73
13
 74
0
 42
0.0000001
 43
0.0000001
 44
0.0000000001
 40
0.0
 40
0.0
 40
0.0
 40
0.0
 40
0.0428170843
 40
0.0876140918
 40
0.1356522911
 40
0.1878101175
 40
0.3053825064
 40
0.4391237286
 40
0.5833308921
 40
0.730233323
 40
0.8715523132
 40
1.0
 40
1.0
 40
1.0
 40
1.0
 10
45.0216778945
 20
85.9093727603
 30
0.0
 10
45.0220553797
 20
85.8941997295
 30
0.0
 10
45.0269078473
 20
85.8631334961
 30
0.0
 10
45.0456774773
 20
85.8184261077
 30
0.0
 10
45.0754749702
 20
85.7761209243
 30
0.0
 10
45.130892076
 20
85.7218909648
 30
0.0
 10
45.2244539338
 20
85.6659684746
 30
0.0
 10
45.3584224795
 20
85.621967071
 30
0.0
 10
45.508384223
 20
85.6014219633
 30
0.0
 10
45.6623235439
 20
85.6060255278
 30
0.0
 10
45.8077835116
 20
85.6353835799
 30
0.0
 10
45.8970281143
 20
85.6722749108
 30
0.0
 10
45.9364599667
 20
85.6950407655
 30
0.0
  0
SPLINE
  5
387
100
AcDbEntity
  8
0
100
AcDbSpline
 62
7
  6
BYLAYER
 70
0
 71
3
 72
13
 73
9
 74
0
 42
0.0000001
 43
0.0000001
 44
0.0000000001
 40
0.0
 40
0.0
 40
0.0
 40
0.0
 40
0.1141731906
 40
0.2375638026
 40
0.4999988264
 40
0.7624345143
 40
0.8858258975
 40
1.0
 40
1.0
 40
1.0
 40
1.0
 10
58.9671102398
 20
94.0347406633
 30
0.0
 10
58.9912960073
 20
94.0207773198
 30
0.0
 10
59.0390949073
 20
93.9872394018
 30
0.0
 10
59.1286423529
 20
93.9035092507
 30
0.0
 10
59.2231457287
 20
93.7743156425
 30
0.0
 10
59.2877797428
 20
93.627876659
 30
0.0
 10
59.3155193413
 20
93.5084608424
 30
0.0
 10
59.3206651024
 20
93.4502964614
 30
0.0
 10
59.3206651024
 20
93.4223690775
 30
0.0
  0
SPLINE
  5
388
100
AcDbEntity
  8
0
100
AcDbSpline
 62
7
  6
BYLAYER
 70
0
 71
3
 72
11
 73
7
 74
0
 42
0.0000001
 43
0.0000001
 44
0.0000000001
 40
0.0
 40
0.0
 40
0.0
 40
0.0
 40
0.2896788155
 40
0.5491358697
 40
0.7822438686
 40
1.0
 40
1.0
 40
1.0
 40
1.0
 10
59.3206651024
 20
93.4223690775
 30
0.0
 10
59.3441775691
 20
93.4359439254
 30
0.0
 10
59.3868373668
 20
93.4653370385
 30
0.0
 10
59.4378320384
 20
93.5189142043
 30
0.0
 10
59.4700920964
 20
93.5781948569
 30
0.0
 10
59.4776141259
 20
93.6207356945
 30
0.0
 10
59.477621223
 20
93.6411446389
 30
0.0
  0
SPLINE
  5
389
100
AcDbEntity
  8
0
100
AcDbSpline
 62
7
  6
BYLAYER
 70
0
 71
3
 72
14
 73
10
 74
0
 42
0.0000001
 43
0.0000001
 44
0.0000000001
 40
0.0
 40
0.0
 40
0.0
 40
0.0
 40
0.1243362452
 40
0.2309251784
 40
0.3267765343
 40
0.4273887798
 40
0.5448076964
 40
0.6825625206
 40
1.0
 40
1.0
 40
1.0
 40
1.0
 10
58.9671102398
 20
94.0347406633
 30
0.0
 10
58.9693811076
 20
94.0360517416
 30
0.0
 10
58.9733311026
 20
94.0390123783
 30
0.0
 10
58.9773442727
 20
94.0448641114
 30
0.0
 10
58.9779977069
 20
94.0515266544
 30
0.0
 10
58.9751435468
 20
94.0577711692
 30
0.0
 10
58.9695306007
 20
94.0629486876
 30
0.0
 10
58.9587061363
 20
94.0685037114
 30
0.0
 10
58.9489357323
 20
94.0700638763
 30
0.0
 10
58.9422414178
 20
94.0701193578
 30
0.0
  0
SPLINE
  5
38A
100
AcDbEntity
  8
0
100
AcDbSpline
 62
7
  6
BYLAYER
 70
0
 71
3
 72
12
 73
8
 74
0
 42
0.0000001
 43
0.0000001
 44
0.0000000001
 40
0.0
 40
0.0
 40
0.0
 40
0.0
 40
0.1841313572
 40
0.3027750722
 40
0.4374014704
 40
0.7295084325
 40
1.0
 40
1.0
 40
1.0
 40
1.0
 10
45.5216263248
 20
86.3217698725
 30
0.0
 10
45.5217342269
 20
86.3174327433
 30
0.0
 10
45.5263279806
 20
86.3106335251
 30
0.0
 10
45.5352126846
 20
86.3055054988
 30
0.0
 10
45.5475195338
 20
86.3014097613
 30
0.0
 10
45.5641962277
 20
86.3006499908
 30
0.0
 10
45.5773856774
 20
86.3042257278
 30
0.0
 10
45.5829051041
 20
86.3074123513
 30
0.0
  0
SPLINE
  5
38B
100
AcDbEntity
  8
0
100
AcDbSpline
 62
7
  6
BYLAYER
 70
0
 71
3
 72
14
 73
10
 74
0
 42
0.0000001
 43
0.0000001
 44
0.0000000001
 40
0.0
 40
0.0
 40
0.0
 40
0.0
 40
0.2888152545
 40
0.4220984175
 40
0.5481610477
 40
0.6677295167
 40
0.7819076144
 40
0.8921256588
 40
1.0
 40
1.0
 40
1.0
 40
1.0
 10
44.4968507428
 20
87.7216030857
 30
0.0
 10
44.6478282486
 20
87.634438154
 30
0.0
 10
44.8595092774
 20
87.4891169153
 30
0.0
 10
45.100052895
 20
87.2611388469
 30
0.0
 10
45.2473629617
 20
87.0854198498
 30
0.0
 10
45.3648290677
 20
86.9019710869
 30
0.0
 10
45.4513006468
 20
86.7123577625
 30
0.0
 10
45.5055624958
 20
86.5184332005
 30
0.0
 10
45.5200068638
 20
86.3868641522
 30
0.0
 10
45.5216263248
 20
86.3217698725
 30
0.0
  0
SPLINE
  5
38C
100
AcDbEntity
  8
0
100
AcDbSpline
 62
7
  6
BYLAYER
 70
0
 71
3
 72
23
 73
19
 74
0
 42
0.0000001
 43
0.0000001
 44
0.0000000001
 40
0.0
 40
0.0
 40
0.0
 40
0.0
 40
0.0428171955
 40
0.0875539159
 40
0.135549846
 40
0.1876943817
 40
0.2443520681
 40
0.3054690205
 40
0.3706614089
 40
0.4392958061
 40
0.510555423
 40
0.5834965431
 40
0.6571007025
 40
0.7303221867
 40
0.8021303088
 40
0.8715481344
 40
0.937751008
 40
1.0
 40
1.0
 40
1.0
 40
1.0
 10
38.5223478819
 20
86.3217530483
 30
0.0
 10
38.5248144424
 20
86.420954036
 30
0.0
 10
38.5563434868
 20
86.6239649904
 30
0.0
 10
38.6792692117
 20
86.9159347345
 30
0.0
 10
38.8739090305
 20
87.1922674695
 30
0.0
 10
39.1347776044
 20
87.4476492983
 30
0.0
 10
39.4561041243
 20
87.6775655294
 30
0.0
 10
39.8310947895
 20
87.8777444971
 30
0.0
 10
40.2519939439
 20
88.0442942655
 30
0.0
 10
40.7100672509
 20
88.1738382997
 30
0.0
 10
41.1957453545
 20
88.2636912187
 30
0.0
 10
41.6988256184
 20
88.3119901638
 30
0.0
 10
42.2087166525
 20
88.3177300463
 30
0.0
 10
42.7146792107
 20
88.2807812274
 30
0.0
 10
43.2060224264
 20
88.2018943453
 30
0.0
 10
43.6725142493
 20
88.0827705289
 30
0.0
 10
44.1042064841
 20
87.9258356834
 30
0.0
 10
44.3719119241
 20
87.7937349145
 30
0.0
 10
44.4968507428
 20
87.7216030857
 30
0.0
  0
SPLINE
  5
38D
100
AcDbEntity
  8
0
100
AcDbSpline
 62
7
  6
BYLAYER
 70
0
 71
3
 72
12
 73
8
 74
0
 42
0.0000001
 43
0.0000001
 44
0.0000000001
 40
0.0
 40
0.0
 40
0.0
 40
0.0
 40
0.2704925919
 40
0.5625997157
 40
0.6972258636
 40
0.8158691933
 40
1.0
 40
1.0
 40
1.0
 40
1.0
 10
38.4610693096
 20
86.3073952325
 30
0.0
 10
38.4665887743
 20
86.3042086401
 30
0.0
 10
38.4797782498
 20
86.3006329659
 30
0.0
 10
38.4964549483
 20
86.3013928074
 30
0.0
 10
38.5087617503
 20
86.3054886073
 30
0.0
 10
38.517646389
 20
86.310616675
 30
0.0
 10
38.5222400427
 20
86.3174159352
 30
0.0
 10
38.5223478819
 20
86.3217530483
 30
0.0
  0
SPLINE
  5
38E
100
AcDbEntity
  8
0
100
AcDbSpline
 62
7
  6
BYLAYER
 70
0
 71
3
 72
14
 73
10
 74
0
 42
0.0000001
 43
0.0000001
 44
0.0000000001
 40
0.0
 40
0.0
 40
0.0
 40
0.0
 40
0.3174372166
 40
0.4551916109
 40
0.5726100661
 40
0.6732220532
 40
0.7690735769
 40
0.8756630659
 40
1.0
 40
1.0
 40
1.0
 40
1.0
 10
58.942212277
 20
98.1110968808
 30
0.0
 10
58.9489065798
 20
98.1111523944
 30
0.0
 10
58.9586769559
 20
98.1127125995
 30
0.0
 10
58.9695013534
 20
98.1182676797
 30
0.0
 10
58.9751142315
 20
98.1234452303
 30
0.0
 10
58.977968301
 20
98.1296897709
 30
0.0
 10
58.9773147624
 20
98.1363523069
 30
0.0
 10
58.9733015121
 20
98.1422040093
 30
0.0
 10
58.9693514766
 20
98.1451646267
 30
0.0
 10
58.9670805888
 20
98.1464756948
 30
0.0
  0
SPLINE
  5
38F
100
AcDbEntity
  8
0
100
AcDbSpline
 62
7
  6
BYLAYER
 70
0
 71
3
 72
23
 73
19
 74
0
 42
0.0000001
 43
0.0000001
 44
0.0000000001
 40
0.0
 40
0.0
 40
0.0
 40
0.0
 40
0.0649006307
 40
0.1247426445
 40
0.1797493013
 40
0.2307725317
 40
0.2791990789
 40
0.3268876169
 40
0.375841689
 40
0.4278186146
 40
0.4840647604
 40
0.5452455154
 40
0.6115073461
 40
0.6825819524
 40
0.7578795206
 40
0.8365564145
 40
0.9176556469
 40
1.0
 40
1.0
 40
1.0
 40
1.0
 10
56.5176159754
 20
94.6617537015
 30
0.0
 10
56.4014822374
 20
94.7288020296
 30
0.0
 10
56.1857094377
 20
94.8714504983
 30
0.0
 10
55.9080274221
 20
95.1203834523
 30
0.0
 10
55.6951288507
 20
95.3915897295
 30
0.0
 10
55.5524482717
 20
95.6799935972
 30
0.0
 10
55.4848750403
 20
95.9796428533
 30
0.0
 10
55.4954058522
 20
96.2825274218
 30
0.0
 10
55.583501557
 20
96.5798640445
 30
0.0
 10
55.7454809247
 20
96.8641964352
 30
0.0
 10
55.9763024585
 20
97.1298647376
 30
0.0
 10
56.2703552325
 20
97.3721455343
 30
0.0
 10
56.6213255892
 20
97.5866514636
 30
0.0
 10
57.0219476513
 20
97.7692759169
 30
0.0
 10
57.4639055784
 20
97.9163448585
 30
0.0
 10
57.9380414444
 20
98.0249384007
 30
0.0
 10
58.434318293
 20
98.0926744022
 30
0.0
 10
58.7720766407
 20
98.1096860034
 30
0.0
 10
58.942212277
 20
98.1110968808
 30
0.0
  0
SPLINE
  5
390
100
AcDbEntity
  8
0
100
AcDbSpline
 62
7
  6
BYLAYER
 70
0
 71
3
 72
11
 73
7
 74
0
 42
0.0000001
 43
0.0000001
 44
0.0000000001
 40
0.0
 40
0.0
 40
0.0
 40
0.0
 40
0.2895373801
 40
0.5491091728
 40
0.7822513189
 40
1.0
 40
1.0
 40
1.0
 40
1.0
 10
62.8815681742
 20
93.4369891098
 30
0.0
 10
62.9034946171
 20
93.449648272
 30
0.0
 10
62.943284654
 20
93.4770829421
 30
0.0
 10
62.9908810792
 20
93.5270507121
 30
0.0
 10
63.0209974345
 20
93.5823699916
 30
0.0
 10
63.0279900834
 20
93.6220685728
 30
0.0
 10
63.0279900826
 20
93.6411094871
 30
0.0
  0
SPLINE
  5
391
100
AcDbEntity
  8
0
100
AcDbSpline
 62
7
  6
BYLAYER
 70
0
 71
3
 72
13
 73
9
 74
0
 42
0.0000001
 43
0.0000001
 44
0.0000000001
 40
0.0
 40
0.0
 40
0.0
 40
0.0
 40
0.1141732089
 40
0.2375638708
 40
0.4999989157
 40
0.7624345537
 40
0.8858259098
 40
1.0
 40
1.0
 40
1.0
 40
1.0
 10
62.5280133116
 20
94.0493606956
 30
0.0
 10
62.552199083
 20
94.0353973499
 30
0.0
 10
62.599997994
 20
94.0018594184
 30
0.0
 10
62.6895454548
 20
93.9181292517
 30
0.0
 10
62.7840488288
 20
93.7889356338
 30
0.0
 10
62.8486828206
 20
93.642496657
 30
0.0
 10
62.8764224181
 20
93.5230808625
 30
0.0
 10
62.8815681742
 20
93.4649164907
 30
0.0
 10
62.8815681742
 20
93.4369891098
 30
0.0
  0
SPLINE
  5
392
100
AcDbEntity
  8
0
100
AcDbSpline
 62
7
  6
BYLAYER
 70
0
 71
3
 72
11
 73
7
 74
0
 42
0.0000001
 43
0.0000001
 44
0.0000000001
 40
0.0
 40
0.0
 40
0.0
 40
0.0
 40
0.2177504419
 40
0.4508934119
 40
0.7104646156
 40
1.0
 40
1.0
 40
1.0
 40
1.0
 10
62.7779974555
 20
94.0741045209
 30
0.0
 10
62.7615073557
 20
94.083624872
 30
0.0
 10
62.7236309107
 20
94.0974182091
 30
0.0
 10
62.6606648463
 20
94.0989965305
 30
0.0
 10
62.5935935002
 20
94.0827611804
 30
0.0
 10
62.549939549
 20
94.0620197391
 30
0.0
 10
62.5280133116
 20
94.0493606956
 30
0.0
  0
SPLINE
  5
393
100
AcDbEntity
  8
0
100
AcDbSpline
 62
7
  6
BYLAYER
 70
0
 71
3
 72
10
 73
6
 74
0
 42
0.0000001
 43
0.0000001
 44
0.0000000001
 40
0.0
 40
0.0
 40
0.0
 40
0.0
 40
0.2031426367
 40
0.464487112
 40
1.0
 40
1.0
 40
1.0
 40
1.0
 10
58.942212277
 20
98.1110968808
 30
0.0
 10
58.9433860078
 20
98.0639187398
 30
0.0
 10
58.9453151171
 20
97.9560274858
 30
0.0
 10
58.9481993379
 20
97.7237325588
 30
0.0
 10
58.9493932954
 20
97.5386112116
 30
0.0
 10
58.9493932954
 20
97.4142044378
 30
0.0
  0
SPLINE
  5
394
100
AcDbEntity
  8
0
100
AcDbSpline
 62
7
  6
BYLAYER
 70
0
 71
3
 72
10
 73
6
 74
0
 42
0.0000001
 43
0.0000001
 44
0.0000000001
 40
0.0
 40
0.0
 40
0.0
 40
0.0
 40
0.2429016855
 40
0.4922189314
 40
1.0
 40
1.0
 40
1.0
 40
1.0
 10
59.4776229164
 20
91.8969020128
 30
0.0
 10
59.4776263304
 20
91.8528245868
 30
0.0
 10
59.4689638464
 20
91.7633956214
 30
0.0
 10
59.4251790183
 20
91.5869310187
 30
0.0
 10
59.3675325808
 20
91.4604462954
 30
0.0
 10
59.3206651024
 20
91.3811130347
 30
0.0
  0
SPLINE
  5
395
100
AcDbEntity
  8
0
100
AcDbSpline
 62
7
  6
BYLAYER
 70
0
 71
3
 72
14
 73
10
 74
0
 42
0.0000001
 43
0.0000001
 44
0.0000000001
 40
0.0
 40
0.0
 40
0.0
 40
0.0
 40
0.3062926934
 40
0.4498610371
 40
0.5828971411
 40
0.7035722156
 40
0.8116346478
 40
0.9089709107
 40
1.0
 40
1.0
 40
1.0
 40
1.0
 10
58.9493932954
 20
97.4142044378
 30
0.0
 10
59.0174651834
 20
97.414768935
 30
0.0
 10
59.1179885664
 20
97.4263987679
 30
0.0
 10
59.2419590181
 20
97.4649779045
 30
0.0
 10
59.322087786
 20
97.5029050229
 30
0.0
 10
59.3884023148
 20
97.5491625437
 30
0.0
 10
59.438514075
 20
97.6024171235
 30
0.0
 10
59.4702101206
 20
97.6611884099
 30
0.0
 10
59.4775760295
 20
97.7033377636
 30
0.0
 10
59.4775746407
 20
97.72356918
 30
0.0
  0
SPLINE
  5
396
100
AcDbEntity
  8
0
100
AcDbSpline
 62
7
  6
BYLAYER
 70
0
 71
3
 72
11
 73
7
 74
0
 42
0.0000001
 43
0.0000001
 44
0.0000000001
 40
0.0
 40
0.0
 40
0.0
 40
0.0
 40
0.2177482241
 40
0.4508901735
 40
0.7104621366
 40
1.0
 40
1.0
 40
1.0
 40
1.0
 10
21.0158432321
 20
95.6822669487
 30
0.0
 10
21.015843233
 20
95.6632258292
 30
0.0
 10
21.0228360413
 20
95.62352679
 30
0.0
 10
21.0529530482
 20
95.5682069753
 30
0.0
 10
21.1005504384
 20
95.5182388348
 30
0.0
 10
21.1403412312
 20
95.49080406
 30
0.0
 10
21.1622680845
 20
95.4781448718
 30
0.0
  0
SPLINE
  5
397
100
AcDbEntity
  8
0
100
AcDbSpline
 62
7
  6
BYLAYER
 70
0
 71
3
 72
23
 73
19
 74
0
 42
0.0000001
 43
0.0000001
 44
0.0000000001
 40
0.0
 40
0.0
 40
0.0
 40
0.0
 40
0.0428123161
 40
0.0875542973
 40
0.1355489457
 40
0.187693618
 40
0.2443514877
 40
0.3054673858
 40
0.3706609992
 40
0.4392961389
 40
0.5105552492
 40
0.5834970834
 40
0.6571014057
 40
0.7303236983
 40
0.8021307795
 40
0.8715470172
 40
0.9377577597
 40
1.0
 40
1.0
 40
1.0
 40
1.0
 10
39.022296372
 20
85.9093583409
 30
0.0
 10
39.0244103253
 20
85.9943780474
 30
0.0
 10
39.0514541972
 20
86.1683839365
 30
0.0
 10
39.1567891376
 20
86.4186517526
 30
0.0
 10
39.3236237092
 20
86.6555223102
 30
0.0
 10
39.5472436049
 20
86.8743989021
 30
0.0
 10
39.822656103
 20
87.0714784362
 30
0.0
 10
40.1440703059
 20
87.2430755931
 30
0.0
 10
40.5048465455
 20
87.3858254306
 30
0.0
 10
40.8974871424
 20
87.4968486769
 30
0.0
 10
41.3137808975
 20
87.5738818087
 30
0.0
 10
41.7449933298
 20
87.6152870468
 30
0.0
 10
42.1820465051
 20
87.6201925395
 30
0.0
 10
42.6157270638
 20
87.5885141443
 30
0.0
 10
43.036877836
 20
87.5209176672
 30
0.0
 10
43.4367376114
 20
87.4188028051
 30
0.0
 10
43.8067508069
 20
87.284268645
 30
0.0
 10
44.0362200506
 20
87.1710503604
 30
0.0
 10
44.1432988242
 20
87.1092298002
 30
0.0
  0
SPLINE
  5
398
100
AcDbEntity
  8
0
100
AcDbSpline
 62
7
  6
BYLAYER
 70
0
 71
3
 72
11
 73
7
 74
0
 42
0.0000001
 43
0.0000001
 44
0.0000000001
 40
0.0
 40
0.0
 40
0.0
 40
0.0
 40
0.2177508335
 40
0.4508940037
 40
0.710465094
 40
1.0
 40
1.0
 40
1.0
 40
1.0
 10
41.771844016
 20
107.9543406421
 30
0.0
 10
41.78833427
 20
107.9638612398
 30
0.0
 10
41.8262110944
 20
107.9776550513
 30
0.0
 10
41.8891779223
 20
107.9792339287
 30
0.0
 10
41.9562501571
 20
107.9629989589
 30
0.0
 10
41.9999047336
 20
107.9422576319
 30
0.0
 10
42.0218312823
 20
107.9295986195
 30
0.0
  0
SPLINE
  5
399
100
AcDbEntity
  8
0
100
AcDbSpline
 62
7
  6
BYLAYER
 70
0
 71
3
 72
13
 73
9
 74
0
 42
0.0000001
 43
0.0000001
 44
0.0000000001
 40
0.0
 40
0.0
 40
0.0
 40
0.0
 40
0.1141740902
 40
0.2375654463
 40
0.5000010843
 40
0.7624361292
 40
0.8858267911
 40
1.0
 40
1.0
 40
1.0
 40
1.0
 10
42.375556895
 20
81.5979086475
 30
0.0
 10
42.375556895
 20
81.6258360284
 30
0.0
 10
42.3704111389
 20
81.6840004002
 30
0.0
 10
42.3426715414
 20
81.8034161947
 30
0.0
 10
42.2780375496
 20
81.9498551715
 30
0.0
 10
42.1835341756
 20
82.0790487894
 30
0.0
 10
42.0939867148
 20
82.1627789561
 30
0.0
 10
42.0461878038
 20
82.1963168876
 30
0.0
 10
42.0220020324
 20
82.2102802333
 30
0.0
  0
SPLINE
  5
39A
100
AcDbEntity
  8
0
100
AcDbSpline
 62
7
  6
BYLAYER
 70
0
 71
3
 72
13
 73
9
 74
0
 42
0.0000001
 43
0.0000001
 44
0.0000000001
 40
0.0
 40
0.0
 40
0.0
 40
0.0
 40
0.1141735313
 40
0.237564654
 40
0.5000005225
 40
0.7624361052
 40
0.8858268933
 40
1.0
 40
1.0
 40
1.0
 40
1.0
 10
41.6684501138
 20
81.5979069478
 30
0.0
 10
41.69263591
 20
81.5839435878
 30
0.0
 10
41.7455805588
 20
81.5593183705
 30
0.0
 10
41.8628673609
 20
81.5236345819
 30
0.0
 10
42.0220040581
 20
81.506390276
 30
0.0
 10
42.1811406026
 20
81.5236353176
 30
0.0
 10
42.2984269647
 20
81.5593196833
 30
0.0
 10
42.3513712894
 20
81.583945165
 30
0.0
 10
42.375556895
 20
81.5979086475
 30
0.0
  0
SPLINE
  5
39B
100
AcDbEntity
  8
0
100
AcDbSpline
 62
7
  6
BYLAYER
 70
0
 71
3
 72
13
 73
9
 74
0
 42
0.0000001
 43
0.0000001
 44
0.0000000001
 40
0.0
 40
0.0
 40
0.0
 40
0.0
 40
0.1141728891
 40
0.2375633663
 40
0.4999983932
 40
0.762434299
 40
0.8858258049
 40
1.0
 40
1.0
 40
1.0
 40
1.0
 10
42.0220020324
 20
82.2102802333
 30
0.0
 10
41.9978164436
 20
82.1963167605
 30
0.0
 10
41.9500179057
 20
82.162778574
 30
0.0
 10
41.860471162
 20
82.0790479366
 30
0.0
 10
41.7659685986
 20
81.949853846
 30
0.0
 10
41.7013351906
 20
81.8034146384
 30
0.0
 10
41.6735958295
 20
81.683998737
 30
0.0
 10
41.6684501138
 20
81.6258343381
 30
0.0
 10
41.6684501138
 20
81.5979069478
 30
0.0
  0
SPLINE
  5
39C
100
AcDbEntity
  8
0
100
AcDbSpline
 62
7
  6
BYLAYER
 70
0
 71
3
 72
11
 73
7
 74
0
 42
0.0000001
 43
0.0000001
 44
0.0000000001
 40
0.0
 40
0.0
 40
0.0
 40
0.0
 40
0.2895353844
 40
0.5491065881
 40
0.7822495581
 40
1.0
 40
1.0
 40
1.0
 40
1.0
 10
42.0218312823
 20
107.9295986195
 30
0.0
 10
42.0437575197
 20
107.942257663
 30
0.0
 10
42.087411471
 20
107.9629991043
 30
0.0
 10
42.154482817
 20
107.9792344544
 30
0.0
 10
42.2174488814
 20
107.977656133
 30
0.0
 10
42.2553253264
 20
107.9638627959
 30
0.0
 10
42.2718154263
 20
107.9543424448
 30
0.0
  0
SPLINE
  5
39D
100
AcDbEntity
  8
0
100
AcDbSpline
 62
7
  6
BYLAYER
 70
0
 71
3
 72
11
 73
7
 74
0
 42
0.0000001
 43
0.0000001
 44
0.0000000001
 40
0.0
 40
0.0
 40
0.0
 40
0.0
 40
0.217750444
 40
0.4508934157
 40
0.7104646411
 40
1.0
 40
1.0
 40
1.0
 40
1.0
 10
59.2170647307
 20
98.1712195166
 30
0.0
 10
59.2005746324
 20
98.1807398706
 30
0.0
 10
59.1626981872
 20
98.1945332096
 30
0.0
 10
59.0997321203
 20
98.1961115316
 30
0.0
 10
59.0326607765
 20
98.1798761742
 30
0.0
 10
58.9890068242
 20
98.1591347371
 30
0.0
 10
58.9670805888
 20
98.1464756948
 30
0.0
  0
SPLINE
  5
39E
100
AcDbEntity
  8
0
100
AcDbSpline
 62
7
  6
BYLAYER
 70
0
 71
3
 72
13
 73
9
 74
0
 42
0.0000001
 43
0.0000001
 44
0.0000000001
 40
0.0
 40
0.0
 40
0.0
 40
0.0
 40
0.1141741951
 40
0.237565701
 40
0.5000016068
 40
0.7624366337
 40
0.8858271109
 40
1.0
 40
1.0
 40
1.0
 40
1.0
 10
21.1622680845
 20
95.4781448718
 30
0.0
 10
21.1622680845
 20
95.506072262
 30
0.0
 10
21.1674138002
 20
95.5642366609
 30
0.0
 10
21.1951531614
 20
95.6836525623
 30
0.0
 10
21.2597865693
 20
95.8300917699
 30
0.0
 10
21.3542891327
 20
95.9592858605
 30
0.0
 10
21.4438358764
 20
96.0430164979
 30
0.0
 10
21.4916344143
 20
96.0765546844
 30
0.0
 10
21.5158200031
 20
96.0905181573
 30
0.0
  0
SPLINE
  5
39F
100
AcDbEntity
  8
0
100
AcDbSpline
 62
7
  6
BYLAYER
 70
0
 71
3
 72
17
 73
13
 74
0
 42
0.0000001
 43
0.0000001
 44
0.0000000001
 40
0.0
 40
0.0
 40
0.0
 40
0.0
 40
0.0451785765
 40
0.0911951483
 40
0.1388088913
 40
0.1886566091
 40
0.2965909274
 40
0.4171421598
 40
0.5500628568
 40
0.6935295153
 40
0.8446998972
 40
1.0
 40
1.0
 40
1.0
 40
1.0
 10
55.9924895671
 20
95.6823570318
 30
0.0
 10
55.9924839389
 20
95.7386286203
 30
0.0
 10
56.002158926
 20
95.8524426575
 30
0.0
 10
56.0453931396
 20
96.0205859072
 30
0.0
 10
56.1167067944
 20
96.1852115653
 30
0.0
 10
56.2517062839
 20
96.403419977
 30
0.0
 10
56.4915952317
 20
96.6586492522
 30
0.0
 10
56.8627778621
 20
96.9174947745
 30
0.0
 10
57.3113807172
 20
97.1298978992
 30
0.0
 10
57.8213014814
 20
97.2886465757
 30
0.0
 10
58.374074201
 20
97.3881948748
 30
0.0
 10
58.7559679217
 20
97.4126004265
 30
0.0
 10
58.9493932954
 20
97.4142044378
 30
0.0
  0
SPLINE
  5
3A0
100
AcDbEntity
  8
0
100
AcDbSpline
 62
7
  6
BYLAYER
 70
0
 71
3
 72
14
 73
10
 74
0
 42
0.0000001
 43
0.0000001
 44
0.0000000001
 40
0.0
 40
0.0
 40
0.0
 40
0.0
 40
0.2888157114
 40
0.4220991128
 40
0.5481617741
 40
0.6677300642
 40
0.7819079018
 40
0.8921257334
 40
1.0
 40
1.0
 40
1.0
 40
1.0
 10
44.1432988242
 20
87.1092298002
 30
0.0
 10
44.2727084736
 20
87.0345167945
 30
0.0
 10
44.4541504665
 20
86.9099563928
 30
0.0
 10
44.6603322146
 20
86.7145471292
 30
0.0
 10
44.7865985536
 20
86.5639309181
 30
0.0
 10
44.8872834576
 20
86.4066888507
 30
0.0
 10
44.9614008759
 20
86.2441627537
 30
0.0
 10
45.0079095017
 20
86.0779413495
 30
0.0
 10
45.0202897843
 20
85.965167885
 30
0.0
 10
45.0216778945
 20
85.9093727603
 30
0.0
  0
SPLINE
  5
3A1
100
AcDbEntity
  8
0
100
AcDbSpline
 62
7
  6
BYLAYER
 70
0
 71
3
 72
18
 73
14
 74
0
 42
0.0000001
 43
0.0000001
 44
0.0000000001
 40
0.0
 40
0.0
 40
0.0
 40
0.0
 40
0.0047002149
 40
0.0170139975
 40
0.0372504636
 40
0.0654279266
 40
0.101528114
 40
0.1455226008
 40
0.2570625488
 40
0.3995481274
 40
0.5717677964
 40
0.7723696778
 40
1.0
 40
1.0
 40
1.0
 40
1.0
 10
58.9463852126
 20
94.1618521865
 30
0.0
 10
58.9462412358
 20
94.1618551823
 30
0.0
 10
58.9460795105
 20
94.1611471932
 30
0.0
 10
58.9458683641
 20
94.1602119785
 30
0.0
 10
58.9456472316
 20
94.1582598808
 30
0.0
 10
58.945409062
 20
94.1557269941
 30
0.0
 10
58.9451654026
 20
94.1524009018
 30
0.0
 10
58.9448019839
 20
94.1465490258
 30
0.0
 10
58.9443556359
 20
94.1374232729
 30
0.0
 10
58.9438339802
 20
94.1243764474
 30
0.0
 10
58.94329993
 20
94.1085962705
 30
0.0
 10
58.9427575749
 20
94.0902075244
 30
0.0
 10
58.9424147744
 20
94.0770914744
 30
0.0
 10
58.9422414178
 20
94.0701193578
 30
0.0
  0
SPLINE
  5
3A2
100
AcDbEntity
  8
0
100
AcDbSpline
 62
7
  6
BYLAYER
 70
0
 71
3
 72
11
 73
7
 74
0
 42
0.0000001
 43
0.0000001
 44
0.0000000001
 40
0.0
 40
0.0
 40
0.0
 40
0.0
 40
0.289534906
 40
0.5491059963
 40
0.7822491665
 40
1.0
 40
1.0
 40
1.0
 40
1.0
 10
21.5158200031
 20
96.0905181573
 30
0.0
 10
21.4938934544
 20
96.1031771697
 30
0.0
 10
21.4502388779
 20
96.1239184966
 30
0.0
 10
21.3831666431
 20
96.1401534664
 30
0.0
 10
21.3201998152
 20
96.138574589
 30
0.0
 10
21.2823229908
 20
96.1247807775
 30
0.0
 10
21.2658327368
 20
96.1152601798
 30
0.0
  0
SPLINE
  5
3A3
100
AcDbEntity
  8
0
100
AcDbSpline
 62
7
  6
BYLAYER
 70
0
 71
3
 72
13
 73
9
 74
0
 42
0.0000001
 43
0.0000001
 44
0.0000000001
 40
0.0
 40
0.0
 40
0.0
 40
0.0
 40
0.1141728708
 40
0.2375632981
 40
0.4999983039
 40
0.7624342596
 40
0.8858257927
 40
1.0
 40
1.0
 40
1.0
 40
1.0
 10
38.4610693096
 20
86.3073952325
 30
0.0
 10
38.4368837247
 20
86.2934317619
 30
0.0
 10
38.3890851979
 20
86.2598935888
 30
0.0
 10
38.2995384693
 20
86.176162967
 30
0.0
 10
38.2050359041
 20
86.0469688862
 30
0.0
 10
38.1404024739
 20
85.9005296718
 30
0.0
 10
38.1126631118
 20
85.7811137483
 30
0.0
 10
38.107517391
 20
85.7229493402
 30
0.0
 10
38.107517391
 20
85.695021947
 30
0.0
  0
SPLINE
  5
3A4
100
AcDbEntity
  8
0
100
AcDbSpline
 62
7
  6
BYLAYER
 70
0
 71
3
 72
13
 73
9
 74
0
 42
0.0000001
 43
0.0000001
 44
0.0000000001
 40
0.0
 40
0.0
 40
0.0
 40
0.0
 40
0.1123028261
 40
0.2270697482
 40
0.3455701172
 40
0.4688388326
 40
0.7283121722
 40
1.0
 40
1.0
 40
1.0
 40
1.0
 10
39.022296372
 20
85.9093583396
 30
0.0
 10
39.022296372
 20
85.936103977
 30
0.0
 10
39.0156424136
 20
85.9903867512
 30
0.0
 10
38.9866240276
 20
86.0681387471
 30
0.0
 10
38.939619121
 20
86.1396701369
 30
0.0
 10
38.8544707954
 20
86.2243575924
 30
0.0
 10
38.7142875299
 20
86.3001570026
 30
0.0
 10
38.5870498563
 20
86.3212168078
 30
0.0
 10
38.5223478819
 20
86.3217530483
 30
0.0
  0
SPLINE
  5
3A5
100
AcDbEntity
  8
0
100
AcDbSpline
 62
7
  6
BYLAYER
 70
0
 71
3
 72
17
 73
13
 74
0
 42
0.0000001
 43
0.0000001
 44
0.0000000001
 40
0.0
 40
0.0
 40
0.0
 40
0.0
 40
0.1283482885
 40
0.2695103569
 40
0.4162927724
 40
0.5604771007
 40
0.6942918699
 40
0.8120007683
 40
0.864218309
 40
0.9123197594
 40
0.9571664554
 40
1.0
 40
1.0
 40
1.0
 40
1.0
 10
38.107517391
 20
85.695021947
 30
0.0
 10
38.1469187722
 20
85.6722740636
 30
0.0
 10
38.2360707557
 20
85.6354013507
 30
0.0
 10
38.3813945003
 20
85.6060533964
 30
0.0
 10
38.5352224615
 20
85.6013832724
 30
0.0
 10
38.6851687993
 20
85.6218627366
 30
0.0
 10
38.8192188779
 20
85.6658204949
 30
0.0
 10
38.9129028524
 20
85.7217279324
 30
0.0
 10
38.9684141793
 20
85.7759943635
 30
0.0
 10
38.9982582803
 20
85.8183438443
 30
0.0
 10
39.0170454995
 20
85.863092365
 30
0.0
 10
39.0219189616
 20
85.894179517
 30
0.0
 10
39.022296372
 20
85.9093583396
 30
0.0
  0
SPLINE
  5
3A6
100
AcDbEntity
  8
0
100
AcDbSpline
 62
7
  6
BYLAYER
 70
0
 71
3
 72
11
 73
7
 74
0
 42
0.0000001
 43
0.0000001
 44
0.0000000001
 40
0.0
 40
0.0
 40
0.0
 40
0.0
 40
0.2790579124
 40
0.5609150403
 40
0.8047443143
 40
1.0
 40
1.0
 40
1.0
 40
1.0
 10
38.8391571073
 20
84.0478550362
 30
0.0
 10
38.770145407
 20
84.0130248121
 30
0.0
 10
38.6330129372
 20
83.9399123013
 30
0.0
 10
38.4371827488
 20
83.8334077049
 30
0.0
 10
38.2619707387
 20
83.737564627
 30
0.0
 10
38.1551496098
 20
83.6793930473
 30
0.0
 10
38.107517391
 20
83.6537659042
 30
0.0
  0
SPLINE
  5
3A7
100
AcDbEntity
  8
0
100
AcDbSpline
 62
7
  6
BYLAYER
 70
0
 71
3
 72
10
 73
6
 74
0
 42
0.0000001
 43
0.0000001
 44
0.0000000001
 40
0.0
 40
0.0
 40
0.0
 40
0.0
 40
0.2785277226
 40
0.5376696738
 40
1.0
 40
1.0
 40
1.0
 40
1.0
 10
59.8410169638
 20
19.747662292
 30
0.0
 10
59.8410169638
 20
19.6444173907
 30
0.0
 10
59.8300497392
 20
19.4446864713
 30
0.0
 10
59.7625815413
 20
19.0799683388
 30
0.0
 10
59.6553641104
 20
18.8271962873
 30
0.0
 10
59.5568127441
 20
18.6869903371
 30
0.0
  0
SPLINE
  5
3A8
100
AcDbEntity
  8
0
100
AcDbSpline
 62
7
  6
BYLAYER
 70
0
 71
3
 72
11
 73
7
 74
0
 42
0.0000001
 43
0.0000001
 44
0.0000000001
 40
0.0
 40
0.0
 40
0.0
 40
0.0
 40
0.2643316454
 40
0.5246465964
 40
0.772266529
 40
1.0
 40
1.0
 40
1.0
 40
1.0
 10
59.0167724655
 20
22.161763729
 30
0.0
 10
59.1448874577
 20
21.9735081932
 30
0.0
 10
59.3746195236
 20
21.582515713
 30
0.0
 10
59.634700939
 20
20.9680512518
 30
0.0
 10
59.7989499731
 20
20.353780787
 30
0.0
 10
59.8410169638
 20
19.9438479044
 30
0.0
 10
59.8410169638
 20
19.747662292
 30
0.0
  0
SPLINE
  5
3A9
100
AcDbEntity
  8
0
100
AcDbSpline
 62
7
  6
BYLAYER
 70
0
 71
3
 72
9
 73
5
 74
0
 42
0.0000001
 43
0.0000001
 44
0.0000000001
 40
0.0
 40
0.0
 40
0.0
 40
0.0
 40
0.252858539
 40
1.0
 40
1.0
 40
1.0
 40
1.0
 10
43.1029079186
 20
57.7292829785
 30
0.0
 10
43.1188980012
 20
57.7251861743
 30
0.0
 10
43.18158753
 20
57.7069288252
 30
0.0
 10
43.2418348678
 20
57.6801975092
 30
0.0
 10
43.2840841151
 20
57.6558288364
 30
0.0
  0
SPLINE
  5
3AA
100
AcDbEntity
  8
0
100
AcDbSpline
 62
7
  6
BYLAYER
 70
0
 71
3
 72
11
 73
7
 74
0
 42
0.0000001
 43
0.0000001
 44
0.0000000001
 40
0.0
 40
0.0
 40
0.0
 40
0.0
 40
0.2276926426
 40
0.4754720801
 40
0.7358298309
 40
1.0
 40
1.0
 40
1.0
 40
1.0
 10
40.0420865589
 20
56.2046244642
 30
0.0
 10
40.0420865589
 20
56.3432863992
 30
0.0
 10
40.0721402572
 20
56.6331445975
 30
0.0
 10
40.1891751778
 20
57.0672582757
 30
0.0
 10
40.3744719684
 20
57.5010726166
 30
0.0
 10
40.5380121028
 20
57.7767359265
 30
0.0
 10
40.6291799136
 20
57.9092863315
 30
0.0
  0
SPLINE
  5
3AB
100
AcDbEntity
  8
0
100
AcDbSpline
 62
7
  6
BYLAYER
 70
0
 71
3
 72
11
 73
7
 74
0
 42
0.0000001
 43
0.0000001
 44
0.0000000001
 40
0.0
 40
0.0
 40
0.0
 40
0.0
 40
0.2893393628
 40
0.5489979562
 40
0.7821099564
 40
1.0
 40
1.0
 40
1.0
 40
1.0
 10
43.6943408328
 20
9.6782667798
 30
0.0
 10
43.716252221
 20
9.66561652
 30
0.0
 10
43.7599090228
 20
9.6449099814
 30
0.0
 10
43.8269548969
 20
9.6286287124
 30
0.0
 10
43.8899384976
 20
9.6301967078
 30
0.0
 10
43.9278309361
 20
9.6439922839
 30
0.0
 10
43.9443200886
 20
9.6535384969
 30
0.0
  0
SPLINE
  5
3AC
100
AcDbEntity
  8
0
100
AcDbSpline
 62
7
  6
BYLAYER
 70
0
 71
3
 72
11
 73
7
 74
0
 42
0.0000001
 43
0.0000001
 44
0.0000000001
 40
0.0
 40
0.0
 40
0.0
 40
0.0
 40
0.2177460211
 40
0.4508843679
 40
0.7104607696
 40
1.0
 40
1.0
 40
1.0
 40
1.0
 10
37.0672439224
 20
13.0611190976
 30
0.0
 10
37.1002233392
 20
13.0801596514
 30
0.0
 10
37.1759738436
 20
13.107747098
 30
0.0
 10
37.3019052539
 20
13.1109104901
 30
0.0
 10
37.4360494306
 20
13.0784414993
 30
0.0
 10
37.523360444
 20
13.0369613965
 30
0.0
 10
37.5672137079
 20
13.0116432755
 30
0.0
  0
SPLINE
  5
3AD
100
AcDbEntity
  8
0
100
AcDbSpline
 62
7
  6
BYLAYER
 70
0
 71
3
 72
11
 73
7
 74
0
 42
0.0000001
 43
0.0000001
 44
0.0000000001
 40
0.0
 40
0.0
 40
0.0
 40
0.0
 40
0.2177830968
 40
0.450915839
 40
0.7103069095
 40
1.0
 40
1.0
 40
1.0
 40
1.0
 10
40.4770272794
 20
51.9772722328
 30
0.0
 10
40.4077605054
 20
52.0172751241
 30
0.0
 10
40.2781445246
 20
52.126219559
 30
0.0
 10
40.1401652717
 20
52.3518327887
 30
0.0
 10
40.0582181984
 20
52.6298603496
 30
0.0
 10
40.0420865589
 20
52.8322151783
 30
0.0
 10
40.0420865589
 20
52.9386147957
 30
0.0
  0
SPLINE
  5
3AE
100
AcDbEntity
  8
0
100
AcDbSpline
 62
7
  6
BYLAYER
 70
0
 71
3
 72
11
 73
7
 74
0
 42
0.0000001
 43
0.0000001
 44
0.0000000001
 40
0.0
 40
0.0
 40
0.0
 40
0.0
 40
0.2177442246
 40
0.4508817658
 40
0.7104588047
 40
1.0
 40
1.0
 40
1.0
 40
1.0
 10
20.9744254596
 20
57.5528383039
 30
0.0
 10
20.948041306
 20
57.5680708716
 30
0.0
 10
20.8986265506
 20
57.6095180734
 30
0.0
 10
20.8460613427
 20
57.6955030073
 30
0.0
 10
20.8148988068
 20
57.8014319012
 30
0.0
 10
20.8087132219
 20
57.8785173696
 30
0.0
 10
20.8087132219
 20
57.9190284568
 30
0.0
  0
SPLINE
  5
3AF
100
AcDbEntity
  8
0
100
AcDbSpline
 62
7
  6
BYLAYER
 70
0
 71
3
 72
11
 73
7
 74
0
 42
0.0000001
 43
0.0000001
 44
0.0000000001
 40
0.0
 40
0.0
 40
0.0
 40
0.0
 40
0.2278496403
 40
0.4769700311
 40
0.738023392
 40
1.0
 40
1.0
 40
1.0
 40
1.0
 10
43.7190265124
 20
56.6944892301
 30
0.0
 10
43.7190265124
 20
56.5403268006
 30
0.0
 10
43.6819172693
 20
56.2172524129
 30
0.0
 10
43.5396237253
 20
55.7365872494
 30
0.0
 10
43.3166229487
 20
55.2621050262
 30
0.0
 10
43.1206563261
 20
54.9656250474
 30
0.0
 10
43.0119226752
 20
54.8256411494
 30
0.0
  0
SPLINE
  5
3B0
100
AcDbEntity
  8
0
100
AcDbSpline
 62
7
  6
BYLAYER
 70
0
 71
3
 72
9
 73
5
 74
0
 42
0.0000001
 43
0.0000001
 44
0.0000000001
 40
0.0
 40
0.0
 40
0.0
 40
0.0
 40
0.4761720608
 40
1.0
 40
1.0
 40
1.0
 40
1.0
 10
39.9006710906
 20
48.7744696371
 30
0.0
 10
39.8421002298
 20
48.7406539368
 30
0.0
 10
39.7283457375
 20
48.6533646698
 30
0.0
 10
39.6337596494
 20
48.546367038
 30
0.0
 10
39.5892384465
 20
48.4867576675
 30
0.0
  0
SPLINE
  5
3B1
100
AcDbEntity
  8
0
100
AcDbSpline
 62
7
  6
BYLAYER
 70
0
 71
3
 72
9
 73
5
 74
0
 42
0.0000001
 43
0.0000001
 44
0.0000000001
 40
0.0
 40
0.0
 40
0.0
 40
0.0
 40
0.5237016664
 40
1.0
 40
1.0
 40
1.0
 40
1.0
 10
39.4260515703
 20
48.2026505213
 30
0.0
 10
39.3974224299
 20
48.1351437837
 30
0.0
 10
39.3531939268
 20
48.0015034031
 30
0.0
 10
39.3349880208
 20
47.8613617381
 30
0.0
 10
39.3349880208
 20
47.7946723803
 30
0.0
  0
SPLINE
  5
3B2
100
AcDbEntity
  8
0
100
AcDbSpline
 62
7
  6
BYLAYER
 70
0
 71
3
 72
19
 73
15
 74
0
 42
0.0000001
 43
0.0000001
 44
0.0000000001
 40
0.0
 40
0.0
 40
0.0
 40
0.0
 40
0.0623918057
 40
0.1288327497
 40
0.270353951
 40
0.4174439676
 40
0.5617182817
 40
0.6953254595
 40
0.7563187559
 40
0.8127988782
 40
0.8647373587
 40
0.9125509587
 40
0.9571581598
 40
1.0
 40
1.0
 40
1.0
 40
1.0
 10
43.0119226752
 20
54.653240242
 30
0.0
 10
43.0119226752
 20
54.5661749604
 30
0.0
 10
43.0000604328
 20
54.3862699997
 30
0.0
 10
42.93399445
 20
54.0142551791
 30
0.0
 10
42.7742044613
 20
53.5419754718
 30
0.0
 10
42.4854304846
 20
53.0083261256
 30
0.0
 10
42.1186861672
 20
52.5387723082
 30
0.0
 10
41.7618586954
 20
52.2227515585
 30
0.0
 10
41.4623233214
 20
52.039391556
 30
0.0
 10
41.2453324175
 20
51.9434986563
 30
0.0
 10
41.0336178566
 20
51.8872673467
 30
0.0
 10
40.8313207874
 20
51.8723296508
 30
0.0
 10
40.6429420017
 20
51.8999882244
 30
0.0
 10
40.5287980266
 20
51.9473736328
 30
0.0
 10
40.4770272794
 20
51.9772722328
 30
0.0
  0
SPLINE
  5
3B3
100
AcDbEntity
  8
0
100
AcDbSpline
 62
7
  6
BYLAYER
 70
0
 71
3
 72
9
 73
5
 74
0
 42
0.0000001
 43
0.0000001
 44
0.0000000001
 40
0.0
 40
0.0
 40
0.0
 40
0.0
 40
0.2440001277
 40
1.0
 40
1.0
 40
1.0
 40
1.0
 10
45.6401634759
 20
54.4465648946
 30
0.0
 10
45.6212684587
 20
54.3651286165
 30
0.0
 10
45.5363867643
 20
54.0331249426
 30
0.0
 10
45.4229660066
 20
53.7085778704
 30
0.0
 10
45.3237342809
 20
53.4693182211
 30
0.0
  0
SPLINE
  5
3B4
100
AcDbEntity
  8
0
100
AcDbSpline
 62
7
  6
BYLAYER
 70
0
 71
3
 72
9
 73
5
 74
0
 42
0.0000001
 43
0.0000001
 44
0.0000000001
 40
0.0
 40
0.0
 40
0.0
 40
0.0
 40
0.2483363351
 40
1.0
 40
1.0
 40
1.0
 40
1.0
 10
45.3237342809
 20
53.4693182211
 30
0.0
 10
45.2989579372
 20
53.4095794707
 30
0.0
 10
45.1957522541
 20
53.1704615381
 30
0.0
 10
45.0789941856
 20
52.9372071823
 30
0.0
 10
44.9842230009
 20
52.7659261876
 30
0.0
  0
SPLINE
  5
3B5
100
AcDbEntity
  8
0
100
AcDbSpline
 62
7
  6
BYLAYER
 70
0
 71
3
 72
9
 73
5
 74
0
 42
0.0000001
 43
0.0000001
 44
0.0000000001
 40
0.0
 40
0.0
 40
0.0
 40
0.0
 40
0.2513834045
 40
1.0
 40
1.0
 40
1.0
 40
1.0
 10
44.8547309414
 20
52.5416360226
 30
0.0
 10
44.820968619
 20
52.4855418053
 30
0.0
 10
44.6835885065
 20
52.2642664975
 30
0.0
 10
44.5339257954
 20
52.0506002636
 30
0.0
 10
44.4153052361
 20
51.8958643507
 30
0.0
  0
SPLINE
  5
3B6
100
AcDbEntity
  8
0
100
AcDbSpline
 62
7
  6
BYLAYER
 70
0
 71
3
 72
9
 73
5
 74
0
 42
0.0000001
 43
0.0000001
 44
0.0000000001
 40
0.0
 40
0.0
 40
0.0
 40
0.0
 40
0.2555924085
 40
1.0
 40
1.0
 40
1.0
 40
1.0
 10
44.4153052361
 20
51.8958643507
 30
0.0
 10
44.3620298077
 20
51.8263686234
 30
0.0
 10
44.1483568146
 20
51.5585482723
 30
0.0
 10
43.9135564569
 20
51.3073664769
 30
0.0
 10
43.7272266524
 20
51.1332266759
 30
0.0
  0
SPLINE
  5
3B7
100
AcDbEntity
  8
0
100
AcDbSpline
 62
7
  6
BYLAYER
 70
0
 71
3
 72
9
 73
5
 74
0
 42
0.0000001
 43
0.0000001
 44
0.0000000001
 40
0.0
 40
0.0
 40
0.0
 40
0.0
 40
0.2415862093
 40
1.0
 40
1.0
 40
1.0
 40
1.0
 10
44.2847325451
 20
10.7662909069
 30
0.0
 10
44.2847325451
 20
10.8062423299
 30
0.0
 10
44.2811986079
 20
10.9716057748
 30
0.0
 10
44.2642320259
 20
11.1365904194
 30
0.0
 10
44.2450784289
 20
11.2605391294
 30
0.0
  0
SPLINE
  5
3B8
100
AcDbEntity
  8
0
100
AcDbSpline
 62
7
  6
BYLAYER
 70
0
 71
3
 72
10
 73
6
 74
0
 42
0.0000001
 43
0.0000001
 44
0.0000000001
 40
0.0
 40
0.0
 40
0.0
 40
0.0
 40
0.4623303262
 40
0.7214722774
 40
1.0
 40
1.0
 40
1.0
 40
1.0
 10
44.0005283254
 20
9.7056189519
 30
0.0
 10
44.0990796917
 20
9.8458249022
 30
0.0
 10
44.2062971226
 20
10.0985969536
 30
0.0
 10
44.2737653205
 20
10.4633150861
 30
0.0
 10
44.2847325451
 20
10.6630460056
 30
0.0
 10
44.2847325451
 20
10.7662909069
 30
0.0
  0
SPLINE
  5
3B9
100
AcDbEntity
  8
0
100
AcDbSpline
 62
7
  6
BYLAYER
 70
0
 71
3
 72
11
 73
7
 74
0
 42
0.0000001
 43
0.0000001
 44
0.0000000001
 40
0.0
 40
0.0
 40
0.0
 40
0.0
 40
0.2178162676
 40
0.4509258167
 40
0.7102895079
 40
1.0
 40
1.0
 40
1.0
 40
1.0
 10
43.2840841151
 20
57.6558288364
 30
0.0
 10
43.3533835843
 20
57.6158580393
 30
0.0
 10
43.4829900867
 20
57.5068713564
 30
0.0
 10
43.6209253849
 20
57.2812543383
 30
0.0
 10
43.7029139204
 20
57.0032506259
 30
0.0
 10
43.7190265124
 20
56.8008953602
 30
0.0
 10
43.7190265124
 20
56.6944892301
 30
0.0
  0
SPLINE
  5
3BA
100
AcDbEntity
  8
0
100
AcDbSpline
 62
7
  6
BYLAYER
 70
0
 71
3
 72
9
 73
5
 74
0
 42
0.0000001
 43
0.0000001
 44
0.0000000001
 40
0.0
 40
0.0
 40
0.0
 40
0.0
 40
0.2430019193
 40
1.0
 40
1.0
 40
1.0
 40
1.0
 10
45.7387539384
 20
59.2457041256
 30
0.0
 10
45.7439374245
 20
59.2079587707
 30
0.0
 10
45.7623790574
 20
59.0522390351
 30
0.0
 10
45.7696329394
 20
58.8952533657
 30
0.0
 10
45.7696329394
 20
58.776565693
 30
0.0
  0
SPLINE
  5
3BB
100
AcDbEntity
  8
0
100
AcDbSpline
 62
7
  6
BYLAYER
 70
0
 71
3
 72
11
 73
7
 74
0
 42
0.0000001
 43
0.0000001
 44
0.0000000001
 40
0.0
 40
0.0
 40
0.0
 40
0.0
 40
0.2895396729
 40
0.5491163863
 40
0.7822545095
 40
1.0
 40
1.0
 40
1.0
 40
1.0
 10
59.3460213148
 20
60.7360202862
 30
0.0
 10
59.381103423
 20
60.7562748298
 30
0.0
 10
59.4509512691
 20
60.78945906
 30
0.0
 10
59.5582651955
 20
60.8154349223
 30
0.0
 10
59.6590091029
 20
60.812905048
 30
0.0
 10
59.7196088855
 20
60.790835881
 30
0.0
 10
59.7459921469
 20
60.7756038284
 30
0.0
  0
SPLINE
  5
3BC
100
AcDbEntity
  8
0
100
AcDbSpline
 62
7
  6
BYLAYER
 70
0
 71
3
 72
9
 73
5
 74
0
 42
0.0000001
 43
0.0000001
 44
0.0000000001
 40
0.0
 40
0.0
 40
0.0
 40
0.0
 40
0.7471519563
 40
1.0
 40
1.0
 40
1.0
 40
1.0
 10
60.3823909001
 20
60.408187149
 30
0.0
 10
60.3666864956
 20
60.4172538833
 30
0.0
 10
60.3443351672
 20
60.4272734485
 30
0.0
 10
60.3210674536
 20
60.4341980673
 30
0.0
 10
60.3151323222
 20
60.4357582008
 30
0.0
  0
SPLINE
  5
3BD
100
AcDbEntity
  8
0
100
AcDbSpline
 62
7
  6
BYLAYER
 70
0
 71
3
 72
10
 73
6
 74
0
 42
0.0000001
 43
0.0000001
 44
0.0000000001
 40
0.0
 40
0.0
 40
0.0
 40
0.0
 40
0.4577316433
 40
0.7180695899
 40
1.0
 40
1.0
 40
1.0
 40
1.0
 10
60.298529129
 20
60.4396007789
 30
0.0
 10
60.2492098242
 20
60.4495055815
 30
0.0
 10
60.1674238265
 20
60.4448606491
 30
0.0
 10
60.062887001
 20
60.4107210064
 30
0.0
 10
60.0092528275
 20
60.3840954158
 30
0.0
 10
59.9824200674
 20
60.3686036071
 30
0.0
  0
SPLINE
  5
3BE
100
AcDbEntity
  8
0
100
AcDbSpline
 62
7
  6
BYLAYER
 70
0
 71
3
 72
10
 73
6
 74
0
 42
0.0000001
 43
0.0000001
 44
0.0000000001
 40
0.0
 40
0.0
 40
0.0
 40
0.0
 40
0.2838538874
 40
0.5445426079
 40
1.0
 40
1.0
 40
1.0
 40
1.0
 10
62.8815681742
 20
71.7996750559
 30
0.0
 10
62.8993114569
 20
71.8099190838
 30
0.0
 10
62.9321460458
 20
71.8319090049
 30
0.0
 10
62.9852484774
 20
71.8808716871
 30
0.0
 10
63.0132366575
 20
71.9270724286
 30
0.0
 10
63.0218937156
 20
71.9587863121
 30
0.0
  0
SPLINE
  5
3BF
100
AcDbEntity
  8
0
100
AcDbSpline
 62
7
  6
BYLAYER
 70
0
 71
3
 72
9
 73
5
 74
0
 42
0.0000001
 43
0.0000001
 44
0.0000000001
 40
0.0
 40
0.0
 40
0.0
 40
0.0
 40
0.2528468357
 40
1.0
 40
1.0
 40
1.0
 40
1.0
 10
63.0218937156
 20
71.9587863121
 30
0.0
 10
63.0229034729
 20
71.9624854125
 30
0.0
 10
63.0264247305
 20
71.9772396964
 30
0.0
 10
63.0279853386
 20
71.9924647935
 30
0.0
 10
63.0279853351
 20
72.0037954329
 30
0.0
  0
SPLINE
  5
3C0
100
AcDbEntity
  8
0
100
AcDbSpline
 62
7
  6
BYLAYER
 70
0
 71
3
 72
11
 73
7
 74
0
 42
0.0000001
 43
0.0000001
 44
0.0000000001
 40
0.0
 40
0.0
 40
0.0
 40
0.0
 40
0.2177442246
 40
0.4508817658
 40
0.7104588047
 40
1.0
 40
1.0
 40
1.0
 40
1.0
 10
38.8021594167
 20
58.9560028451
 30
0.0
 10
38.7856693207
 20
58.9655231999
 30
0.0
 10
38.7547850986
 20
58.991427701
 30
0.0
 10
38.7219318437
 20
59.0451682848
 30
0.0
 10
38.7024552587
 20
59.1113738434
 30
0.0
 10
38.6985892682
 20
59.1595522612
 30
0.0
 10
38.6985892682
 20
59.1848716907
 30
0.0
  0
SPLINE
  5
3C1
100
AcDbEntity
  8
0
100
AcDbSpline
 62
7
  6
BYLAYER
 70
0
 71
3
 72
11
 73
7
 74
0
 42
0.0000001
 43
0.0000001
 44
0.0000000001
 40
0.0
 40
0.0
 40
0.0
 40
0.0
 40
0.2177498853
 40
0.4508926472
 40
0.710464091
 40
1.0
 40
1.0
 40
1.0
 40
1.0
 10
42.2719892987
 20
57.2413893675
 30
0.0
 10
42.2884799217
 20
57.2509101783
 30
0.0
 10
42.3193649165
 20
57.2768161666
 30
0.0
 10
42.3522162421
 20
57.3305591572
 30
0.0
 10
42.37169247
 20
57.3967649194
 30
0.0
 10
42.375556895
 20
57.4449430024
 30
0.0
 10
42.375556895
 20
57.4702622213
 30
0.0
  0
SPLINE
  5
3C2
100
AcDbEntity
  8
0
100
AcDbSpline
 62
7
  6
BYLAYER
 70
0
 71
3
 72
17
 73
13
 74
0
 42
0.0000001
 43
0.0000001
 44
0.0000000001
 40
0.0
 40
0.0
 40
0.0
 40
0.0
 40
0.1242203004
 40
0.2603543099
 40
0.4026826213
 40
0.5445196222
 40
0.67926904
 40
0.8014273449
 40
0.8567807326
 40
0.9080998759
 40
0.9556339979
 40
1.0
 40
1.0
 40
1.0
 40
1.0
 10
58.5682070939
 20
63.6346116271
 30
0.0
 10
58.5682070939
 20
63.4719938565
 30
0.0
 10
58.5269349646
 20
63.1307735387
 30
0.0
 10
58.3700989287
 20
62.6252078691
 30
0.0
 10
58.1255902645
 20
62.1298293159
 30
0.0
 10
57.8099575618
 20
61.6786431259
 30
0.0
 10
57.4448506697
 20
61.3023629326
 30
0.0
 10
57.1082814526
 20
61.0642991997
 30
0.0
 10
56.8355725156
 20
60.938474302
 30
0.0
 10
56.6415767866
 20
60.8798666565
 30
0.0
 10
56.4548146836
 20
60.8552450756
 30
0.0
 10
56.3337285785
 20
60.8622865967
 30
0.0
 10
56.2764721533
 20
60.8720320797
 30
0.0
  0
SPLINE
  5
3C3
100
AcDbEntity
  8
0
100
AcDbSpline
 62
7
  6
BYLAYER
 70
0
 71
3
 72
11
 73
7
 74
0
 42
0.0000001
 43
0.0000001
 44
0.0000000001
 40
0.0
 40
0.0
 40
0.0
 40
0.0
 40
0.2177486811
 40
0.4508908272
 40
0.7104626199
 40
1.0
 40
1.0
 40
1.0
 40
1.0
 10
63.0279900826
 20
69.5134630609
 30
0.0
 10
63.0279900834
 20
69.4944221467
 30
0.0
 10
63.0209974345
 20
69.4547235654
 30
0.0
 10
62.9908810792
 20
69.3994042859
 30
0.0
 10
62.943284654
 20
69.3494365159
 30
0.0
 10
62.9034946171
 20
69.3220018458
 30
0.0
 10
62.8815681742
 20
69.3093426836
 30
0.0
  0
SPLINE
  5
3C4
100
AcDbEntity
  8
0
100
AcDbSpline
 62
7
  6
BYLAYER
 70
0
 71
3
 72
9
 73
5
 74
0
 42
0.0000001
 43
0.0000001
 44
0.0000000001
 40
0.0
 40
0.0
 40
0.0
 40
0.0
 40
0.5416789812
 40
1.0
 40
1.0
 40
1.0
 40
1.0
 10
62.8815681742
 20
69.3093426836
 30
0.0
 10
62.8815681742
 20
69.2720957942
 30
0.0
 10
62.8738444385
 20
69.2027586373
 30
0.0
 10
62.8417467354
 20
69.1392362279
 30
0.0
 10
62.8208549077
 20
69.1156411225
 30
0.0
  0
SPLINE
  5
3C5
100
AcDbEntity
  8
0
100
AcDbSpline
 62
7
  6
BYLAYER
 70
0
 71
3
 72
9
 73
5
 74
0
 42
0.0000001
 43
0.0000001
 44
0.0000000001
 40
0.0
 40
0.0
 40
0.0
 40
0.0
 40
0.254192363
 40
1.0
 40
1.0
 40
1.0
 40
1.0
 10
62.8208549077
 20
69.1156411225
 30
0.0
 10
62.817733294
 20
69.1121155906
 30
0.0
 10
62.8049297706
 20
69.0987193898
 30
0.0
 10
62.7899656717
 20
69.0873778401
 30
0.0
 10
62.7780005779
 20
69.0804698298
 30
0.0
  0
SPLINE
  5
3C6
100
AcDbEntity
  8
0
100
AcDbSpline
 62
7
  6
BYLAYER
 70
0
 71
3
 72
11
 73
7
 74
0
 42
0.0000001
 43
0.0000001
 44
0.0000000001
 40
0.0
 40
0.0
 40
0.0
 40
0.0
 40
0.2895368706
 40
0.5491085983
 40
0.7822509632
 40
1.0
 40
1.0
 40
1.0
 40
1.0
 10
41.6684501138
 20
57.4702605217
 30
0.0
 10
41.6684501138
 20
57.4449411883
 30
0.0
 10
41.6723145345
 20
57.3967629385
 30
0.0
 10
41.6917907819
 20
57.3305570157
 30
0.0
 10
41.7246421571
 20
57.2768140502
 30
0.0
 10
41.7555272418
 20
57.2509082317
 30
0.0
 10
41.7720178885
 20
57.2413875648
 30
0.0
  0
SPLINE
  5
3C7
100
AcDbEntity
  8
0
100
AcDbSpline
 62
7
  6
BYLAYER
 70
0
 71
3
 72
11
 73
7
 74
0
 42
0.0000001
 43
0.0000001
 44
0.0000000001
 40
0.0
 40
0.0
 40
0.0
 40
0.0
 40
0.2372465442
 40
0.4999994739
 40
0.7627526898
 40
1.0
 40
1.0
 40
1.0
 40
1.0
 10
42.375556895
 20
57.4702622213
 30
0.0
 10
42.3253610008
 20
57.4412817813
 30
0.0
 10
42.2086363429
 20
57.3989824819
 30
0.0
 10
42.0220040602
 20
57.3787583386
 30
0.0
 10
41.835371496
 20
57.3989816302
 30
0.0
 10
41.718646379
 20
57.44128035
 30
0.0
 10
41.6684501138
 20
57.4702605217
 30
0.0
  0
SPLINE
  5
3C8
100
AcDbEntity
  8
0
100
AcDbSpline
 62
7
  6
BYLAYER
 70
0
 71
3
 72
11
 73
7
 74
0
 42
0.0000001
 43
0.0000001
 44
0.0000000001
 40
0.0
 40
0.0
 40
0.0
 40
0.0
 40
0.2895401978
 40
0.5491171512
 40
0.782255066
 40
1.0
 40
1.0
 40
1.0
 40
1.0
 10
36.8601039828
 20
12.6033816129
 30
0.0
 10
36.8601039828
 20
12.6540202361
 30
0.0
 10
36.8678360326
 20
12.7503767545
 30
0.0
 10
36.9067891018
 20
12.8827875967
 30
0.0
 10
36.9724955673
 20
12.9902687838
 30
0.0
 10
37.0342637892
 20
13.0420781302
 30
0.0
 10
37.0672439224
 20
13.0611190976
 30
0.0
  0
SPLINE
  5
3C9
100
AcDbEntity
  8
0
100
AcDbSpline
 62
7
  6
BYLAYER
 70
0
 71
3
 72
13
 73
9
 74
0
 42
0.0000001
 43
0.0000001
 44
0.0000000001
 40
0.0
 40
0.0
 40
0.0
 40
0.0
 40
0.114176888
 40
0.2375715548
 40
0.5000017735
 40
0.762431024
 40
0.8858245003
 40
1.0
 40
1.0
 40
1.0
 40
1.0
 10
38.6985892682
 20
48.1620890594
 30
0.0
 10
38.6985892682
 20
48.2067738493
 30
0.0
 10
38.706825053
 20
48.2998388246
 30
0.0
 10
38.7512087866
 20
48.490903698
 30
0.0
 10
38.8546243856
 20
48.7252010899
 30
0.0
 10
39.0058228143
 20
48.9319107104
 30
0.0
 10
39.1490966228
 20
49.0658800307
 30
0.0
 10
39.2255745875
 20
49.1195442929
 30
0.0
 10
39.2642723379
 20
49.1418863162
 30
0.0
  0
SPLINE
  5
3CA
100
AcDbEntity
  8
0
100
AcDbSpline
 62
7
  6
BYLAYER
 70
0
 71
3
 72
15
 73
11
 74
0
 42
0.0000001
 43
0.0000001
 44
0.0000000001
 40
0.0
 40
0.0
 40
0.0
 40
0.0
 40
0.1141462769
 40
0.2373347432
 40
0.3669750849
 40
0.4999983967
 40
0.6330219315
 40
0.7626629244
 40
0.8858524171
 40
1.0
 40
1.0
 40
1.0
 40
1.0
 10
42.2341084542
 20
50.8565117625
 30
0.0
 10
42.4325625642
 20
50.9710886124
 30
0.0
 10
42.8245716674
 20
51.2459158294
 30
0.0
 10
43.3639871622
 20
51.7505231427
 30
0.0
 10
43.8610255882
 20
52.3470922111
 30
0.0
 10
44.2970833257
 20
53.013079297
 30
0.0
 10
44.6558132931
 20
53.723712838
 30
0.0
 10
44.9239363335
 20
54.4524499414
 30
0.0
 10
45.0912308686
 20
55.1719073347
 30
0.0
 10
45.1332341868
 20
55.6488153561
 30
0.0
 10
45.1332341868
 20
55.8779727036
 30
0.0
  0
ELLIPSE
  5
3CB
100
AcDbEntity
  8
0
100
AcDbEllipse
 62
7
  6
BYLAYER
 10
39.902831908
 20
48.1200201192
 30
0.0
 11
0.3999930947
 21
0.6928243098
 31
0.0
 40
0.5817544135
 41
0.7891832609
 42
2.3523833911
  0
ELLIPSE
  5
3CC
100
AcDbEntity
  8
0
100
AcDbEllipse
 62
7
  6
BYLAYER
 10
59.98025925
 20
59.711659007
 30
0.0
 11
0.4030433551
 21
0.698107094
 31
0.0
 40
0.5729828863
 41
6.1965801945
 42
7.0647727607
  0
ENDSEC
  0
SECTION
  2
OBJECTS
  0
DICTIONARY
  5
C
100
AcDbDictionary
280
0
281
1
  3
ACAD_GROUP
350
D
  3
ACAD_MLINESTYLE
350
17
  3
ACAD_LAYOUT
350
1A
  3
ACAD_PLOTSETTINGS
350
19
  3
ACAD_PLOTSTYLENAME
350
E
  0
DICTIONARY
  5
D
102
{ACAD_REACTORS
330
C
102
}
100
AcDbDictionary
280
0
281
1
  0
ACDBDICTIONARYWDFLT
  5
E
102
{ACAD_REACTORS
330
C
102
}
100
AcDbDictionary
281
1
  3
Normal
350
F
100
AcDbDictionaryWithDefault
340
F
  0
DICTIONARY
  5
17
102
{ACAD_REACTORS
330
C
102
}
100
AcDbDictionary
280
0
281
1
  3
Standard
350
18
  0
DICTIONARY
  5
19
102
{ACAD_REACTORS
330
C
102
}
100
AcDbDictionary
281
1
  0
DICTIONARY
  5
1A
102
{ACAD_REACTORS
330
C
102
}
100
AcDbDictionary
281
1
  3
Model
350
3CD
  3
Layout1
350
3CE
  0
ACDBPLACEHOLDER
  5
F
102
{ACAD_REACTORS
330
E
102
}
  0
MLINESTYLE
  5
18
102
{ACAD_REACTORS
330
17
102
}
100
AcDbMlineStyle
  2
STANDARD
 70
0
  3

 62
256
 51
90.0
 52
90.0
 71
2
 49
0.5
 62
256
  6
BYLAYER
 49
-0.5
 62
256
  6
BYLAYER
  0
LAYOUT
  5
3CD
102
{ACAD_REACTORS
330
1A
102
}
100
AcDbPlotSettings
  1

  2
none_device
  4

  6

 40
0.0
 41
0.0
 42
0.0
 43
0.0
 44
210.0
 45
297.0
 46
0.0
 47
0.0
 48
0.0
 49
0.0
140
0.0
141
0.0
142
1.0
143
1.0
 70
1024
 72
1
 73
0
 74
0
  7

 75
0
147
1.0
148
0.0
149
0.0
100
AcDbLayout
  1
Model
 70
0
 71
0
 10
0.0
 20
0.0
 11
210.0
 21
297.0
 12
0.0
 22
0.0
 32
0.0
 14
0.0
 24
0.0
 34
0.0
 15
0.0
 25
0.0
 35
0.0
146
0.0
 13
0.0
 23
0.0
 33
0.0
 16
1.0
 26
0.0
 36
0.0
 17
0.0
 27
1.0
 37
0.0
 76
0
330
210
345
0
346
0
  0
LAYOUT
  5
3CE
102
{ACAD_REACTORS
330
1A
102
}
100
AcDbPlotSettings
  1

  2
none_device
  4

  6

 40
0.0
 41
0.0
 42
0.0
 43
0.0
 44
210.0
 45
297.0
 46
0.0
 47
0.0
 48
0.0
 49
0.0
140
0.0
141
0.0
142
1.0
143
1.0
 70
0
 72
1
 73
0
 74
0
  7

 75
0
147
1.0
148
0.0
149
0.0
100
AcDbLayout
  1
Layout1
 70
0
 71
1
 10
0.0
 20
0.0
 11
210.0
 21
297.0
 12
0.0
 22
0.0
 32
0.0
 14
0.0
 24
0.0
 34
0.0
 15
0.0
 25
0.0
 35
0.0
146
0.0
 13
0.0
 23
0.0
 33
0.0
 16
1.0
 26
0.0
 36
0.0
 17
0.0
 27
1.0
 37
0.0
 76
0
330
211
345
0
346
0
  0
ENDSEC
  0
EOF
