999
DXF file: C:\Users\sesa63760\Dev\_Creo\CAD\MCADID0002508_3D-CAD\drw0001_4.dxf
999
Pro/ENGINEER 2019471 by Parametric Technology Corporation
  0
SECTION
  2
HEADER
  9
$ACADVER
  1
AC1024
  9
$DWGCODEPAGE
  3
ANSI_1252
  9
$EXTMAX
 10
32.4723405977
 20
45.9251674167
 30
0.0
  9
$EXTMIN
 10
0.0
 20
0.0
 30
0.0
  9
$LIMMIN
 10
0.0
 20
0.0
  9
$LIMMAX
 10
32.4723405977
 20
45.9251674167
  9
$VIEWCTR
 10
16.2361702989
 20
22.9625837084
  9
$VIEWSIZE
 40
45.9251674167
  9
$CLAYER
  8
0
  9
$LTSCALE
 40
2.9936405427
  9
$CELTYPE
  6
BYLAYER
  9
$DIMSCALE
 40
1.0
  9
$DIMASZ
 40
0.3865754833
  9
$DIMEXO
 40
1.0
  9
$DIMDLI
 40
2.0683334659
  9
$DIMEXE
 40
1.0
  9
$DIMCEN
 40
0.4898684524
  9
$DIMLFAC
 40
1.0
  9
$DIMBLK
  1
_FILLED
  9
$DIMALT
 70
0
  9
$DIMALTF
 40
0.0393700787
  9
$DIMTXT
 40
0.5412056766
  9
$DIMTOL
 70
1
  9
$DIMLIM
 70
0
  9
$DIMTFAC
 40
1.0
  9
$DIMTP
 40
0.01
  9
$DIMTM
 40
0.01
  9
$DIMGAP
 40
0.625
  9
$DIMDSEP
 70
46
  9
$AUNITS
 70
0
  9
$PDMODE
 70
3
  9
$PDSIZE
 40
0.3125
  9
$HANDSEED
  5
242
  9
$TILEMODE
 70
1
  9
$MEASUREMENT
 70
1
  9
$INSUNITS
 70
4
  0
ENDSEC
  0
SECTION
  2
CLASSES
  0
CLASS
  1
ACDBDICTIONARYWDFLT
  2
AcDbDictionaryWithDefault
  3
AutoCAD 2000
 90
0
 91
1
280
0
281
0
  0
CLASS
  1
ACDBPLACEHOLDER
  2
AcDbPlaceHolder
  3
AutoCAD 2000
 90
0
 91
1
280
0
281
0
  0
CLASS
  1
LAYOUT
  2
AcDbLayout
  3
AutoCAD 2000
 90
0
 91
0
280
0
281
0
  0
ENDSEC
  0
SECTION
  2
TABLES
  0
TABLE
  2
VPORT
  5
8
100
AcDbSymbolTable
 70
2
  0
VPORT
  5
1F4
100
AcDbSymbolTableRecord
100
AcDbViewportTableRecord
  2
*ACTIVE
 70
0
 10
0.0
 20
0.0
 11
1.0
 21
1.0
 12
16.2361702989
 22
22.9625837084
 13
0.0
 23
0.0
 14
1.0
 24
1.0
 15
0.0
 25
0.0
 16
0.0
 26
0.0
 36
1.0
 17
0.0
 27
0.0
 37
0.0
 40
45.9251674167
 41
0.7070707071
 42
50.0
 43
0.0
 44
0.0
 50
0.0
 51
0.0
 71
0
 72
100
 73
1
 74
1
 75
0
 76
0
 77
0
 78
0
  0
ENDTAB
  0
TABLE
  2
LTYPE
  5
5
100
AcDbSymbolTable
 70
6
  0
LTYPE
  5
14
100
AcDbSymbolTableRecord
100
AcDbLinetypeTableRecord
  2
BYBLOCK
 70
0
  3

 72
65
 73
0
 40
0.0
  0
LTYPE
  5
15
100
AcDbSymbolTableRecord
100
AcDbLinetypeTableRecord
  2
BYLAYER
 70
0
  3

 72
65
 73
0
 40
0.0
  0
LTYPE
  5
16
100
AcDbSymbolTableRecord
100
AcDbLinetypeTableRecord
  2
CONTINUOUS
 70
64
  3
Solid line
 72
65
 73
0
 40
0.0
  0
LTYPE
  5
1F5
100
AcDbSymbolTableRecord
100
AcDbLinetypeTableRecord
  2
CENTER
 70
64
  3
____ _ ____ _ ____ _ ____ _ ____ _ ____ _ ____
 72
65
 73
4
 40
0.6
 49
0.375
 74
0
 49
-0.075
 74
0
 49
0.075
 74
0
 49
-0.075
 74
0
  0
LTYPE
  5
1F6
100
AcDbSymbolTableRecord
100
AcDbLinetypeTableRecord
  2
HIDDEN
 70
64
  3
- - - - - - - - - - - - - - - - - - - -
 72
65
 73
2
 40
0.2
 49
0.1
 74
0
 49
-0.1
 74
0
  0
LTYPE
  5
1F7
100
AcDbSymbolTableRecord
100
AcDbLinetypeTableRecord
  2
PHANTOM
 70
64
  3
_____ _ _ _____ _ _ _____ _ _ _____
 72
65
 73
6
 40
0.8
 49
0.45
 74
0
 49
-0.05
 74
0
 49
0.1
 74
0
 49
-0.05
 74
0
 49
0.1
 74
0
 49
-0.05
 74
0
  0
LTYPE
  5
1F8
100
AcDbSymbolTableRecord
100
AcDbLinetypeTableRecord
  2
DOT
 70
64
  3
. . . . . . . . . . . . . . . . . . . .
 72
65
 73
2
 40
0.2
 49
0.1
 74
0
 49
-0.1
 74
0
  0
LTYPE
  5
1F9
100
AcDbSymbolTableRecord
100
AcDbLinetypeTableRecord
  2
DASHED
 70
64
  3
- - - - - - - - - - - - - - - - - - - -
 72
65
 73
2
 40
0.2
 49
0.1
 74
0
 49
-0.1
 74
0
  0
ENDTAB
  0
TABLE
  2
LAYER
  5
2
100
AcDbSymbolTable
 70
36
  0
LAYER
  5
10
100
AcDbSymbolTableRecord
100
AcDbLayerTableRecord
  2
0
 70
0
 62
7
  6
CONTINUOUS
370
-3
390
F
  0
LAYER
  5
1FA
100
AcDbSymbolTableRecord
100
AcDbLayerTableRecord
  2
DEFAULT_1
 70
0
 62
7
  6
CENTER
370
-3
390
F
  0
LAYER
  5
1FB
100
AcDbSymbolTableRecord
100
AcDbLayerTableRecord
  2
DEFAULT_2
 70
0
 62
7
  6
HIDDEN
370
-3
390
F
  0
LAYER
  5
1FC
100
AcDbSymbolTableRecord
100
AcDbLayerTableRecord
  2
DEFAULT_3
 70
0
 62
7
  6
PHANTOM
370
-3
390
F
  0
LAYER
  5
1FD
100
AcDbSymbolTableRecord
100
AcDbLayerTableRecord
  2
00_COMPONENTS
 70
0
 62
7
  6
CONTINUOUS
370
-3
390
F
  0
LAYER
  5
1FE
100
AcDbSymbolTableRecord
100
AcDbLayerTableRecord
  2
01_1_DEFAULT_DATUMS
 70
0
 62
7
  6
CONTINUOUS
370
-3
390
F
  0
LAYER
  5
1FF
100
AcDbSymbolTableRecord
100
AcDbLayerTableRecord
  2
01_PLANES
 70
0
 62
7
  6
CONTINUOUS
370
-3
390
F
  0
LAYER
  5
200
100
AcDbSymbolTableRecord
100
AcDbLayerTableRecord
  2
02_COORD_SYS
 70
0
 62
7
  6
CONTINUOUS
370
-3
390
F
  0
LAYER
  5
201
100
AcDbSymbolTableRecord
100
AcDbLayerTableRecord
  2
03_AXES
 70
0
 62
7
  6
CONTINUOUS
370
-3
390
F
  0
LAYER
  5
202
100
AcDbSymbolTableRecord
100
AcDbLayerTableRecord
  2
04_POINTS
 70
0
 62
7
  6
CONTINUOUS
370
-3
390
F
  0
LAYER
  5
203
100
AcDbSymbolTableRecord
100
AcDbLayerTableRecord
  2
05_CURVES
 70
0
 62
7
  6
CONTINUOUS
370
-3
390
F
  0
LAYER
  5
204
100
AcDbSymbolTableRecord
100
AcDbLayerTableRecord
  2
06_SURFS
 70
0
 62
7
  6
CONTINUOUS
370
-3
390
F
  0
LAYER
  5
205
100
AcDbSymbolTableRecord
100
AcDbLayerTableRecord
  2
07_COSMETICS
 70
0
 62
7
  6
CONTINUOUS
370
-3
390
F
  0
LAYER
  5
206
100
AcDbSymbolTableRecord
100
AcDbLayerTableRecord
  2
10_NOTES
 70
0
 62
7
  6
CONTINUOUS
370
-3
390
F
  0
LAYER
  5
207
100
AcDbSymbolTableRecord
100
AcDbLayerTableRecord
  2
11_NOTES_PUB
 70
0
 62
7
  6
CONTINUOUS
370
-3
390
F
  0
LAYER
  5
208
100
AcDbSymbolTableRecord
100
AcDbLayerTableRecord
  2
13_REF_GTOL
 70
0
 62
7
  6
CONTINUOUS
370
-3
390
F
  0
LAYER
  5
209
100
AcDbSymbolTableRecord
100
AcDbLayerTableRecord
  2
16_MISC
 70
0
 62
7
  6
CONTINUOUS
370
-3
390
F
  0
LAYER
  5
20A
100
AcDbSymbolTableRecord
100
AcDbLayerTableRecord
  2
17_NO_PRINT
 70
0
 62
7
  6
CONTINUOUS
370
-3
390
F
  0
LAYER
  5
20B
100
AcDbSymbolTableRecord
100
AcDbLayerTableRecord
  2
18_DATUM_CAMS_JOINTS
 70
0
 62
7
  6
CONTINUOUS
370
-3
390
F
  0
LAYER
  5
20C
100
AcDbSymbolTableRecord
100
AcDbLayerTableRecord
  2
19_DATUM_FUNCTIONAL
 70
0
 62
7
  6
CONTINUOUS
370
-3
390
F
  0
LAYER
  5
20D
100
AcDbSymbolTableRecord
100
AcDbLayerTableRecord
  2
20_DATUM_KINEMATIC_SCHEME
 70
0
 62
7
  6
CONTINUOUS
370
-3
390
F
  0
ENDTAB
  0
TABLE
  2
STYLE
  5
3
100
AcDbSymbolTable
 70
1
  0
STYLE
  5
11
100
AcDbSymbolTableRecord
100
AcDbTextStyleTableRecord
  2
STANDARD
 70
0
 40
0.0
 41
1.0
 50
0.0
 71
0
 42
0.2
  3
ARIAL.TTF
  4

  0
STYLE
  5
20E
100
AcDbSymbolTableRecord
100
AcDbTextStyleTableRecord
  2
TEXTSTYLE_1
 70
0
 40
0.0
 41
0.8
 50
0.0
 71
0
 42
0.2
  3
gdt
  4

  0
ENDTAB
  0
TABLE
  2
VIEW
  5
6
100
AcDbSymbolTable
 70
0
  0
ENDTAB
  0
TABLE
  2
UCS
  5
7
100
AcDbSymbolTable
 70
0
  0
ENDTAB
  0
TABLE
  2
APPID
  5
9
100
AcDbSymbolTable
 70
1
  0
APPID
  5
20F
100
AcDbSymbolTableRecord
100
AcDbRegAppTableRecord
  2
ACAD
 70
0
  0
ENDTAB
  0
TABLE
  2
BLOCK_RECORD
  5
1
100
AcDbSymbolTable
 70
0
  0
BLOCK_RECORD
  5
210
100
AcDbSymbolTableRecord
100
AcDbBlockTableRecord
  2
*Model_Space
  0
BLOCK_RECORD
  5
211
100
AcDbSymbolTableRecord
100
AcDbBlockTableRecord
  2
*Paper_Space
  0
BLOCK_RECORD
  5
212
100
AcDbSymbolTableRecord
100
AcDbBlockTableRecord
  2
_FILLED
  0
ENDTAB
  0
TABLE
  2
DIMSTYLE
  5
A
100
AcDbSymbolTable
 70
1
100
AcDbDimStyleTable
 71
0
  0
DIMSTYLE
105
213
100
AcDbSymbolTableRecord
100
AcDbDimStyleTableRecord
  2
STANDARD
 70
0
  3

  4

 40
1.0
 41
0.3865754833
 42
1.0
 43
0.38
 44
1.0
 45
0.0
 46
0.0
 47
0.01
 48
0.01
140
0.5412056766
141
0.09
142
0.0
143
25.4
144
1.0
145
0.0
146
1.0
147
0.625
 71
1
 72
0
 73
0
 74
0
 75
0
 76
0
 77
1
 78
8
 79
2
170
0
171
1
172
0
173
0
174
0
175
0
176
0
177
0
178
0
270
2
179
2
271
2
272
2
273
2
274
2
275
0
280
0
281
0
282
0
283
1
284
8
285
0
286
0
287
3
288
0
340
11
278
46
341
212
342
212
343
212
344
212
  0
ENDTAB
  0
ENDSEC
  0
SECTION
  2
BLOCKS
  0
BLOCK
  5
20
100
AcDbEntity
  8
0
100
AcDbBlockBegin
  2
*Model_Space
 70
0
 10
0.0
 20
0.0
 30
0.0
  3
*Model_Space
  1

  0
ENDBLK
  5
21
100
AcDbEntity
  8
0
100
AcDbBlockEnd
  0
BLOCK
  5
1C
100
AcDbEntity
  8
0
100
AcDbBlockBegin
  2
*Paper_Space
 70
0
 10
0.0
 20
0.0
 30
0.0
  3
*Paper_Space
  1

  0
ENDBLK
  5
1D
100
AcDbEntity
  8
0
100
AcDbBlockEnd
  0
BLOCK
  5
214
100
AcDbEntity
  8
0
100
AcDbBlockBegin
  2
_FILLED
 70
64
 10
0.0
 20
0.0
  3
_FILLED
  1

  0
SOLID
  5
215
100
AcDbEntity
  8
0
  6
BYBLOCK
 62
0
100
AcDbTrace
 10
0.0
 20
0.0
 11
-1.0
 21
0.25
 12
-1.0
 22
-0.25
 13
-1.0
 23
-0.25
  0
ENDBLK
  5
216
100
AcDbEntity
  8
0
  6
BYBLOCK
 62
0
100
AcDbBlockEnd
  0
ENDSEC
  0
SECTION
  2
ENTITIES
  0
LINE
  5
217
100
AcDbEntity
  8
0
100
AcDbLine
 62
7
  6
BYLAYER
 10
8.1067144119
 20
15.2814288203
 11
28.1114309171
 21
15.2814288203
  0
LINE
  5
218
100
AcDbEntity
  8
0
100
AcDbLine
 62
7
  6
BYLAYER
 10
18.7848710746
 20
15.6783038203
 11
21.5629960746
 21
15.6783038203
  0
LINE
  5
219
100
AcDbEntity
  8
0
100
AcDbLine
 62
7
  6
BYLAYER
 10
10.6489335746
 20
27.9814288203
 11
10.6489335746
 21
21.6314288203
  0
LINE
  5
21A
100
AcDbEntity
  8
0
100
AcDbLine
 62
7
  6
BYLAYER
 10
22.3170585746
 20
16.0751788203
 11
18.0308085746
 21
16.0751788203
  0
LINE
  5
21B
100
AcDbEntity
  8
0
100
AcDbLine
 62
7
  6
BYLAYER
 10
5.8616503817
 20
16.0751788203
 11
6.4338723173
 21
16.0751788203
  0
LINE
  5
21C
100
AcDbEntity
  8
0
100
AcDbLine
 62
7
  6
BYLAYER
 10
24.9362905097
 20
16.7101788203
 11
15.4115766396
 21
16.7101788203
  0
LINE
  5
21D
100
AcDbEntity
  8
0
100
AcDbLine
 62
7
  6
BYLAYER
 10
26.8401735349
 20
17.2658038203
 11
24.916712993
 21
17.2658038203
  0
LINE
  5
21E
100
AcDbEntity
  8
0
100
AcDbLine
 62
7
  6
BYLAYER
 10
15.4311541562
 20
17.2658038203
 11
13.5076936143
 21
17.2658038203
  0
LINE
  5
21F
100
AcDbEntity
  8
0
100
AcDbLine
 62
7
  6
BYLAYER
 10
13.4714640493
 20
21.6314288203
 11
13.5076936143
 21
21.2345538203
  0
LINE
  5
220
100
AcDbEntity
  8
0
100
AcDbLine
 62
7
  6
BYLAYER
 10
12.7950481282
 20
15.2814288203
 11
12.7950481282
 21
15.3387685102
  0
LINE
  5
221
100
AcDbEntity
  8
0
100
AcDbLine
 62
7
  6
BYLAYER
 10
13.5076936143
 20
17.2658038203
 11
13.3265457893
 21
15.2814288203
  0
LINE
  5
222
100
AcDbEntity
  8
0
100
AcDbLine
 62
7
  6
BYLAYER
 10
15.4114335746
 20
30.3626788203
 11
15.4114335746
 21
27.9814288203
  0
LINE
  5
223
100
AcDbEntity
  8
0
100
AcDbLine
 62
7
  6
BYLAYER
 10
15.4114335746
 20
16.7101788203
 11
15.4114335746
 21
17.2658038203
  0
LINE
  5
224
100
AcDbEntity
  8
0
100
AcDbLine
 62
7
  6
BYLAYER
 10
15.4114335746
 20
21.2345538203
 11
15.4114335746
 21
21.6314288203
  0
LINE
  5
225
100
AcDbEntity
  8
0
100
AcDbLine
 62
7
  6
BYLAYER
 10
15.4311541562
 20
21.2345538203
 11
15.4311541562
 21
17.2658038203
  0
LINE
  5
226
100
AcDbEntity
  8
0
100
AcDbLine
 62
7
  6
BYLAYER
 10
13.5076936143
 20
21.2345538203
 11
15.4311541562
 21
21.2345538203
  0
LINE
  5
227
100
AcDbEntity
  8
0
100
AcDbLine
 62
7
  6
BYLAYER
 10
24.916712993
 20
21.2345538203
 11
26.8401735349
 21
21.2345538203
  0
LINE
  5
228
100
AcDbEntity
  8
0
100
AcDbLine
 62
7
  6
BYLAYER
 10
29.6989335746
 20
21.6314288203
 11
10.6489335746
 21
21.6314288203
  0
LINE
  5
229
100
AcDbEntity
  8
0
100
AcDbLine
 62
7
  6
BYLAYER
 10
5.8616503817
 20
22.4251788203
 11
6.4316576253
 21
22.4251788203
  0
LINE
  5
22A
100
AcDbEntity
  8
0
100
AcDbLine
 62
7
  6
BYLAYER
 10
8.1067144119
 20
23.2189288203
 11
10.6489335746
 21
23.2189288203
  0
LINE
  5
22B
100
AcDbEntity
  8
0
100
AcDbLine
 62
7
  6
BYLAYER
 10
18.0308085746
 20
16.7101788203
 11
18.0308085746
 21
16.0751788203
  0
LINE
  5
22C
100
AcDbEntity
  8
0
100
AcDbLine
 62
7
  6
BYLAYER
 10
18.7848710746
 20
15.6783038203
 11
18.7848710746
 21
16.0751788203
  0
LINE
  5
22D
100
AcDbEntity
  8
0
100
AcDbLine
 62
7
  6
BYLAYER
 10
21.5629960746
 20
16.0751788203
 11
21.5629960746
 21
15.6783038203
  0
LINE
  5
22E
100
AcDbEntity
  8
0
100
AcDbLine
 62
7
  6
BYLAYER
 10
22.3170585746
 20
16.0751788203
 11
22.3170585746
 21
16.7101788203
  0
LINE
  5
22F
100
AcDbEntity
  8
0
100
AcDbLine
 62
7
  6
BYLAYER
 10
10.6489335746
 20
27.9814288203
 11
29.6989335746
 21
27.9814288203
  0
LINE
  5
230
100
AcDbEntity
  8
0
100
AcDbLine
 62
7
  6
BYLAYER
 10
15.4114335746
 20
30.3626788203
 11
24.9364335746
 21
30.3626788203
  0
LINE
  5
231
100
AcDbEntity
  8
0
100
AcDbLine
 62
7
  6
BYLAYER
 10
24.916712993
 20
17.2658038203
 11
24.916712993
 21
21.2345538203
  0
LINE
  5
232
100
AcDbEntity
  8
0
100
AcDbLine
 62
7
  6
BYLAYER
 10
24.9364335746
 20
16.7101788203
 11
24.9364335746
 21
17.2658038203
  0
LINE
  5
233
100
AcDbEntity
  8
0
100
AcDbLine
 62
7
  6
BYLAYER
 10
24.9364335746
 20
21.2345538203
 11
24.9364335746
 21
21.6314288203
  0
LINE
  5
234
100
AcDbEntity
  8
0
100
AcDbLine
 62
7
  6
BYLAYER
 10
24.9364335746
 20
27.9814288203
 11
24.9364335746
 21
30.3626788203
  0
LINE
  5
235
100
AcDbEntity
  8
0
100
AcDbLine
 62
7
  6
BYLAYER
 10
27.0213213599
 20
15.2814288203
 11
26.8401735349
 21
17.2658038203
  0
LINE
  5
236
100
AcDbEntity
  8
0
100
AcDbLine
 62
7
  6
BYLAYER
 10
26.8401735349
 20
21.2345538203
 11
26.8764030999
 21
21.6314288203
  0
LINE
  5
237
100
AcDbEntity
  8
0
100
AcDbLine
 62
7
  6
BYLAYER
 10
28.0785659386
 20
21.6314288203
 11
28.0785659386
 21
15.2814288203
  0
LINE
  5
238
100
AcDbEntity
  8
0
100
AcDbLine
 62
7
  6
BYLAYER
 10
28.1114335746
 20
15.2814288203
 11
28.1114335746
 21
21.6314288203
  0
LINE
  5
239
100
AcDbEntity
  8
0
100
AcDbLine
 62
7
  6
BYLAYER
 10
29.6989335746
 20
21.6314288203
 11
29.6989335746
 21
27.9814288203
  0
SPLINE
  5
23A
100
AcDbEntity
  8
0
100
AcDbSpline
 62
7
  6
BYLAYER
 70
0
 71
3
 72
18
 73
14
 74
0
 42
0.0000001
 43
0.0000001
 44
0.0000000001
 40
0.0
 40
0.0
 40
0.0
 40
0.0
 40
0.0514877822
 40
0.1034646778
 40
0.1563865199
 40
0.2106526983
 40
0.266581525
 40
0.3244058409
 40
0.4460598776
 40
0.5759022399
 40
0.7128721593
 40
0.8550713388
 40
1.0
 40
1.0
 40
1.0
 40
1.0
 10
5.8616503855
 20
16.0752025796
 30
0.0
 10
5.788123033
 20
16.0752023258
 30
0.0
 10
5.6401645445
 20
16.085495681
 30
0.0
 10
5.4210038157
 20
16.1317427687
 30
0.0
 10
5.2062237489
 20
16.2081310511
 30
0.0
 10
4.9980433941
 20
16.3139717841
 30
0.0
 10
4.798375144
 20
16.4480407547
 30
0.0
 10
4.541890596
 20
16.6663079536
 30
0.0
 10
4.2537008
 20
17.0053217841
 30
0.0
 10
3.9765342106
 20
17.4888905896
 30
0.0
 10
3.7711132172
 20
18.0382223699
 30
0.0
 10
3.6449018336
 20
18.6325923424
 30
0.0
 10
3.6165863514
 20
19.0432128121
 30
0.0
 10
3.6165863514
 20
19.2501788203
 30
0.0
  0
SPLINE
  5
23B
100
AcDbEntity
  8
0
100
AcDbSpline
 62
7
  6
BYLAYER
 70
0
 71
3
 72
18
 73
14
 74
0
 42
0.0000001
 43
0.0000001
 44
0.0000000001
 40
0.0
 40
0.0
 40
0.0
 40
0.0
 40
0.1449276472
 40
0.2871239124
 40
0.424092481
 40
0.55393401
 40
0.6755891125
 40
0.7334142458
 40
0.7893442743
 40
0.8436114338
 40
0.8965342095
 40
0.9485117422
 40
1.0
 40
1.0
 40
1.0
 40
1.0
 10
3.6165863514
 20
19.2501788203
 30
0.0
 10
3.6165863514
 20
19.4571434272
 30
0.0
 10
3.6449004321
 20
19.8677584851
 30
0.0
 10
3.7711098703
 20
20.4621210766
 30
0.0
 10
3.9765233268
 20
21.0114480524
 30
0.0
 10
4.2536865765
 20
21.4950167429
 30
0.0
 10
4.5418728532
 20
21.8340361762
 30
0.0
 10
4.7983616074
 20
22.052305192
 30
0.0
 10
4.9980308415
 20
22.1863805308
 30
0.0
 10
5.2062157683
 20
22.2922223861
 30
0.0
 10
5.4209984328
 20
22.3686142088
 30
0.0
 10
5.6401622846
 20
22.414861643
 30
0.0
 10
5.7881223297
 20
22.4251548072
 30
0.0
 10
5.8616503779
 20
22.425155061
 30
0.0
  0
SPLINE
  5
23C
100
AcDbEntity
  8
0
100
AcDbSpline
 62
7
  6
BYLAYER
 70
0
 71
3
 72
29
 73
25
 74
0
 42
0.0000001
 43
0.0000001
 44
0.0000000001
 40
0.0
 40
0.0
 40
0.0
 40
0.0
 40
0.025727967
 40
0.051730656
 40
0.0781984639
 40
0.1053286436
 40
0.1332920396
 40
0.1622048991
 40
0.2230329235
 40
0.2879545345
 40
0.3564411219
 40
0.4275344212
 40
0.4999990818
 40
0.5724634398
 40
0.6435559524
 40
0.712041763
 40
0.7769632152
 40
0.837791952
 40
0.8667053448
 40
0.894669176
 40
0.921799983
 40
0.9482685697
 40
0.9742718455
 40
1.0
 40
1.0
 40
1.0
 40
1.0
 10
8.1067144119
 20
15.2814288203
 30
0.0
 10
8.0148621253
 20
15.2814288203
 30
0.0
 10
7.8299322209
 20
15.2944026394
 30
0.0
 10
7.5559333522
 20
15.3520615546
 30
0.0
 10
7.2874158084
 20
15.4476358184
 30
0.0
 10
7.0271578966
 20
15.5798925694
 30
0.0
 10
6.7776298635
 20
15.7475456609
 30
0.0
 10
6.4569796877
 20
16.0203251707
 30
0.0
 10
6.0967698517
 20
16.4441342162
 30
0.0
 10
5.7503017563
 20
17.048604402
 30
0.0
 10
5.4935640734
 20
17.7352375793
 30
0.0
 10
5.3357879877
 20
18.4783016168
 30
0.0
 10
5.2825455557
 20
19.250167326
 30
0.0
 10
5.3357847576
 20
20.0220303859
 30
0.0
 10
5.4935555727
 20
20.7650887051
 30
0.0
 10
5.75028681
 20
21.4517174879
 30
0.0
 10
6.0967481361
 20
22.0561907642
 30
0.0
 10
6.4569571574
 20
22.4800052215
 30
0.0
 10
6.7776066754
 20
22.752794842
 30
0.0
 10
7.027138357
 20
22.9204528297
 30
0.0
 10
7.2874005677
 20
23.0527156835
 30
0.0
 10
7.5559247323
 20
23.1482929511
 30
0.0
 10
7.8299288332
 20
23.2059536395
 30
0.0
 10
8.0148614556
 20
23.2189288203
 30
0.0
 10
8.1067144119
 20
23.2189288203
 30
0.0
  0
SPLINE
  5
23D
100
AcDbEntity
  8
0
100
AcDbSpline
 62
7
  6
BYLAYER
 70
0
 71
3
 72
20
 73
16
 74
0
 42
0.0000001
 43
0.0000001
 44
0.0000000001
 40
0.0
 40
0.0
 40
0.0
 40
0.0
 40
0.0500753988
 40
0.1018654136
 40
0.1557997003
 40
0.2122071241
 40
0.3324968928
 40
0.3963235706
 40
0.4621342527
 40
0.5295039405
 40
0.5979351619
 40
0.7356556391
 40
0.8039621403
 40
0.8711302746
 40
1.0
 40
1.0
 40
1.0
 40
1.0
 10
12.7950481282
 20
15.3387685102
 30
0.0
 10
12.6755428805
 20
15.3678130028
 30
0.0
 10
12.4373110851
 20
15.4488975613
 30
0.0
 10
12.0992661154
 20
15.6314725303
 30
0.0
 10
11.781141904
 20
15.8734903978
 30
0.0
 10
11.3822730848
 20
16.2777859554
 30
0.0
 10
11.0540151
 20
16.7769708933
 30
0.0
 10
10.8026792073
 20
17.33765439
 30
0.0
 10
10.6504465527
 20
17.7978677195
 30
0.0
 10
10.5410181234
 20
18.2815558385
 30
0.0
 10
10.4542266325
 20
18.9484180897
 30
0.0
 10
10.4586901048
 20
19.6268633766
 30
0.0
 10
10.5545061184
 20
20.2917937755
 30
0.0
 10
10.7067727212
 20
20.9234953867
 30
0.0
 10
10.8871089143
 20
21.3747704034
 30
0.0
 10
11.037089067
 20
21.6534799162
 30
0.0
  0
SPLINE
  5
23E
100
AcDbEntity
  8
0
100
AcDbSpline
 62
7
  6
BYLAYER
 70
0
 71
3
 72
26
 73
22
 74
0
 42
0.0000001
 43
0.0000001
 44
0.0000000001
 40
0.0
 40
0.0
 40
0.0
 40
0.0
 40
0.0600407124
 40
0.123165692
 40
0.1890289059
 40
0.257081644
 40
0.3266281179
 40
0.396876459
 40
0.4669932927
 40
0.5361540411
 40
0.6035913441
 40
0.6686486795
 40
0.7308350809
 40
0.7898836617
 40
0.8458053435
 40
0.8727106704
 40
0.8989874681
 40
0.9247378038
 40
0.9500795783
 40
0.9751290365
 40
1.0
 40
1.0
 40
1.0
 40
1.0
 10
10.6363031237
 20
22.3683973071
 30
0.0
 10
10.5196638184
 20
22.2385057944
 30
0.0
 10
10.3017002139
 20
21.9523376705
 30
0.0
 10
10.033124627
 20
21.4710202283
 30
0.0
 10
9.8200232288
 20
20.9375962701
 30
0.0
 10
9.6673499658
 20
20.3646767104
 30
0.0
 10
9.5785655377
 20
19.7656297112
 30
0.0
 10
9.555719178
 20
19.1545044453
 30
0.0
 10
9.599301908
 20
18.5456250937
 30
0.0
 10
9.7083117701
 20
17.9532569852
 30
0.0
 10
9.8802888483
 20
17.3912765359
 30
0.0
 10
10.1113171041
 20
16.8728492572
 30
0.0
 10
10.3962048321
 20
16.4100794197
 30
0.0
 10
10.7285452371
 20
16.0139545808
 30
0.0
 10
11.0433429476
 20
15.7438302632
 30
0.0
 10
11.310592811
 20
15.5721494401
 30
0.0
 10
11.5150190443
 20
15.4670022561
 30
0.0
 10
11.7247034306
 20
15.384454738
 30
0.0
 10
11.9384454688
 20
15.3251715889
 30
0.0
 10
12.1547500208
 20
15.289444013
 30
0.0
 10
12.3000208762
 20
15.2814288203
 30
0.0
 10
12.3723360695
 20
15.2814288203
 30
0.0
  0
ELLIPSE
  5
23F
100
AcDbEntity
  8
0
100
AcDbEllipse
 62
7
  6
BYLAYER
 10
12.6995504365
 20
19.2501788203
 30
0.0
 11
0.0
 21
3.96875
 31
0.0
 40
0.1420684617
 41
-2.9714002899
 42
-0.9225488057
  0
ENDSEC
  0
SECTION
  2
OBJECTS
  0
DICTIONARY
  5
C
100
AcDbDictionary
280
0
281
1
  3
ACAD_GROUP
350
D
  3
ACAD_MLINESTYLE
350
17
  3
ACAD_LAYOUT
350
1A
  3
ACAD_PLOTSETTINGS
350
19
  3
ACAD_PLOTSTYLENAME
350
E
  0
DICTIONARY
  5
D
102
{ACAD_REACTORS
330
C
102
}
100
AcDbDictionary
280
0
281
1
  0
ACDBDICTIONARYWDFLT
  5
E
102
{ACAD_REACTORS
330
C
102
}
100
AcDbDictionary
281
1
  3
Normal
350
F
100
AcDbDictionaryWithDefault
340
F
  0
DICTIONARY
  5
17
102
{ACAD_REACTORS
330
C
102
}
100
AcDbDictionary
280
0
281
1
  3
Standard
350
18
  0
DICTIONARY
  5
19
102
{ACAD_REACTORS
330
C
102
}
100
AcDbDictionary
281
1
  0
DICTIONARY
  5
1A
102
{ACAD_REACTORS
330
C
102
}
100
AcDbDictionary
281
1
  3
Model
350
240
  3
Layout1
350
241
  0
ACDBPLACEHOLDER
  5
F
102
{ACAD_REACTORS
330
E
102
}
  0
MLINESTYLE
  5
18
102
{ACAD_REACTORS
330
17
102
}
100
AcDbMlineStyle
  2
STANDARD
 70
0
  3

 62
256
 51
90.0
 52
90.0
 71
2
 49
0.5
 62
256
  6
BYLAYER
 49
-0.5
 62
256
  6
BYLAYER
  0
LAYOUT
  5
240
102
{ACAD_REACTORS
330
1A
102
}
100
AcDbPlotSettings
  1

  2
none_device
  4

  6

 40
0.0
 41
0.0
 42
0.0
 43
0.0
 44
210.0
 45
297.0
 46
0.0
 47
0.0
 48
0.0
 49
0.0
140
0.0
141
0.0
142
1.0
143
1.0
 70
1024
 72
1
 73
0
 74
0
  7

 75
0
147
1.0
148
0.0
149
0.0
100
AcDbLayout
  1
Model
 70
0
 71
0
 10
0.0
 20
0.0
 11
210.0
 21
297.0
 12
0.0
 22
0.0
 32
0.0
 14
0.0
 24
0.0
 34
0.0
 15
0.0
 25
0.0
 35
0.0
146
0.0
 13
0.0
 23
0.0
 33
0.0
 16
1.0
 26
0.0
 36
0.0
 17
0.0
 27
1.0
 37
0.0
 76
0
330
210
345
0
346
0
  0
LAYOUT
  5
241
102
{ACAD_REACTORS
330
1A
102
}
100
AcDbPlotSettings
  1

  2
none_device
  4

  6

 40
0.0
 41
0.0
 42
0.0
 43
0.0
 44
210.0
 45
297.0
 46
0.0
 47
0.0
 48
0.0
 49
0.0
140
0.0
141
0.0
142
1.0
143
1.0
 70
0
 72
1
 73
0
 74
0
  7

 75
0
147
1.0
148
0.0
149
0.0
100
AcDbLayout
  1
Layout1
 70
0
 71
1
 10
0.0
 20
0.0
 11
210.0
 21
297.0
 12
0.0
 22
0.0
 32
0.0
 14
0.0
 24
0.0
 34
0.0
 15
0.0
 25
0.0
 35
0.0
146
0.0
 13
0.0
 23
0.0
 33
0.0
 16
1.0
 26
0.0
 36
0.0
 17
0.0
 27
1.0
 37
0.0
 76
0
330
211
345
0
346
0
  0
ENDSEC
  0
EOF
