999
DXF file: C:\Users\sesa63760\Dev\_Creo\CAD\MCADID0004063_3D-CAD\drw0001_6.dxf
999
Pro/ENGINEER 2019471 by Parametric Technology Corporation
  0
SECTION
  2
HEADER
  9
$ACADVER
  1
AC1024
  9
$DWGCODEPAGE
  3
ANSI_1252
  9
$EXTMAX
 10
101.1250359172
 20
143.0196936543
 30
0.0
  9
$EXTMIN
 10
0.0
 20
0.0
 30
0.0
  9
$LIMMIN
 10
0.0
 20
0.0
  9
$LIMMAX
 10
101.1250359172
 20
143.0196936543
  9
$VIEWCTR
 10
50.5625179586
 20
71.5098468271
  9
$VIEWSIZE
 40
143.0196936543
  9
$CLAYER
  8
0
  9
$LTSCALE
 40
9.322765216
  9
$CELTYPE
  6
BYLAYER
  9
$DIMSCALE
 40
1.0
  9
$DIMASZ
 40
1.2038694752
  9
$DIMEXO
 40
1.0
  9
$DIMDLI
 40
6.4411832401
  9
$DIMEXE
 40
1.0
  9
$DIMCEN
 40
1.525543399
  9
$DIMLFAC
 40
1.0
  9
$DIMBLK
  1
_FILLED
  9
$DIMALT
 70
0
  9
$DIMALTF
 40
0.0393700787
  9
$DIMTXT
 40
1.6854172653
  9
$DIMTOL
 70
1
  9
$DIMLIM
 70
0
  9
$DIMTFAC
 40
1.0
  9
$DIMTP
 40
0.01
  9
$DIMTM
 40
0.01
  9
$DIMGAP
 40
0.625
  9
$DIMDSEP
 70
46
  9
$AUNITS
 70
0
  9
$PDMODE
 70
3
  9
$PDSIZE
 40
0.3125
  9
$HANDSEED
  5
251
  9
$TILEMODE
 70
1
  9
$MEASUREMENT
 70
1
  9
$INSUNITS
 70
4
  0
ENDSEC
  0
SECTION
  2
CLASSES
  0
CLASS
  1
ACDBDICTIONARYWDFLT
  2
AcDbDictionaryWithDefault
  3
AutoCAD 2000
 90
0
 91
1
280
0
281
0
  0
CLASS
  1
ACDBPLACEHOLDER
  2
AcDbPlaceHolder
  3
AutoCAD 2000
 90
0
 91
1
280
0
281
0
  0
CLASS
  1
LAYOUT
  2
AcDbLayout
  3
AutoCAD 2000
 90
0
 91
0
280
0
281
0
  0
ENDSEC
  0
SECTION
  2
TABLES
  0
TABLE
  2
VPORT
  5
8
100
AcDbSymbolTable
 70
2
  0
VPORT
  5
1F4
100
AcDbSymbolTableRecord
100
AcDbViewportTableRecord
  2
*ACTIVE
 70
0
 10
0.0
 20
0.0
 11
1.0
 21
1.0
 12
50.5625179586
 22
71.5098468271
 13
0.0
 23
0.0
 14
1.0
 24
1.0
 15
0.0
 25
0.0
 16
0.0
 26
0.0
 36
1.0
 17
0.0
 27
0.0
 37
0.0
 40
143.0196936543
 41
0.7070707071
 42
50.0
 43
0.0
 44
0.0
 50
0.0
 51
0.0
 71
0
 72
100
 73
1
 74
1
 75
0
 76
0
 77
0
 78
0
  0
ENDTAB
  0
TABLE
  2
LTYPE
  5
5
100
AcDbSymbolTable
 70
6
  0
LTYPE
  5
14
100
AcDbSymbolTableRecord
100
AcDbLinetypeTableRecord
  2
BYBLOCK
 70
0
  3

 72
65
 73
0
 40
0.0
  0
LTYPE
  5
15
100
AcDbSymbolTableRecord
100
AcDbLinetypeTableRecord
  2
BYLAYER
 70
0
  3

 72
65
 73
0
 40
0.0
  0
LTYPE
  5
16
100
AcDbSymbolTableRecord
100
AcDbLinetypeTableRecord
  2
CONTINUOUS
 70
64
  3
Solid line
 72
65
 73
0
 40
0.0
  0
LTYPE
  5
1F5
100
AcDbSymbolTableRecord
100
AcDbLinetypeTableRecord
  2
CENTER
 70
64
  3
____ _ ____ _ ____ _ ____ _ ____ _ ____ _ ____
 72
65
 73
4
 40
0.6
 49
0.375
 74
0
 49
-0.075
 74
0
 49
0.075
 74
0
 49
-0.075
 74
0
  0
LTYPE
  5
1F6
100
AcDbSymbolTableRecord
100
AcDbLinetypeTableRecord
  2
HIDDEN
 70
64
  3
- - - - - - - - - - - - - - - - - - - -
 72
65
 73
2
 40
0.2
 49
0.1
 74
0
 49
-0.1
 74
0
  0
LTYPE
  5
1F7
100
AcDbSymbolTableRecord
100
AcDbLinetypeTableRecord
  2
PHANTOM
 70
64
  3
_____ _ _ _____ _ _ _____ _ _ _____
 72
65
 73
6
 40
0.8
 49
0.45
 74
0
 49
-0.05
 74
0
 49
0.1
 74
0
 49
-0.05
 74
0
 49
0.1
 74
0
 49
-0.05
 74
0
  0
LTYPE
  5
1F8
100
AcDbSymbolTableRecord
100
AcDbLinetypeTableRecord
  2
DOT
 70
64
  3
. . . . . . . . . . . . . . . . . . . .
 72
65
 73
2
 40
0.2
 49
0.1
 74
0
 49
-0.1
 74
0
  0
LTYPE
  5
1F9
100
AcDbSymbolTableRecord
100
AcDbLinetypeTableRecord
  2
DASHED
 70
64
  3
- - - - - - - - - - - - - - - - - - - -
 72
65
 73
2
 40
0.2
 49
0.1
 74
0
 49
-0.1
 74
0
  0
ENDTAB
  0
TABLE
  2
LAYER
  5
2
100
AcDbSymbolTable
 70
36
  0
LAYER
  5
10
100
AcDbSymbolTableRecord
100
AcDbLayerTableRecord
  2
0
 70
0
 62
7
  6
CONTINUOUS
370
-3
390
F
  0
LAYER
  5
1FA
100
AcDbSymbolTableRecord
100
AcDbLayerTableRecord
  2
DEFAULT_1
 70
0
 62
7
  6
CENTER
370
-3
390
F
  0
LAYER
  5
1FB
100
AcDbSymbolTableRecord
100
AcDbLayerTableRecord
  2
DEFAULT_2
 70
0
 62
7
  6
HIDDEN
370
-3
390
F
  0
LAYER
  5
1FC
100
AcDbSymbolTableRecord
100
AcDbLayerTableRecord
  2
DEFAULT_3
 70
0
 62
7
  6
PHANTOM
370
-3
390
F
  0
LAYER
  5
1FD
100
AcDbSymbolTableRecord
100
AcDbLayerTableRecord
  2
00_COMPONENTS
 70
0
 62
7
  6
CONTINUOUS
370
-3
390
F
  0
LAYER
  5
1FE
100
AcDbSymbolTableRecord
100
AcDbLayerTableRecord
  2
01_1_DEFAULT_DATUMS
 70
0
 62
7
  6
CONTINUOUS
370
-3
390
F
  0
LAYER
  5
1FF
100
AcDbSymbolTableRecord
100
AcDbLayerTableRecord
  2
01_PLANES
 70
0
 62
7
  6
CONTINUOUS
370
-3
390
F
  0
LAYER
  5
200
100
AcDbSymbolTableRecord
100
AcDbLayerTableRecord
  2
02_COORD_SYS
 70
0
 62
7
  6
CONTINUOUS
370
-3
390
F
  0
LAYER
  5
201
100
AcDbSymbolTableRecord
100
AcDbLayerTableRecord
  2
03_AXES
 70
0
 62
7
  6
CONTINUOUS
370
-3
390
F
  0
LAYER
  5
202
100
AcDbSymbolTableRecord
100
AcDbLayerTableRecord
  2
04_POINTS
 70
0
 62
7
  6
CONTINUOUS
370
-3
390
F
  0
LAYER
  5
203
100
AcDbSymbolTableRecord
100
AcDbLayerTableRecord
  2
05_CURVES
 70
0
 62
7
  6
CONTINUOUS
370
-3
390
F
  0
LAYER
  5
204
100
AcDbSymbolTableRecord
100
AcDbLayerTableRecord
  2
06_SURFS
 70
0
 62
7
  6
CONTINUOUS
370
-3
390
F
  0
LAYER
  5
205
100
AcDbSymbolTableRecord
100
AcDbLayerTableRecord
  2
07_COSMETICS
 70
0
 62
7
  6
CONTINUOUS
370
-3
390
F
  0
LAYER
  5
206
100
AcDbSymbolTableRecord
100
AcDbLayerTableRecord
  2
10_NOTES
 70
0
 62
7
  6
CONTINUOUS
370
-3
390
F
  0
LAYER
  5
207
100
AcDbSymbolTableRecord
100
AcDbLayerTableRecord
  2
11_NOTES_PUB
 70
0
 62
7
  6
CONTINUOUS
370
-3
390
F
  0
LAYER
  5
208
100
AcDbSymbolTableRecord
100
AcDbLayerTableRecord
  2
13_REF_GTOL
 70
0
 62
7
  6
CONTINUOUS
370
-3
390
F
  0
LAYER
  5
209
100
AcDbSymbolTableRecord
100
AcDbLayerTableRecord
  2
16_MISC
 70
0
 62
7
  6
CONTINUOUS
370
-3
390
F
  0
LAYER
  5
20A
100
AcDbSymbolTableRecord
100
AcDbLayerTableRecord
  2
17_NO_PRINT
 70
0
 62
7
  6
CONTINUOUS
370
-3
390
F
  0
LAYER
  5
20B
100
AcDbSymbolTableRecord
100
AcDbLayerTableRecord
  2
18_DATUM_CAMS_JOINTS
 70
0
 62
7
  6
CONTINUOUS
370
-3
390
F
  0
LAYER
  5
20C
100
AcDbSymbolTableRecord
100
AcDbLayerTableRecord
  2
19_DATUM_FUNCTIONAL
 70
0
 62
7
  6
CONTINUOUS
370
-3
390
F
  0
LAYER
  5
20D
100
AcDbSymbolTableRecord
100
AcDbLayerTableRecord
  2
20_DATUM_KINEMATIC_SCHEME
 70
0
 62
7
  6
CONTINUOUS
370
-3
390
F
  0
ENDTAB
  0
TABLE
  2
STYLE
  5
3
100
AcDbSymbolTable
 70
1
  0
STYLE
  5
11
100
AcDbSymbolTableRecord
100
AcDbTextStyleTableRecord
  2
STANDARD
 70
0
 40
0.0
 41
1.0
 50
0.0
 71
0
 42
0.2
  3
ARIAL.TTF
  4

  0
STYLE
  5
20E
100
AcDbSymbolTableRecord
100
AcDbTextStyleTableRecord
  2
TEXTSTYLE_1
 70
0
 40
0.0
 41
0.8
 50
0.0
 71
0
 42
0.2
  3
gdt
  4

  0
ENDTAB
  0
TABLE
  2
VIEW
  5
6
100
AcDbSymbolTable
 70
0
  0
ENDTAB
  0
TABLE
  2
UCS
  5
7
100
AcDbSymbolTable
 70
0
  0
ENDTAB
  0
TABLE
  2
APPID
  5
9
100
AcDbSymbolTable
 70
1
  0
APPID
  5
20F
100
AcDbSymbolTableRecord
100
AcDbRegAppTableRecord
  2
ACAD
 70
0
  0
ENDTAB
  0
TABLE
  2
BLOCK_RECORD
  5
1
100
AcDbSymbolTable
 70
0
  0
BLOCK_RECORD
  5
210
100
AcDbSymbolTableRecord
100
AcDbBlockTableRecord
  2
*Model_Space
  0
BLOCK_RECORD
  5
211
100
AcDbSymbolTableRecord
100
AcDbBlockTableRecord
  2
*Paper_Space
  0
BLOCK_RECORD
  5
212
100
AcDbSymbolTableRecord
100
AcDbBlockTableRecord
  2
_FILLED
  0
ENDTAB
  0
TABLE
  2
DIMSTYLE
  5
A
100
AcDbSymbolTable
 70
1
100
AcDbDimStyleTable
 71
0
  0
DIMSTYLE
105
213
100
AcDbSymbolTableRecord
100
AcDbDimStyleTableRecord
  2
STANDARD
 70
0
  3

  4

 40
1.0
 41
1.2038694752
 42
1.0
 43
0.38
 44
1.0
 45
0.0
 46
0.0
 47
0.01
 48
0.01
140
1.6854172653
141
0.09
142
0.0
143
25.4
144
1.0
145
0.0
146
1.0
147
0.625
 71
1
 72
0
 73
0
 74
0
 75
0
 76
0
 77
1
 78
8
 79
2
170
0
171
1
172
0
173
0
174
0
175
0
176
0
177
0
178
0
270
2
179
2
271
2
272
2
273
2
274
2
275
0
280
0
281
0
282
0
283
1
284
8
285
0
286
0
287
3
288
0
340
11
278
46
341
212
342
212
343
212
344
212
  0
ENDTAB
  0
ENDSEC
  0
SECTION
  2
BLOCKS
  0
BLOCK
  5
20
100
AcDbEntity
  8
0
100
AcDbBlockBegin
  2
*Model_Space
 70
0
 10
0.0
 20
0.0
 30
0.0
  3
*Model_Space
  1

  0
ENDBLK
  5
21
100
AcDbEntity
  8
0
100
AcDbBlockEnd
  0
BLOCK
  5
1C
100
AcDbEntity
  8
0
100
AcDbBlockBegin
  2
*Paper_Space
 70
0
 10
0.0
 20
0.0
 30
0.0
  3
*Paper_Space
  1

  0
ENDBLK
  5
1D
100
AcDbEntity
  8
0
100
AcDbBlockEnd
  0
BLOCK
  5
214
100
AcDbEntity
  8
0
100
AcDbBlockBegin
  2
_FILLED
 70
64
 10
0.0
 20
0.0
  3
_FILLED
  1

  0
SOLID
  5
215
100
AcDbEntity
  8
0
  6
BYBLOCK
 62
0
100
AcDbTrace
 10
0.0
 20
0.0
 11
-1.0
 21
0.25
 12
-1.0
 22
-0.25
 13
-1.0
 23
-0.25
  0
ENDBLK
  5
216
100
AcDbEntity
  8
0
  6
BYBLOCK
 62
0
100
AcDbBlockEnd
  0
ENDSEC
  0
SECTION
  2
ENTITIES
  0
LINE
  5
217
100
AcDbEntity
  8
0
100
AcDbLine
 62
7
  6
BYLAYER
 10
11.6560393317
 20
83.5185733626
 11
11.4377914816
 21
58.5098468271
  0
LINE
  5
218
100
AcDbEntity
  8
0
100
AcDbLine
 62
7
  6
BYLAYER
 10
22.7218533678
 20
84.5098468271
 11
22.7218533678
 21
74.5098468271
  0
LINE
  5
219
100
AcDbEntity
  8
0
100
AcDbLine
 62
7
  6
BYLAYER
 10
23.2610893394
 20
83.5098468271
 11
23.2610893394
 21
84.5098468271
  0
LINE
  5
21A
100
AcDbEntity
  8
0
100
AcDbLine
 62
7
  6
BYLAYER
 10
23.3832288769
 20
84.5098468271
 11
23.3832288769
 21
83.5098468271
  0
LINE
  5
21B
100
AcDbEntity
  8
0
100
AcDbLine
 62
7
  6
BYLAYER
 10
23.8191060796
 20
58.5098468271
 11
23.8191060796
 21
58.8098468271
  0
LINE
  5
21C
100
AcDbEntity
  8
0
100
AcDbLine
 62
7
  6
BYLAYER
 10
23.919971061
 20
84.5098468271
 11
23.919971061
 21
83.5098468271
  0
LINE
  5
21D
100
AcDbEntity
  8
0
100
AcDbLine
 62
7
  6
BYLAYER
 10
24.1785779573
 20
74.5098468271
 11
24.1785779573
 21
84.5098468271
  0
LINE
  5
21E
100
AcDbEntity
  8
0
100
AcDbLine
 62
7
  6
BYLAYER
 10
27.190145416
 20
74.5098468271
 11
27.170390221
 21
84.3098252552
  0
LINE
  5
21F
100
AcDbEntity
  8
0
100
AcDbLine
 62
7
  6
BYLAYER
 10
31.2677914816
 20
84.5098468271
 11
31.2677914816
 21
79.7053710635
  0
LINE
  5
220
100
AcDbEntity
  8
0
100
AcDbLine
 62
7
  6
BYLAYER
 10
31.4852914816
 20
84.2098468271
 11
31.4852914816
 21
84.5098468271
  0
LINE
  5
221
100
AcDbEntity
  8
0
100
AcDbLine
 62
7
  6
BYLAYER
 10
32.7851989528
 20
84.5098468271
 11
32.7851989528
 21
84.2098468271
  0
LINE
  5
222
100
AcDbEntity
  8
0
100
AcDbLine
 62
7
  6
BYLAYER
 10
32.9826914816
 20
79.7053710635
 11
32.9826914816
 21
84.2098468271
  0
LINE
  5
223
100
AcDbEntity
  8
0
100
AcDbLine
 62
7
  6
BYLAYER
 10
33.0026989528
 20
84.2098468271
 11
33.0026989528
 21
84.5098468271
  0
LINE
  5
224
100
AcDbEntity
  8
0
100
AcDbLine
 62
7
  6
BYLAYER
 10
33.4977914816
 20
84.4870952297
 11
33.4977914816
 21
79.7053710635
  0
LINE
  5
225
100
AcDbEntity
  8
0
100
AcDbLine
 62
7
  6
BYLAYER
 10
33.5177914816
 20
84.2098468271
 11
33.5177914816
 21
84.5098468271
  0
LINE
  5
226
100
AcDbEntity
  8
0
100
AcDbLine
 62
7
  6
BYLAYER
 10
33.7352914816
 20
84.2098468271
 11
33.7352914816
 21
84.5098468271
  0
LINE
  5
227
100
AcDbEntity
  8
0
100
AcDbLine
 62
7
  6
BYLAYER
 10
35.0351989528
 20
84.5098468271
 11
35.0351989528
 21
84.2098468271
  0
LINE
  5
228
100
AcDbEntity
  8
0
100
AcDbLine
 62
7
  6
BYLAYER
 10
35.2152452172
 20
79.7053710635
 11
35.2152452172
 21
84.2098468271
  0
LINE
  5
229
100
AcDbEntity
  8
0
100
AcDbLine
 62
7
  6
BYLAYER
 10
35.2526989528
 20
84.2098468271
 11
35.2526989528
 21
84.5098468271
  0
LINE
  5
22A
100
AcDbEntity
  8
0
100
AcDbLine
 62
7
  6
BYLAYER
 10
11.4377914816
 20
58.5098468271
 11
23.8191060796
 21
58.5098468271
  0
LINE
  5
22B
100
AcDbEntity
  8
0
100
AcDbLine
 62
7
  6
BYLAYER
 10
79.0643310645
 20
58.5098468271
 11
91.4377914816
 21
58.5098468271
  0
LINE
  5
22C
100
AcDbEntity
  8
0
100
AcDbLine
 62
7
  6
BYLAYER
 10
23.8191060796
 20
58.8098468271
 11
79.0617130042
 21
58.8098468271
  0
LINE
  5
22D
100
AcDbEntity
  8
0
100
AcDbLine
 62
7
  6
BYLAYER
 10
48.0377914816
 20
69.7098468271
 11
48.0377914816
 21
68.3342971845
  0
LINE
  5
22E
100
AcDbEntity
  8
0
100
AcDbLine
 62
7
  6
BYLAYER
 10
50.4377914816
 20
68.3342971845
 11
50.4377914816
 21
69.7098468271
  0
LINE
  5
22F
100
AcDbEntity
  8
0
100
AcDbLine
 62
7
  6
BYLAYER
 10
50.2377914816
 20
69.9098468271
 11
48.2377914816
 21
69.9098468271
  0
LINE
  5
230
100
AcDbEntity
  8
0
100
AcDbLine
 62
7
  6
BYLAYER
 10
11.5774213662
 20
74.5098468271
 11
27.190145416
 21
74.5098468271
  0
LINE
  5
231
100
AcDbEntity
  8
0
100
AcDbLine
 62
7
  6
BYLAYER
 10
75.6307321333
 20
74.5098468271
 11
91.3033977175
 21
74.5098468271
  0
LINE
  5
232
100
AcDbEntity
  8
0
100
AcDbLine
 62
7
  6
BYLAYER
 10
31.2677914816
 20
79.7053710635
 11
32.9826914816
 21
79.7053710635
  0
LINE
  5
233
100
AcDbEntity
  8
0
100
AcDbLine
 62
7
  6
BYLAYER
 10
33.4977914816
 20
79.7053710635
 11
35.2152452172
 21
79.7053710635
  0
LINE
  5
234
100
AcDbEntity
  8
0
100
AcDbLine
 62
7
  6
BYLAYER
 10
23.2610893394
 20
83.5098468271
 11
23.919971061
 21
83.5098468271
  0
LINE
  5
235
100
AcDbEntity
  8
0
100
AcDbLine
 62
7
  6
BYLAYER
 10
78.9558236202
 20
83.5098468271
 11
79.6141243461
 21
83.5098468271
  0
LINE
  5
236
100
AcDbEntity
  8
0
100
AcDbLine
 62
7
  6
BYLAYER
 10
31.2677914816
 20
84.2098468271
 11
33.0026989528
 21
84.2098468271
  0
LINE
  5
237
100
AcDbEntity
  8
0
100
AcDbLine
 62
7
  6
BYLAYER
 10
33.5177914816
 20
84.2098468271
 11
35.2526989528
 21
84.2098468271
  0
LINE
  5
238
100
AcDbEntity
  8
0
100
AcDbLine
 62
7
  6
BYLAYER
 10
27.1703871673
 20
84.3113401105
 11
31.2677914816
 21
84.3113401105
  0
LINE
  5
239
100
AcDbEntity
  8
0
100
AcDbLine
 62
7
  6
BYLAYER
 10
33.0026989528
 20
84.3113401105
 11
33.4977914816
 21
84.3113401105
  0
LINE
  5
23A
100
AcDbEntity
  8
0
100
AcDbLine
 62
7
  6
BYLAYER
 10
35.2526989528
 20
84.3113401105
 11
75.6508519625
 21
84.3113401105
  0
LINE
  5
23B
100
AcDbEntity
  8
0
100
AcDbLine
 62
7
  6
BYLAYER
 10
33.4977914816
 20
84.4870952297
 11
33.5177914816
 21
84.4870952297
  0
LINE
  5
23C
100
AcDbEntity
  8
0
100
AcDbLine
 62
7
  6
BYLAYER
 10
12.6560012548
 20
84.5098468271
 11
90.224817829
 21
84.5098468271
  0
LINE
  5
23D
100
AcDbEntity
  8
0
100
AcDbLine
 62
7
  6
BYLAYER
 10
75.6508488528
 20
84.3098251929
 11
75.6307321333
 21
74.5098468271
  0
LINE
  5
23E
100
AcDbEntity
  8
0
100
AcDbLine
 62
7
  6
BYLAYER
 10
79.0617130042
 20
58.8098468271
 11
79.0643310645
 21
58.5098468271
  0
LINE
  5
23F
100
AcDbEntity
  8
0
100
AcDbLine
 62
7
  6
BYLAYER
 10
78.7001124693
 20
84.5098468271
 11
78.7001124693
 21
74.5098468271
  0
LINE
  5
240
100
AcDbEntity
  8
0
100
AcDbLine
 62
7
  6
BYLAYER
 10
78.9558236202
 20
83.5098468271
 11
78.9558236202
 21
84.5098468271
  0
LINE
  5
241
100
AcDbEntity
  8
0
100
AcDbLine
 62
7
  6
BYLAYER
 10
79.4923540862
 20
83.5098468271
 11
79.4923540862
 21
84.5098468271
  0
LINE
  5
242
100
AcDbEntity
  8
0
100
AcDbLine
 62
7
  6
BYLAYER
 10
79.6141243461
 20
84.5098468271
 11
79.6141243461
 21
83.5098468271
  0
LINE
  5
243
100
AcDbEntity
  8
0
100
AcDbLine
 62
7
  6
BYLAYER
 10
80.1635524133
 20
74.5098468271
 11
80.1635524133
 21
84.5098468271
  0
LINE
  5
244
100
AcDbEntity
  8
0
100
AcDbLine
 62
7
  6
BYLAYER
 10
91.4377914816
 20
59.1098468271
 11
91.2247797521
 21
83.5185733626
  0
LINE
  5
245
100
AcDbEntity
  8
0
100
AcDbLine
 62
7
  6
BYLAYER
 10
91.4377914816
 20
58.5098468271
 11
91.4377914816
 21
59.1098468271
  0
ARC
  5
246
100
AcDbEntity
  8
0
100
AcDbCircle
 62
7
  6
BYLAYER
 10
49.2377914816
 20
66.992656398
 40
1.8
100
AcDbArc
 50
131.8103148958
 51
48.1896851042
  0
ARC
  5
247
100
AcDbEntity
  8
0
100
AcDbCircle
 62
7
  6
BYLAYER
 10
12.6560012548
 20
83.5098468271
 40
1.0
100
AcDbArc
 50
90.0
 51
179.4999999999
  0
ARC
  5
248
100
AcDbEntity
  8
0
100
AcDbCircle
 62
7
  6
BYLAYER
 10
90.224817829
 20
83.5098468271
 40
1.0
100
AcDbArc
 50
0.5000000001
 51
90.0
  0
ARC
  5
249
100
AcDbEntity
  8
0
100
AcDbCircle
 62
7
  6
BYLAYER
 10
50.2377914816
 20
69.7098468271
 40
0.2
100
AcDbArc
 50
0.0
 51
90.0
  0
ARC
  5
24A
100
AcDbEntity
  8
0
100
AcDbCircle
 62
7
  6
BYLAYER
 10
48.2377914816
 20
69.7098468271
 40
0.2
100
AcDbArc
 50
90.0
 51
180.0
  0
SPLINE
  5
24B
100
AcDbEntity
  8
0
100
AcDbSpline
 62
7
  6
BYLAYER
 70
0
 71
3
 72
39
 73
35
 74
0
 42
0.0000001
 43
0.0000001
 44
0.0000000001
 40
0.0
 40
0.0
 40
0.0
 40
0.0
 40
0.1249996722
 40
0.2499993335
 40
0.3124991769
 40
0.3749990188
 40
0.4374988588
 40
0.4999986953
 40
0.5624985258
 40
0.6249983453
 40
0.6874981435
 40
0.7187480627
 40
0.7499979785
 40
0.7812478885
 40
0.8124977877
 40
0.8437476655
 40
0.8749974962
 40
0.8906224468
 40
0.9062473869
 40
0.9218723056
 40
0.9374971766
 40
0.9531219201
 40
0.9609343621
 40
0.9687467567
 40
0.9765590213
 40
0.9843707977
 40
0.9882768529
 40
0.9921824639
 40
0.9941353608
 40
0.9960883394
 40
0.9970641644
 40
0.9980451646
 40
0.9990208927
 40
1.0
 40
1.0
 40
1.0
 40
1.0
 10
88.4080779782
 20
74.5098468271
 30
0.0
 10
88.3880621897
 20
73.840595355
 30
0.0
 10
88.3468352219
 20
72.5021277064
 30
0.0
 10
88.2912557712
 20
70.8291716714
 30
0.0
 10
88.2438129337
 20
69.490910399
 30
0.0
 10
88.2065160068
 20
68.4872764362
 30
0.0
 10
88.1672488585
 20
67.483717484
 30
0.0
 10
88.12567599
 20
66.4802511873
 30
0.0
 10
88.0813573508
 20
65.4769019895
 30
0.0
 10
88.03368812
 20
64.4737060587
 30
0.0
 10
87.9904609227
 20
63.6378813241
 30
0.0
 10
87.953109997
 20
62.9693725197
 30
0.0
 10
87.9234657868
 20
62.4680842219
 30
0.0
 10
87.8918787078
 20
61.9669142958
 30
0.0
 10
87.8579192774
 20
61.465898782
 30
0.0
 10
87.8209694423
 20
60.9650944188
 30
0.0
 10
87.7869186594
 20
60.5480066834
 30
0.0
 10
87.7569287649
 20
60.2145759529
 30
0.0
 10
87.7327393207
 20
59.9646604332
 30
0.0
 10
87.7064158477
 20
59.7149591215
 30
0.0
 10
87.677276552
 20
59.4655703548
 30
0.0
 10
87.64974227
 20
59.2581409067
 30
0.0
 10
87.6246675976
 20
59.0926392537
 30
0.0
 10
87.6038289367
 20
58.9688320357
 30
0.0
 10
87.5801237902
 20
58.8455471679
 30
0.0
 10
87.5567784518
 20
58.7435156396
 30
0.0
 10
87.5340012305
 20
58.6629774519
 30
0.0
 10
87.5171206927
 20
58.6134036574
 30
0.0
 10
87.500600203
 20
58.5749472536
 30
0.0
 10
87.488404439
 20
58.5517345511
 30
0.0
 10
87.4764691895
 20
58.5344919411
 30
0.0
 10
87.4662465236
 20
58.5225160734
 30
0.0
 10
87.4534938404
 20
58.5128690855
 30
0.0
 10
87.4430232307
 20
58.5102124577
 30
0.0
 10
87.4377914816
 20
58.5098468271
 30
0.0
  0
SPLINE
  5
24C
100
AcDbEntity
  8
0
100
AcDbSpline
 62
7
  6
BYLAYER
 70
0
 71
3
 72
12
 73
8
 74
0
 42
0.0000001
 43
0.0000001
 44
0.0000000001
 40
0.0
 40
0.0
 40
0.0
 40
0.0
 40
0.3614180168
 40
0.6687788256
 40
0.7889129728
 40
0.8831842366
 40
1.0
 40
1.0
 40
1.0
 40
1.0
 10
27.170390221
 20
84.3098252552
 30
0.0
 10
27.170337968
 20
84.3357464382
 30
0.0
 10
27.1677898543
 20
84.3837801031
 30
0.0
 10
27.1588483154
 20
84.4396693312
 30
0.0
 10
27.1470794762
 20
84.4756820213
 30
0.0
 10
27.1373079792
 20
84.4964297718
 30
0.0
 10
27.1247707747
 20
84.5098468271
 30
0.0
 10
27.1163926397
 20
84.5098468271
 30
0.0
  0
SPLINE
  5
24D
100
AcDbEntity
  8
0
100
AcDbSpline
 62
7
  6
BYLAYER
 70
0
 71
3
 72
12
 73
8
 74
0
 42
0.0000001
 43
0.0000001
 44
0.0000000001
 40
0.0
 40
0.0
 40
0.0
 40
0.0
 40
0.1178542166
 40
0.2122226535
 40
0.332281821
 40
0.6391679643
 40
1.0
 40
1.0
 40
1.0
 40
1.0
 10
75.7058346025
 20
84.5098468271
 30
0.0
 10
75.6973633493
 20
84.5098468271
 30
0.0
 10
75.684597057
 20
84.49655003
 30
0.0
 10
75.6746039953
 20
84.4757259623
 30
0.0
 10
75.6626223289
 20
84.4397452505
 30
0.0
 10
75.6534956129
 20
84.3838216117
 30
0.0
 10
75.6509020929
 20
84.3357614146
 30
0.0
 10
75.6508488528
 20
84.3098251929
 30
0.0
  0
SPLINE
  5
24E
100
AcDbEntity
  8
0
100
AcDbSpline
 62
7
  6
BYLAYER
 70
0
 71
3
 72
39
 73
35
 74
0
 42
0.0000001
 43
0.0000001
 44
0.0000000001
 40
0.0
 40
0.0
 40
0.0
 40
0.0
 40
0.1249996722
 40
0.2499993335
 40
0.3124991769
 40
0.3749990189
 40
0.4374988589
 40
0.4999986954
 40
0.5624985259
 40
0.6249983454
 40
0.6874981436
 40
0.7187480628
 40
0.7499979787
 40
0.7812478886
 40
0.8124977879
 40
0.8437476657
 40
0.8749974963
 40
0.8906224469
 40
0.906247387
 40
0.9218723057
 40
0.9374971768
 40
0.9531219203
 40
0.9609343623
 40
0.9687467569
 40
0.9765590214
 40
0.9843707979
 40
0.9882768531
 40
0.9921824641
 40
0.9941353609
 40
0.9960883396
 40
0.9970641646
 40
0.9980451646
 40
0.9990208928
 40
1.0
 40
1.0
 40
1.0
 40
1.0
 10
14.4675049849
 20
74.5098468271
 30
0.0
 10
14.4875207735
 20
73.8405953548
 30
0.0
 10
14.5287477412
 20
72.5021277059
 30
0.0
 10
14.584327192
 20
70.8291716705
 30
0.0
 10
14.6317700294
 20
69.4909103978
 30
0.0
 10
14.6690669564
 20
68.4872764347
 30
0.0
 10
14.7083341047
 20
67.4837174823
 30
0.0
 10
14.7499069732
 20
66.4802511854
 30
0.0
 10
14.7942256124
 20
65.4769019874
 30
0.0
 10
14.8418948432
 20
64.4737060563
 30
0.0
 10
14.8851220405
 20
63.6378813215
 30
0.0
 10
14.9224729663
 20
62.9693725169
 30
0.0
 10
14.9521171765
 20
62.468084219
 30
0.0
 10
14.9837042555
 20
61.9669142928
 30
0.0
 10
15.017663686
 20
61.4658987788
 30
0.0
 10
15.054613521
 20
60.9650944155
 30
0.0
 10
15.088664304
 20
60.54800668
 30
0.0
 10
15.1186541986
 20
60.2145759494
 30
0.0
 10
15.1428436427
 20
59.9646604297
 30
0.0
 10
15.1691671158
 20
59.7149591179
 30
0.0
 10
15.1983064116
 20
59.4655703512
 30
0.0
 10
15.2258406936
 20
59.2581409031
 30
0.0
 10
15.2509153661
 20
59.09263925
 30
0.0
 10
15.2717540271
 20
58.968832032
 30
0.0
 10
15.2954591737
 20
58.8455471642
 30
0.0
 10
15.3188045123
 20
58.7435156359
 30
0.0
 10
15.3415817337
 20
58.6629774481
 30
0.0
 10
15.3584622719
 20
58.6134036539
 30
0.0
 10
15.3749827615
 20
58.5749472497
 30
0.0
 10
15.3871785267
 20
58.5517345483
 30
0.0
 10
15.3991137735
 20
58.5344919364
 30
0.0
 10
15.409336447
 20
58.5225160771
 30
0.0
 10
15.4220891198
 20
58.5128690779
 30
0.0
 10
15.4325597326
 20
58.5102124525
 30
0.0
 10
15.4377914816
 20
58.5098468271
 30
0.0
  0
ENDSEC
  0
SECTION
  2
OBJECTS
  0
DICTIONARY
  5
C
100
AcDbDictionary
280
0
281
1
  3
ACAD_GROUP
350
D
  3
ACAD_MLINESTYLE
350
17
  3
ACAD_LAYOUT
350
1A
  3
ACAD_PLOTSETTINGS
350
19
  3
ACAD_PLOTSTYLENAME
350
E
  0
DICTIONARY
  5
D
102
{ACAD_REACTORS
330
C
102
}
100
AcDbDictionary
280
0
281
1
  0
ACDBDICTIONARYWDFLT
  5
E
102
{ACAD_REACTORS
330
C
102
}
100
AcDbDictionary
281
1
  3
Normal
350
F
100
AcDbDictionaryWithDefault
340
F
  0
DICTIONARY
  5
17
102
{ACAD_REACTORS
330
C
102
}
100
AcDbDictionary
280
0
281
1
  3
Standard
350
18
  0
DICTIONARY
  5
19
102
{ACAD_REACTORS
330
C
102
}
100
AcDbDictionary
281
1
  0
DICTIONARY
  5
1A
102
{ACAD_REACTORS
330
C
102
}
100
AcDbDictionary
281
1
  3
Model
350
24F
  3
Layout1
350
250
  0
ACDBPLACEHOLDER
  5
F
102
{ACAD_REACTORS
330
E
102
}
  0
MLINESTYLE
  5
18
102
{ACAD_REACTORS
330
17
102
}
100
AcDbMlineStyle
  2
STANDARD
 70
0
  3

 62
256
 51
90.0
 52
90.0
 71
2
 49
0.5
 62
256
  6
BYLAYER
 49
-0.5
 62
256
  6
BYLAYER
  0
LAYOUT
  5
24F
102
{ACAD_REACTORS
330
1A
102
}
100
AcDbPlotSettings
  1

  2
none_device
  4

  6

 40
0.0
 41
0.0
 42
0.0
 43
0.0
 44
210.0
 45
297.0
 46
0.0
 47
0.0
 48
0.0
 49
0.0
140
0.0
141
0.0
142
1.0
143
1.0
 70
1024
 72
1
 73
0
 74
0
  7

 75
0
147
1.0
148
0.0
149
0.0
100
AcDbLayout
  1
Model
 70
0
 71
0
 10
0.0
 20
0.0
 11
210.0
 21
297.0
 12
0.0
 22
0.0
 32
0.0
 14
0.0
 24
0.0
 34
0.0
 15
0.0
 25
0.0
 35
0.0
146
0.0
 13
0.0
 23
0.0
 33
0.0
 16
1.0
 26
0.0
 36
0.0
 17
0.0
 27
1.0
 37
0.0
 76
0
330
210
345
0
346
0
  0
LAYOUT
  5
250
102
{ACAD_REACTORS
330
1A
102
}
100
AcDbPlotSettings
  1

  2
none_device
  4

  6

 40
0.0
 41
0.0
 42
0.0
 43
0.0
 44
210.0
 45
297.0
 46
0.0
 47
0.0
 48
0.0
 49
0.0
140
0.0
141
0.0
142
1.0
143
1.0
 70
0
 72
1
 73
0
 74
0
  7

 75
0
147
1.0
148
0.0
149
0.0
100
AcDbLayout
  1
Layout1
 70
0
 71
1
 10
0.0
 20
0.0
 11
210.0
 21
297.0
 12
0.0
 22
0.0
 32
0.0
 14
0.0
 24
0.0
 34
0.0
 15
0.0
 25
0.0
 35
0.0
146
0.0
 13
0.0
 23
0.0
 33
0.0
 16
1.0
 26
0.0
 36
0.0
 17
0.0
 27
1.0
 37
0.0
 76
0
330
211
345
0
346
0
  0
ENDSEC
  0
EOF
