999
DXF file: C:\Users\sesa63760\Dev\_Creo\CAD\MCADID0003089_3D-CAD\drw0001_1.dxf
999
Pro/ENGINEER 2019471 by Parametric Technology Corporation
  0
SECTION
  2
HEADER
  9
$ACADVER
  1
AC1024
  9
$DWGCODEPAGE
  3
ANSI_1252
  9
$EXTMAX
 10
76.9935100495
 20
108.8908213558
 30
0.0
  9
$EXTMIN
 10
0.0
 20
0.0
 30
0.0
  9
$LIMMIN
 10
0.0
 20
0.0
  9
$LIMMAX
 10
76.9935100495
 20
108.8908213558
  9
$VIEWCTR
 10
38.4967550248
 20
54.4454106779
  9
$VIEWSIZE
 40
108.8908213558
  9
$CLAYER
  8
0
  9
$LTSCALE
 40
7.098068355
  9
$CELTYPE
  6
BYLAYER
  9
$DIMSCALE
 40
1.0
  9
$DIMASZ
 40
0.9165894054
  9
$DIMEXO
 40
1.0
  9
$DIMDLI
 40
4.9041199544
  9
$DIMEXE
 40
1.0
  9
$DIMCEN
 40
1.1615020945
  9
$DIMLFAC
 40
1.0
  9
$DIMBLK
  1
_FILLED
  9
$DIMALT
 70
0
  9
$DIMALTF
 40
0.0393700787
  9
$DIMTXT
 40
1.2832251675
  9
$DIMTOL
 70
1
  9
$DIMLIM
 70
0
  9
$DIMTFAC
 40
1.0
  9
$DIMTP
 40
0.01
  9
$DIMTM
 40
0.01
  9
$DIMGAP
 40
0.625
  9
$DIMDSEP
 70
46
  9
$AUNITS
 70
0
  9
$PDMODE
 70
3
  9
$PDSIZE
 40
0.3125
  9
$HANDSEED
  5
271
  9
$TILEMODE
 70
1
  9
$MEASUREMENT
 70
1
  9
$INSUNITS
 70
4
  0
ENDSEC
  0
SECTION
  2
CLASSES
  0
CLASS
  1
ACDBDICTIONARYWDFLT
  2
AcDbDictionaryWithDefault
  3
AutoCAD 2000
 90
0
 91
1
280
0
281
0
  0
CLASS
  1
ACDBPLACEHOLDER
  2
AcDbPlaceHolder
  3
AutoCAD 2000
 90
0
 91
1
280
0
281
0
  0
CLASS
  1
LAYOUT
  2
AcDbLayout
  3
AutoCAD 2000
 90
0
 91
0
280
0
281
0
  0
ENDSEC
  0
SECTION
  2
TABLES
  0
TABLE
  2
VPORT
  5
8
100
AcDbSymbolTable
 70
2
  0
VPORT
  5
1F4
100
AcDbSymbolTableRecord
100
AcDbViewportTableRecord
  2
*ACTIVE
 70
0
 10
0.0
 20
0.0
 11
1.0
 21
1.0
 12
38.4967550248
 22
54.4454106779
 13
0.0
 23
0.0
 14
1.0
 24
1.0
 15
0.0
 25
0.0
 16
0.0
 26
0.0
 36
1.0
 17
0.0
 27
0.0
 37
0.0
 40
108.8908213558
 41
0.7070707071
 42
50.0
 43
0.0
 44
0.0
 50
0.0
 51
0.0
 71
0
 72
100
 73
1
 74
1
 75
0
 76
0
 77
0
 78
0
  0
ENDTAB
  0
TABLE
  2
LTYPE
  5
5
100
AcDbSymbolTable
 70
6
  0
LTYPE
  5
14
100
AcDbSymbolTableRecord
100
AcDbLinetypeTableRecord
  2
BYBLOCK
 70
0
  3

 72
65
 73
0
 40
0.0
  0
LTYPE
  5
15
100
AcDbSymbolTableRecord
100
AcDbLinetypeTableRecord
  2
BYLAYER
 70
0
  3

 72
65
 73
0
 40
0.0
  0
LTYPE
  5
16
100
AcDbSymbolTableRecord
100
AcDbLinetypeTableRecord
  2
CONTINUOUS
 70
64
  3
Solid line
 72
65
 73
0
 40
0.0
  0
LTYPE
  5
1F5
100
AcDbSymbolTableRecord
100
AcDbLinetypeTableRecord
  2
CENTER
 70
64
  3
____ _ ____ _ ____ _ ____ _ ____ _ ____ _ ____
 72
65
 73
4
 40
0.6
 49
0.375
 74
0
 49
-0.075
 74
0
 49
0.075
 74
0
 49
-0.075
 74
0
  0
LTYPE
  5
1F6
100
AcDbSymbolTableRecord
100
AcDbLinetypeTableRecord
  2
HIDDEN
 70
64
  3
- - - - - - - - - - - - - - - - - - - -
 72
65
 73
2
 40
0.2
 49
0.1
 74
0
 49
-0.1
 74
0
  0
LTYPE
  5
1F7
100
AcDbSymbolTableRecord
100
AcDbLinetypeTableRecord
  2
PHANTOM
 70
64
  3
_____ _ _ _____ _ _ _____ _ _ _____
 72
65
 73
6
 40
0.8
 49
0.45
 74
0
 49
-0.05
 74
0
 49
0.1
 74
0
 49
-0.05
 74
0
 49
0.1
 74
0
 49
-0.05
 74
0
  0
LTYPE
  5
1F8
100
AcDbSymbolTableRecord
100
AcDbLinetypeTableRecord
  2
DOT
 70
64
  3
. . . . . . . . . . . . . . . . . . . .
 72
65
 73
2
 40
0.2
 49
0.1
 74
0
 49
-0.1
 74
0
  0
LTYPE
  5
1F9
100
AcDbSymbolTableRecord
100
AcDbLinetypeTableRecord
  2
DASHED
 70
64
  3
- - - - - - - - - - - - - - - - - - - -
 72
65
 73
2
 40
0.2
 49
0.1
 74
0
 49
-0.1
 74
0
  0
ENDTAB
  0
TABLE
  2
LAYER
  5
2
100
AcDbSymbolTable
 70
36
  0
LAYER
  5
10
100
AcDbSymbolTableRecord
100
AcDbLayerTableRecord
  2
0
 70
0
 62
7
  6
CONTINUOUS
370
-3
390
F
  0
LAYER
  5
1FA
100
AcDbSymbolTableRecord
100
AcDbLayerTableRecord
  2
DEFAULT_1
 70
0
 62
7
  6
CENTER
370
-3
390
F
  0
LAYER
  5
1FB
100
AcDbSymbolTableRecord
100
AcDbLayerTableRecord
  2
DEFAULT_2
 70
0
 62
7
  6
HIDDEN
370
-3
390
F
  0
LAYER
  5
1FC
100
AcDbSymbolTableRecord
100
AcDbLayerTableRecord
  2
DEFAULT_3
 70
0
 62
7
  6
PHANTOM
370
-3
390
F
  0
LAYER
  5
1FD
100
AcDbSymbolTableRecord
100
AcDbLayerTableRecord
  2
00_COMPONENTS
 70
0
 62
7
  6
CONTINUOUS
370
-3
390
F
  0
LAYER
  5
1FE
100
AcDbSymbolTableRecord
100
AcDbLayerTableRecord
  2
01_1_DEFAULT_DATUMS
 70
0
 62
7
  6
CONTINUOUS
370
-3
390
F
  0
LAYER
  5
1FF
100
AcDbSymbolTableRecord
100
AcDbLayerTableRecord
  2
01_PLANES
 70
0
 62
7
  6
CONTINUOUS
370
-3
390
F
  0
LAYER
  5
200
100
AcDbSymbolTableRecord
100
AcDbLayerTableRecord
  2
02_COORD_SYS
 70
0
 62
7
  6
CONTINUOUS
370
-3
390
F
  0
LAYER
  5
201
100
AcDbSymbolTableRecord
100
AcDbLayerTableRecord
  2
03_AXES
 70
0
 62
7
  6
CONTINUOUS
370
-3
390
F
  0
LAYER
  5
202
100
AcDbSymbolTableRecord
100
AcDbLayerTableRecord
  2
04_POINTS
 70
0
 62
7
  6
CONTINUOUS
370
-3
390
F
  0
LAYER
  5
203
100
AcDbSymbolTableRecord
100
AcDbLayerTableRecord
  2
05_CURVES
 70
0
 62
7
  6
CONTINUOUS
370
-3
390
F
  0
LAYER
  5
204
100
AcDbSymbolTableRecord
100
AcDbLayerTableRecord
  2
06_SURFS
 70
0
 62
7
  6
CONTINUOUS
370
-3
390
F
  0
LAYER
  5
205
100
AcDbSymbolTableRecord
100
AcDbLayerTableRecord
  2
07_COSMETICS
 70
0
 62
7
  6
CONTINUOUS
370
-3
390
F
  0
LAYER
  5
206
100
AcDbSymbolTableRecord
100
AcDbLayerTableRecord
  2
10_NOTES
 70
0
 62
7
  6
CONTINUOUS
370
-3
390
F
  0
LAYER
  5
207
100
AcDbSymbolTableRecord
100
AcDbLayerTableRecord
  2
11_NOTES_PUB
 70
0
 62
7
  6
CONTINUOUS
370
-3
390
F
  0
LAYER
  5
208
100
AcDbSymbolTableRecord
100
AcDbLayerTableRecord
  2
13_REF_GTOL
 70
0
 62
7
  6
CONTINUOUS
370
-3
390
F
  0
LAYER
  5
209
100
AcDbSymbolTableRecord
100
AcDbLayerTableRecord
  2
16_MISC
 70
0
 62
7
  6
CONTINUOUS
370
-3
390
F
  0
LAYER
  5
20A
100
AcDbSymbolTableRecord
100
AcDbLayerTableRecord
  2
17_NO_PRINT
 70
0
 62
7
  6
CONTINUOUS
370
-3
390
F
  0
LAYER
  5
20B
100
AcDbSymbolTableRecord
100
AcDbLayerTableRecord
  2
18_DATUM_CAMS_JOINTS
 70
0
 62
7
  6
CONTINUOUS
370
-3
390
F
  0
LAYER
  5
20C
100
AcDbSymbolTableRecord
100
AcDbLayerTableRecord
  2
19_DATUM_FUNCTIONAL
 70
0
 62
7
  6
CONTINUOUS
370
-3
390
F
  0
LAYER
  5
20D
100
AcDbSymbolTableRecord
100
AcDbLayerTableRecord
  2
20_DATUM_KINEMATIC_SCHEME
 70
0
 62
7
  6
CONTINUOUS
370
-3
390
F
  0
ENDTAB
  0
TABLE
  2
STYLE
  5
3
100
AcDbSymbolTable
 70
1
  0
STYLE
  5
11
100
AcDbSymbolTableRecord
100
AcDbTextStyleTableRecord
  2
STANDARD
 70
0
 40
0.0
 41
1.0
 50
0.0
 71
0
 42
0.2
  3
ARIAL.TTF
  4

  0
STYLE
  5
20E
100
AcDbSymbolTableRecord
100
AcDbTextStyleTableRecord
  2
TEXTSTYLE_1
 70
0
 40
0.0
 41
0.8
 50
0.0
 71
0
 42
0.2
  3
gdt
  4

  0
ENDTAB
  0
TABLE
  2
VIEW
  5
6
100
AcDbSymbolTable
 70
0
  0
ENDTAB
  0
TABLE
  2
UCS
  5
7
100
AcDbSymbolTable
 70
0
  0
ENDTAB
  0
TABLE
  2
APPID
  5
9
100
AcDbSymbolTable
 70
1
  0
APPID
  5
20F
100
AcDbSymbolTableRecord
100
AcDbRegAppTableRecord
  2
ACAD
 70
0
  0
ENDTAB
  0
TABLE
  2
BLOCK_RECORD
  5
1
100
AcDbSymbolTable
 70
0
  0
BLOCK_RECORD
  5
210
100
AcDbSymbolTableRecord
100
AcDbBlockTableRecord
  2
*Model_Space
  0
BLOCK_RECORD
  5
211
100
AcDbSymbolTableRecord
100
AcDbBlockTableRecord
  2
*Paper_Space
  0
BLOCK_RECORD
  5
212
100
AcDbSymbolTableRecord
100
AcDbBlockTableRecord
  2
_FILLED
  0
ENDTAB
  0
TABLE
  2
DIMSTYLE
  5
A
100
AcDbSymbolTable
 70
1
100
AcDbDimStyleTable
 71
0
  0
DIMSTYLE
105
213
100
AcDbSymbolTableRecord
100
AcDbDimStyleTableRecord
  2
STANDARD
 70
0
  3

  4

 40
1.0
 41
0.9165894054
 42
1.0
 43
0.38
 44
1.0
 45
0.0
 46
0.0
 47
0.01
 48
0.01
140
1.2832251675
141
0.09
142
0.0
143
25.4
144
1.0
145
0.0
146
1.0
147
0.625
 71
1
 72
0
 73
0
 74
0
 75
0
 76
0
 77
1
 78
8
 79
2
170
0
171
1
172
0
173
0
174
0
175
0
176
0
177
0
178
0
270
2
179
2
271
2
272
2
273
2
274
2
275
0
280
0
281
0
282
0
283
1
284
8
285
0
286
0
287
3
288
0
340
11
278
46
341
212
342
212
343
212
344
212
  0
ENDTAB
  0
ENDSEC
  0
SECTION
  2
BLOCKS
  0
BLOCK
  5
20
100
AcDbEntity
  8
0
100
AcDbBlockBegin
  2
*Model_Space
 70
0
 10
0.0
 20
0.0
 30
0.0
  3
*Model_Space
  1

  0
ENDBLK
  5
21
100
AcDbEntity
  8
0
100
AcDbBlockEnd
  0
BLOCK
  5
1C
100
AcDbEntity
  8
0
100
AcDbBlockBegin
  2
*Paper_Space
 70
0
 10
0.0
 20
0.0
 30
0.0
  3
*Paper_Space
  1

  0
ENDBLK
  5
1D
100
AcDbEntity
  8
0
100
AcDbBlockEnd
  0
BLOCK
  5
214
100
AcDbEntity
  8
0
100
AcDbBlockBegin
  2
_FILLED
 70
64
 10
0.0
 20
0.0
  3
_FILLED
  1

  0
SOLID
  5
215
100
AcDbEntity
  8
0
  6
BYBLOCK
 62
0
100
AcDbTrace
 10
0.0
 20
0.0
 11
-1.0
 21
0.25
 12
-1.0
 22
-0.25
 13
-1.0
 23
-0.25
  0
ENDBLK
  5
216
100
AcDbEntity
  8
0
  6
BYBLOCK
 62
0
100
AcDbBlockEnd
  0
ENDSEC
  0
SECTION
  2
ENTITIES
  0
LINE
  5
217
100
AcDbEntity
  8
0
100
AcDbLine
 62
7
  6
BYLAYER
 10
8.9321329971
 20
68.7612113462
 11
8.9321329971
 21
73.946001695
  0
LINE
  5
218
100
AcDbEntity
  8
0
100
AcDbLine
 62
7
  6
BYLAYER
 10
11.3451329971
 20
65.1251521579
 11
11.3451329971
 21
58.8064196767
  0
LINE
  5
219
100
AcDbEntity
  8
0
100
AcDbLine
 62
7
  6
BYLAYER
 10
12.7911229122
 20
56.0535912102
 11
12.7911229122
 21
56.4026785191
  0
LINE
  5
21A
100
AcDbEntity
  8
0
100
AcDbLine
 62
7
  6
BYLAYER
 10
13.3771329971
 20
73.9460123794
 11
13.3771329971
 21
77.0568865887
  0
LINE
  5
21B
100
AcDbEntity
  8
0
100
AcDbLine
 62
7
  6
BYLAYER
 10
14.3093476349
 20
52.7823728268
 11
14.3093476349
 21
55.4795269645
  0
LINE
  5
21C
100
AcDbEntity
  8
0
100
AcDbLine
 62
7
  6
BYLAYER
 10
58.0755163448
 20
29.9092259364
 11
52.40950626
 21
30.7857336189
  0
LINE
  5
21D
100
AcDbEntity
  8
0
100
AcDbLine
 62
7
  6
BYLAYER
 10
14.3093476349
 20
52.7823728268
 11
12.7911229122
 21
56.0535912102
  0
LINE
  5
21E
100
AcDbEntity
  8
0
100
AcDbLine
 62
7
  6
BYLAYER
 10
19.9753577197
 20
51.9058651443
 11
19.9753577197
 21
54.8365218502
  0
LINE
  5
21F
100
AcDbEntity
  8
0
100
AcDbLine
 62
7
  6
BYLAYER
 10
21.6599775687
 20
55.1403226723
 11
21.6599775687
 21
63.667212044
  0
LINE
  5
220
100
AcDbEntity
  8
0
100
AcDbLine
 62
7
  6
BYLAYER
 10
23.537132997
 20
77.0569110103
 11
23.537132997
 21
73.9460368011
  0
LINE
  5
221
100
AcDbEntity
  8
0
100
AcDbLine
 62
7
  6
BYLAYER
 10
24.1231430818
 20
54.3005758452
 11
24.1231430818
 21
55.140328593
  0
LINE
  5
222
100
AcDbEntity
  8
0
100
AcDbLine
 62
7
  6
BYLAYER
 10
38.1802065593
 20
73.599166067
 11
35.9831065593
 21
71.8052233251
  0
LINE
  5
223
100
AcDbEntity
  8
0
100
AcDbLine
 62
7
  6
BYLAYER
 10
27.982132997
 20
73.9460474855
 11
27.982132997
 21
68.7612571368
  0
LINE
  5
224
100
AcDbEntity
  8
0
100
AcDbLine
 62
7
  6
BYLAYER
 10
35.9831594345
 20
64.4729797288
 11
37.5071594344
 21
65.7173330757
  0
LINE
  5
225
100
AcDbEntity
  8
0
100
AcDbLine
 62
7
  6
BYLAYER
 10
24.1231430818
 20
54.3005758452
 11
19.9753577197
 21
51.9058651443
  0
LINE
  5
226
100
AcDbEntity
  8
0
100
AcDbLine
 62
7
  6
BYLAYER
 10
19.9753577197
 20
51.9058651443
 11
14.3093476349
 21
52.7823728268
  0
LINE
  5
227
100
AcDbEntity
  8
0
100
AcDbLine
 62
7
  6
BYLAYER
 10
35.9831065593
 20
71.8052233251
 11
35.9831594345
 21
64.4729797288
  0
LINE
  5
228
100
AcDbEntity
  8
0
100
AcDbLine
 62
7
  6
BYLAYER
 10
37.5071594344
 20
66.2669208527
 11
37.5071594344
 21
53.3464233036
  0
LINE
  5
229
100
AcDbEntity
  8
0
100
AcDbLine
 62
7
  6
BYLAYER
 10
38.1802594344
 20
66.2669224706
 11
38.1802065593
 21
73.599166067
  0
LINE
  5
22A
100
AcDbEntity
  8
0
100
AcDbLine
 62
7
  6
BYLAYER
 10
62.9071726824
 20
64.4298490466
 11
68.5419358852
 21
66.3080946554
  0
LINE
  5
22B
100
AcDbEntity
  8
0
100
AcDbLine
 62
7
  6
BYLAYER
 10
52.7527995689
 20
56.9448077042
 11
52.3133895768
 21
56.8725560978
  0
LINE
  5
22C
100
AcDbEntity
  8
0
100
AcDbLine
 62
7
  6
BYLAYER
 10
35.9831594345
 20
55.140357101
 11
37.5071594344
 21
53.8960110805
  0
LINE
  5
22D
100
AcDbEntity
  8
0
100
AcDbLine
 62
7
  6
BYLAYER
 10
46.9722881222
 20
57.0787524587
 11
49.1663315186
 21
57.4660313876
  0
LINE
  5
22E
100
AcDbEntity
  8
0
100
AcDbLine
 62
7
  6
BYLAYER
 10
35.9831594345
 20
55.140357101
 11
21.6599775687
 21
55.1403226723
  0
LINE
  5
22F
100
AcDbEntity
  8
0
100
AcDbLine
 62
7
  6
BYLAYER
 10
50.2072186545
 20
56.2609010912
 11
50.9095578552
 21
56.2609027794
  0
LINE
  5
230
100
AcDbEntity
  8
0
100
AcDbLine
 62
7
  6
BYLAYER
 10
62.202222457
 20
56.2609299236
 11
62.9072186544
 21
56.2609316182
  0
LINE
  5
231
100
AcDbEntity
  8
0
100
AcDbLine
 62
7
  6
BYLAYER
 10
52.40950626
 20
30.7857336189
 11
50.8912815373
 21
34.0569520023
  0
LWPOLYLINE
  5
232
100
AcDbEntity
  8
0
100
AcDbPolyline
 62
7
  6
BYLAYER
 90
4
 70
0
 10
52.3133895768
 20
56.8725560978
 10
49.5209887188
 20
55.6558994111
 10
47.6812839468
 20
53.944510949
 10
47.0322916222
 20
51.9493624871
  0
LINE
  5
233
100
AcDbEntity
  8
0
100
AcDbLine
 62
7
  6
BYLAYER
 10
62.907209507
 20
59.3233472211
 11
50.2072095071
 21
59.323316694
  0
LINE
  5
234
100
AcDbEntity
  8
0
100
AcDbLine
 62
7
  6
BYLAYER
 10
47.0322916222
 20
46.7645721383
 11
47.0322916222
 21
51.9493624871
  0
LINE
  5
235
100
AcDbEntity
  8
0
100
AcDbLine
 62
7
  6
BYLAYER
 10
49.4452916222
 20
43.12851295
 11
49.4452916222
 21
36.8097804688
  0
LINE
  5
236
100
AcDbEntity
  8
0
100
AcDbLine
 62
7
  6
BYLAYER
 10
24.1553844357
 20
64.4729512983
 11
35.9831594345
 21
64.4729797288
  0
LWPOLYLINE
  5
237
100
AcDbEntity
  8
0
100
AcDbPolyline
 62
7
  6
BYLAYER
 90
3
 70
0
 10
63.6035031463
 20
55.6496193171
 10
60.7983392844
 20
56.873375867
 10
60.3571308674
 20
56.945636206
  0
LINE
  5
238
100
AcDbEntity
  8
0
100
AcDbLine
 62
7
  6
BYLAYER
 10
50.2072208612
 20
55.9548926313
 11
50.2072095071
 21
59.323316694
  0
LINE
  5
239
100
AcDbEntity
  8
0
100
AcDbLine
 62
7
  6
BYLAYER
 10
50.8912815373
 20
34.0569520023
 11
50.8912815373
 21
34.457011426
  0
LINE
  5
23A
100
AcDbEntity
  8
0
100
AcDbLine
 62
7
  6
BYLAYER
 10
51.4772916222
 20
51.9493731715
 11
51.4772916222
 21
55.0602473808
  0
LINE
  5
23B
100
AcDbEntity
  8
0
100
AcDbLine
 62
7
  6
BYLAYER
 10
52.40950626
 20
30.7857336189
 11
52.40950626
 21
33.5658760628
  0
LINE
  5
23C
100
AcDbEntity
  8
0
100
AcDbLine
 62
7
  6
BYLAYER
 10
68.9954791923
 20
51.6589444878
 11
66.0822916221
 21
50.68788651
  0
LINE
  5
23D
100
AcDbEntity
  8
0
100
AcDbLine
 62
7
  6
BYLAYER
 10
38.1802594344
 20
66.2669224706
 11
37.5071594344
 21
66.2669208527
  0
LINE
  5
23E
100
AcDbEntity
  8
0
100
AcDbLine
 62
7
  6
BYLAYER
 10
35.9831065593
 20
71.8052233251
 11
27.982132997
 21
71.8052040932
  0
LINE
  5
23F
100
AcDbEntity
  8
0
100
AcDbLine
 62
7
  6
BYLAYER
 10
58.0755163448
 20
29.9092259364
 11
58.0755163448
 21
32.8779750698
  0
LINE
  5
240
100
AcDbEntity
  8
0
100
AcDbLine
 62
7
  6
BYLAYER
 10
47.0532967968
 20
73.5991873953
 11
38.1802065593
 21
73.599166067
  0
LINE
  5
241
100
AcDbEntity
  8
0
100
AcDbLine
 62
7
  6
BYLAYER
 10
61.434841769
 20
64.4689210404
 11
61.434841769
 21
65.642071556
  0
LINE
  5
242
100
AcDbEntity
  8
0
100
AcDbLine
 62
7
  6
BYLAYER
 10
61.6372916221
 20
55.0602718024
 11
61.6372916221
 21
51.9493975932
  0
LINE
  5
243
100
AcDbEntity
  8
0
100
AcDbLine
 62
7
  6
BYLAYER
 10
62.223301707
 20
32.3039366373
 11
62.223301707
 21
34.4560900637
  0
LINE
  5
244
100
AcDbEntity
  8
0
100
AcDbLine
 62
7
  6
BYLAYER
 10
62.9072208723
 20
55.9533734061
 11
62.9071830179
 21
62.9966149961
  0
LINE
  5
245
100
AcDbEntity
  8
0
100
AcDbLine
 62
7
  6
BYLAYER
 10
62.9071745579
 20
64.1619163282
 11
62.9071726824
 21
64.4298490466
  0
LINE
  5
246
100
AcDbEntity
  8
0
100
AcDbLine
 62
7
  6
BYLAYER
 10
62.9071830179
 20
62.9966149961
 11
60.5549620738
 21
65.3487796971
  0
LINE
  5
247
100
AcDbEntity
  8
0
100
AcDbLine
 62
7
  6
BYLAYER
 10
61.434841769
 20
65.642071556
 11
62.9071745579
 21
64.1697739715
  0
LINE
  5
248
100
AcDbEntity
  8
0
100
AcDbLine
 62
7
  6
BYLAYER
 10
63.6692916221
 20
36.8098146591
 11
63.6692916221
 21
43.1257682162
  0
LWPOLYLINE
  5
249
100
AcDbEntity
  8
0
100
AcDbPolyline
 62
7
  6
BYLAYER
 90
7
 70
0
 10
66.0822916221
 20
51.3655716262
 10
66.3858311507
 20
51.8341133724
 10
66.6681858852
 20
53.948503929
 10
66.3872003482
 20
56.6208165917
 10
65.5821171301
 20
59.4809502473
 10
64.3672155911
 20
62.117211719
 10
62.9071745579
 20
64.1619163282
  0
LWPOLYLINE
  5
24A
100
AcDbEntity
  8
0
100
AcDbPolyline
 62
7
  6
BYLAYER
 90
3
 70
0
 10
66.0822916221
 20
51.9494082776
 10
65.4391585861
 20
53.935801045
 10
63.6035031463
 20
55.6496193171
  0
LINE
  5
24B
100
AcDbEntity
  8
0
100
AcDbLine
 62
7
  6
BYLAYER
 10
66.0822916221
 20
51.9494082776
 11
66.0822916221
 21
46.7646179289
  0
LINE
  5
24C
100
AcDbEntity
  8
0
100
AcDbLine
 62
7
  6
BYLAYER
 10
62.223301707
 20
32.3039366373
 11
58.0755163448
 21
29.9092259364
  0
LINE
  5
24D
100
AcDbEntity
  8
0
100
AcDbLine
 62
7
  6
BYLAYER
 10
68.5419358852
 20
66.3080946554
 11
67.7384801537
 21
71.9499519378
  0
LINE
  5
24E
100
AcDbEntity
  8
0
100
AcDbLine
 62
7
  6
BYLAYER
 10
67.7384801537
 20
71.9499519378
 11
66.4557795681
 21
73.2326218533
  0
SPLINE
  5
24F
100
AcDbEntity
  8
0
100
AcDbSpline
 62
7
  6
BYLAYER
 70
0
 71
3
 72
29
 73
25
 74
0
 42
0.0000001
 43
0.0000001
 44
0.0000000001
 40
0.0
 40
0.0
 40
0.0
 40
0.0
 40
0.0225211594
 40
0.0454933268
 40
0.069270432
 40
0.0941700748
 40
0.1204406359
 40
0.1482362141
 40
0.2085689269
 40
0.2751047528
 40
0.3468971684
 40
0.4224650755
 40
0.4999991648
 40
0.5775329214
 40
0.6530999888
 40
0.7248916447
 40
0.7914274474
 40
0.851760998
 40
0.8795571487
 40
0.9058281186
 40
0.9307283242
 40
0.9545060786
 40
0.9774787037
 40
1.0
 40
1.0
 40
1.0
 40
1.0
 10
61.6372916221
 20
55.0602718024
 30
0.0
 10
61.637290929
 20
55.1563823004
 30
0.0
 10
61.6204990584
 20
55.3509062279
 30
0.0
 10
61.5460761871
 20
55.6382981781
 30
0.0
 10
61.4229772641
 20
55.9195122318
 30
0.0
 10
61.2529928309
 20
56.1916420732
 30
0.0
 10
61.0379277782
 20
56.4522263479
 30
0.0
 10
60.684569467
 20
56.7904485381
 30
0.0
 10
60.1373068075
 20
57.1672893458
 30
0.0
 10
59.3659574603
 20
57.5263627752
 30
0.0
 10
58.4900410901
 20
57.7926634066
 30
0.0
 10
57.5420940331
 20
57.9564342751
 30
0.0
 10
56.55729228
 20
58.0117213607
 30
0.0
 10
55.5724941641
 20
57.9564343835
 30
0.0
 10
54.6245550872
 20
57.792665707
 30
0.0
 10
53.7486452827
 20
57.5263680416
 30
0.0
 10
52.9772938288
 20
57.1672980889
 30
0.0
 10
52.4300265157
 20
56.7904541107
 30
0.0
 10
52.0766587532
 20
56.4522304495
 30
0.0
 10
51.8615901224
 20
56.1916404697
 30
0.0
 10
51.6916016693
 20
55.919504922
 30
0.0
 10
51.5685025568
 20
55.6382829682
 30
0.0
 10
51.4940815956
 20
55.3508851025
 30
0.0
 10
51.4772909291
 20
55.1563584631
 30
0.0
 10
51.4772916222
 20
55.0602473808
 30
0.0
  0
SPLINE
  5
250
100
AcDbEntity
  8
0
100
AcDbSpline
 62
7
  6
BYLAYER
 70
0
 71
3
 72
31
 73
27
 74
0
 42
0.0000001
 43
0.0000001
 44
0.0000000001
 40
0.0
 40
0.0
 40
0.0
 40
0.0
 40
0.0225231755
 40
0.0454896488
 40
0.0692594681
 40
0.0941560204
 40
0.1204242649
 40
0.1482154868
 40
0.1776068761
 40
0.208606969
 40
0.2751349741
 40
0.3469178802
 40
0.4224760429
 40
0.5000003162
 40
0.5775242977
 40
0.6530816445
 40
0.7248635856
 40
0.7913909878
 40
0.8223909707
 40
0.8517824718
 40
0.8795738887
 40
0.9058424153
 40
0.9307392628
 40
0.9545095991
 40
0.9774766178
 40
1.0
 40
1.0
 40
1.0
 40
1.0
 10
66.0822916221
 20
46.7646179289
 30
0.0
 10
66.0822929219
 20
46.584370135
 30
0.0
 10
66.0508673901
 20
46.2196107778
 30
0.0
 10
65.9112707208
 20
45.6807730852
 30
0.0
 10
65.6804716542
 20
45.153551671
 30
0.0
 10
65.36174585
 20
44.6433308482
 30
0.0
 10
64.9585590625
 20
44.1547036998
 30
0.0
 10
64.4751595043
 20
43.691941207
 30
0.0
 10
63.9161767935
 20
43.2592533196
 30
0.0
 10
63.0571810003
 20
42.7149247753
 30
0.0
 10
61.8232933707
 20
42.1405011992
 30
0.0
 10
60.1813288582
 20
41.6413703079
 30
0.0
 10
58.40380511
 20
41.3342380649
 30
0.0
 10
56.557309254
 20
41.2305938812
 30
0.0
 10
54.7108197541
 20
41.3342335403
 30
0.0
 10
52.933311449
 20
41.6413574064
 30
0.0
 10
51.2913632562
 20
42.1404747182
 30
0.0
 10
50.0574820003
 20
42.7148801193
 30
0.0
 10
49.1984860447
 20
43.2591990152
 30
0.0
 10
48.6394942416
 20
43.6918778745
 30
0.0
 10
48.156087432
 20
44.1546394243
 30
0.0
 10
47.7528851327
 20
44.6432617306
 30
0.0
 10
47.4341474216
 20
45.1534855087
 30
0.0
 10
47.2033330099
 20
45.6807122071
 30
0.0
 10
47.0637275641
 20
46.2195580979
 30
0.0
 10
47.0322929221
 20
46.5843226898
 30
0.0
 10
47.0322916222
 20
46.7645721383
 30
0.0
  0
SPLINE
  5
251
100
AcDbEntity
  8
0
100
AcDbSpline
 62
7
  6
BYLAYER
 70
0
 71
3
 72
15
 73
11
 74
0
 42
0.0000001
 43
0.0000001
 44
0.0000000001
 40
0.0
 40
0.0
 40
0.0
 40
0.0
 40
0.119244547
 40
0.2465800534
 40
0.3789116994
 40
0.5129272804
 40
0.6452239334
 40
0.7724825301
 40
0.8916248058
 40
1.0
 40
1.0
 40
1.0
 40
1.0
 10
62.9071830179
 20
62.7535554831
 30
0.0
 10
63.1385989984
 20
62.4154471888
 30
0.0
 10
63.581886816
 20
61.6918147296
 30
0.0
 10
64.1686633558
 20
60.5282655065
 30
0.0
 10
64.6864059685
 20
59.2772758618
 30
0.0
 10
65.1194098854
 20
57.9765944719
 30
0.0
 10
65.4546450723
 20
56.665300486
 30
0.0
 10
65.6821600218
 20
55.3827587543
 30
0.0
 10
65.795343918
 20
54.1676023643
 30
0.0
 10
65.7924411814
 20
53.3839954182
 30
0.0
 10
65.7673561718
 20
53.0124679083
 30
0.0
  0
SPLINE
  5
252
100
AcDbEntity
  8
0
100
AcDbSpline
 62
7
  6
BYLAYER
 70
0
 71
3
 72
17
 73
13
 74
0
 42
0.0000001
 43
0.0000001
 44
0.0000000001
 40
0.0
 40
0.0
 40
0.0
 40
0.0
 40
0.0298703795
 40
0.0613522815
 40
0.0958102355
 40
0.1342746031
 40
0.2255908097
 40
0.3382773127
 40
0.4729980332
 40
0.6292189372
 40
0.8056605045
 40
1.0
 40
1.0
 40
1.0
 40
1.0
 10
46.9722910436
 20
57.0787359356
 30
0.0
 10
46.9576665846
 20
57.0761489882
 30
0.0
 10
46.9281863561
 20
57.067023028
 30
0.0
 10
46.8869136007
 20
57.0425257945
 30
0.0
 10
46.848209562
 20
57.0075037714
 30
0.0
 10
46.7971953138
 20
56.9433835293
 30
0.0
 10
46.7417830449
 20
56.835198349
 30
0.0
 10
46.6892243977
 20
56.6748429435
 30
0.0
 10
46.6476512509
 20
56.4781909395
 30
0.0
 10
46.6175761203
 20
56.2475948668
 30
0.0
 10
46.5995805074
 20
55.9860605058
 30
0.0
 10
46.59589477
 20
55.801675672
 30
0.0
 10
46.59589477
 20
55.7050504072
 30
0.0
  0
SPLINE
  5
253
100
AcDbEntity
  8
0
100
AcDbSpline
 62
7
  6
BYLAYER
 70
0
 71
3
 72
19
 73
15
 74
0
 42
0.0000001
 43
0.0000001
 44
0.0000000001
 40
0.0
 40
0.0
 40
0.0
 40
0.0
 40
0.1550515947
 40
0.3061628926
 40
0.449728613
 40
0.5827805168
 40
0.644782737
 40
0.7035668355
 40
0.7591509128
 40
0.8116864404
 40
0.8614855238
 40
0.9090215407
 40
0.9549359324
 40
1.0
 40
1.0
 40
1.0
 40
1.0
 10
56.5571700093
 20
64.800517924
 30
0.0
 10
55.9781082478
 20
64.8005165321
 30
0.0
 10
54.8336170115
 20
64.8647211034
 30
0.0
 10
53.1747806054
 20
65.1514011788
 30
0.0
 10
51.6422568746
 20
65.6172304631
 30
0.0
 10
50.4906473742
 20
66.1533639206
 30
0.0
 10
49.6889002079
 20
66.6613830612
 30
0.0
 10
49.1671884388
 20
67.0652608344
 30
0.0
 10
48.7159491432
 20
67.4971219766
 30
0.0
 10
48.3396856559
 20
67.9532421529
 30
0.0
 10
48.0421499556
 20
68.4294272654
 30
0.0
 10
47.8268742724
 20
68.9214848863
 30
0.0
 10
47.6963532293
 20
69.4243289164
 30
0.0
 10
47.6671733273
 20
69.7647903994
 30
0.0
 10
47.6671736058
 20
69.9330884324
 30
0.0
  0
SPLINE
  5
254
100
AcDbEntity
  8
0
100
AcDbSpline
 62
7
  6
BYLAYER
 70
0
 71
3
 72
9
 73
5
 74
0
 42
0.0000001
 43
0.0000001
 44
0.0000000001
 40
0.0
 40
0.0
 40
0.0
 40
0.0
 40
0.4909404083
 40
1.0
 40
1.0
 40
1.0
 40
1.0
 10
60.5549620738
 20
65.3487796971
 30
0.0
 10
59.9193009996
 20
65.1640050809
 30
0.0
 10
58.5934585406
 20
64.8900443161
 30
0.0
 10
57.2435732611
 20
64.8005195739
 30
0.0
 10
56.5571700093
 20
64.800517924
 30
0.0
  0
SPLINE
  5
255
100
AcDbEntity
  8
0
100
AcDbSpline
 62
7
  6
BYLAYER
 70
0
 71
3
 72
23
 73
19
 74
0
 42
0.0000001
 43
0.0000001
 44
0.0000000001
 40
0.0
 40
0.0
 40
0.0
 40
0.0
 40
0.0510287719
 40
0.1057934963
 40
0.1641529756
 40
0.2258235673
 40
0.2903472994
 40
0.3571567601
 40
0.4256019874
 40
0.4949765724
 40
0.5645433058
 40
0.6335587021
 40
0.7012974437
 40
0.7670774871
 40
0.8302848185
 40
0.890398076
 40
0.9470521823
 40
1.0
 40
1.0
 40
1.0
 40
1.0
 10
66.4557795681
 20
73.2326218533
 30
0.0
 10
66.2054259191
 20
73.4829695161
 30
0.0
 10
65.6466310416
 20
73.9631078905
 30
0.0
 10
64.6944210762
 20
74.5923473257
 30
0.0
 10
63.6133375999
 20
75.1468218502
 30
0.0
 10
62.4207844046
 20
75.6180730337
 30
0.0
 10
61.1352718117
 20
75.9988127039
 30
0.0
 10
59.7771636733
 20
76.2831282582
 30
0.0
 10
58.3679433806
 20
76.4665608997
 30
0.0
 10
56.9299593522
 20
76.5461865041
 30
0.0
 10
55.4860515863
 20
76.5207169561
 30
0.0
 10
54.059160997
 20
76.3905811805
 30
0.0
 10
52.6719338918
 20
76.1578624201
 30
0.0
 10
51.3463427128
 20
75.8262187618
 30
0.0
 10
50.1034182591
 20
75.4008179025
 30
0.0
 10
48.96251032
 20
74.8883107556
 30
0.0
 10
47.9419617355
 20
74.2965660331
 30
0.0
 10
47.3312634158
 20
73.8393767371
 30
0.0
 10
47.0532967968
 20
73.5991873953
 30
0.0
  0
SPLINE
  5
256
100
AcDbEntity
  8
0
100
AcDbSpline
 62
7
  6
BYLAYER
 70
0
 71
3
 72
15
 73
11
 74
0
 42
0.0000001
 43
0.0000001
 44
0.0000000001
 40
0.0
 40
0.0
 40
0.0
 40
0.0
 40
0.1022805901
 40
0.2075859188
 40
0.3185217752
 40
0.4370144522
 40
0.5642247784
 40
0.7006134264
 40
0.8461254382
 40
1.0
 40
1.0
 40
1.0
 40
1.0
 10
65.4470977111
 20
69.9330884165
 30
0.0
 10
65.4471066876
 20
69.7206955176
 30
0.0
 10
65.4000237293
 20
69.2882888479
 30
0.0
 10
65.1913159924
 20
68.6561297142
 30
0.0
 10
64.8493544363
 20
68.0465344811
 30
0.0
 10
64.3812152929
 20
67.4687335618
 30
0.0
 10
63.794975895
 20
66.9304114763
 30
0.0
 10
63.0996370302
 20
66.4388260722
 30
0.0
 10
62.3058629237
 20
66.001026751
 30
0.0
 10
61.7336437416
 20
65.7552869367
 30
0.0
 10
61.434841769
 20
65.642071556
 30
0.0
  0
SPLINE
  5
257
100
AcDbEntity
  8
0
100
AcDbSpline
 62
7
  6
BYLAYER
 70
0
 71
3
 72
14
 73
10
 74
0
 42
0.0000001
 43
0.0000001
 44
0.0000000001
 40
0.0
 40
0.0
 40
0.0
 40
0.0
 40
0.1092984107
 40
0.2244063233
 40
0.3448419764
 40
0.469956972
 40
0.5989633417
 40
0.7309680606
 40
1.0
 40
1.0
 40
1.0
 40
1.0
 10
47.1243477167
 20
50.8029854825
 30
0.0
 10
46.8191426806
 20
51.0072915005
 30
0.0
 10
46.1706357514
 20
51.3947293657
 30
0.0
 10
45.1255282107
 20
51.8982314111
 30
0.0
 10
43.9934446956
 20
52.334328062
 30
0.0
 10
42.7874147487
 20
52.6980640097
 30
0.0
 10
41.521030593
 20
52.9853847143
 30
0.0
 10
39.760938307
 20
53.2637980861
 30
0.0
 10
38.4111868146
 20
53.3464254766
 30
0.0
 10
37.5071594344
 20
53.3464233036
 30
0.0
  0
SPLINE
  5
258
100
AcDbEntity
  8
0
100
AcDbSpline
 62
7
  6
BYLAYER
 70
0
 71
3
 72
15
 73
11
 74
0
 42
0.0000001
 43
0.0000001
 44
0.0000000001
 40
0.0
 40
0.0
 40
0.0
 40
0.0
 40
0.1269813178
 40
0.2583340596
 40
0.3915556053
 40
0.5240674332
 40
0.6533119042
 40
0.776940594
 40
0.8929733123
 40
1.0
 40
1.0
 40
1.0
 40
1.0
 10
21.6599775687
 20
55.1403226723
 30
0.0
 10
21.2887875117
 20
55.0322309222
 30
0.0
 10
20.520315893
 20
54.8561780376
 30
0.0
 10
19.3350525328
 20
54.7117391987
 30
0.0
 10
18.1243927536
 20
54.6849799117
 30
0.0
 10
16.9233577006
 20
54.7766473642
 30
0.0
 10
15.7663583097
 20
54.9841371081
 30
0.0
 10
14.6863803714
 20
55.3016055492
 30
0.0
 10
13.714415662
 20
55.7199875996
 30
0.0
 10
13.1312375309
 20
56.0742229756
 30
0.0
 10
12.8684975293
 20
56.2669627922
 30
0.0
  0
SPLINE
  5
259
100
AcDbEntity
  8
0
100
AcDbSpline
 62
7
  6
BYLAYER
 70
0
 71
3
 72
13
 73
9
 74
0
 42
0.0000001
 43
0.0000001
 44
0.0000000001
 40
0.0
 40
0.0
 40
0.0
 40
0.0
 40
0.2822686431
 40
0.5388306848
 40
0.6591152554
 40
0.7752414373
 40
0.8884361204
 40
1.0
 40
1.0
 40
1.0
 40
1.0
 10
12.8684975293
 20
56.2669627922
 30
0.0
 10
12.6355560816
 20
56.4378430983
 30
0.0
 10
12.2148288162
 20
56.7992777592
 30
0.0
 10
11.7954219161
 20
57.3351090035
 30
0.0
 10
11.5609372257
 20
57.7832294787
 30
0.0
 10
11.4368016084
 20
58.1199889381
 30
0.0
 10
11.3619544532
 20
58.4618691737
 30
0.0
 10
11.3451338205
 20
58.6922357856
 30
0.0
 10
11.3451329971
 20
58.8064196767
 30
0.0
  0
SPLINE
  5
25A
100
AcDbEntity
  8
0
100
AcDbSpline
 62
7
  6
BYLAYER
 70
0
 71
3
 72
29
 73
25
 74
0
 42
0.0000001
 43
0.0000001
 44
0.0000000001
 40
0.0
 40
0.0
 40
0.0
 40
0.0
 40
0.0225211594
 40
0.0454933268
 40
0.069270432
 40
0.0941700748
 40
0.1204406359
 40
0.1482362141
 40
0.2085689269
 40
0.2751047528
 40
0.3468971684
 40
0.4224650755
 40
0.4999991648
 40
0.5775329214
 40
0.6530999888
 40
0.7248916447
 40
0.7914274474
 40
0.851760998
 40
0.8795571487
 40
0.9058281186
 40
0.9307283242
 40
0.9545060786
 40
0.9774787037
 40
1.0
 40
1.0
 40
1.0
 40
1.0
 10
23.537132997
 20
77.0569110103
 30
0.0
 10
23.5371323039
 20
77.1530215083
 30
0.0
 10
23.5203404333
 20
77.3475454358
 30
0.0
 10
23.4459175619
 20
77.634937386
 30
0.0
 10
23.322818639
 20
77.9161514397
 30
0.0
 10
23.1528342057
 20
78.1882812811
 30
0.0
 10
22.9377691531
 20
78.4488655558
 30
0.0
 10
22.5844108419
 20
78.787087746
 30
0.0
 10
22.0371481824
 20
79.1639285538
 30
0.0
 10
21.2657988352
 20
79.5230019831
 30
0.0
 10
20.389882465
 20
79.7893026145
 30
0.0
 10
19.441935408
 20
79.953073483
 30
0.0
 10
18.4571336548
 20
80.0083605686
 30
0.0
 10
17.472335539
 20
79.9530735914
 30
0.0
 10
16.5243964621
 20
79.7893049149
 30
0.0
 10
15.6484866575
 20
79.5230072495
 30
0.0
 10
14.8771352037
 20
79.1639372968
 30
0.0
 10
14.3298678906
 20
78.7870933186
 30
0.0
 10
13.9765001281
 20
78.4488696574
 30
0.0
 10
13.7614314973
 20
78.1882796776
 30
0.0
 10
13.5914430442
 20
77.9161441299
 30
0.0
 10
13.4683439316
 20
77.6349221761
 30
0.0
 10
13.3939229705
 20
77.3475243104
 30
0.0
 10
13.377132304
 20
77.152997671
 30
0.0
 10
13.3771329971
 20
77.0568865887
 30
0.0
  0
SPLINE
  5
25B
100
AcDbEntity
  8
0
100
AcDbSpline
 62
7
  6
BYLAYER
 70
0
 71
3
 72
15
 73
11
 74
0
 42
0.0000001
 43
0.0000001
 44
0.0000000001
 40
0.0
 40
0.0
 40
0.0
 40
0.0
 40
0.0981653091
 40
0.2002786648
 40
0.3094815719
 40
0.4279079822
 40
0.5565237779
 40
0.6953465401
 40
0.8436180554
 40
1.0
 40
1.0
 40
1.0
 40
1.0
 10
27.982132997
 20
73.9460474855
 30
0.0
 10
27.9821310771
 20
74.2122781712
 30
0.0
 10
27.9122575115
 20
74.7576727049
 30
0.0
 10
27.6050720402
 20
75.5464155414
 30
0.0
 10
27.1057757033
 20
76.2956376993
 30
0.0
 10
26.4284505442
 20
76.9910098909
 30
0.0
 10
25.5880039182
 20
77.6205164469
 30
0.0
 10
24.6018184202
 20
78.1727573857
 30
0.0
 10
23.4899688376
 20
78.6372512808
 30
0.0
 10
22.6976783661
 20
78.8769810085
 30
0.0
 10
22.2865612286
 20
78.9811863719
 30
0.0
  0
SPLINE
  5
25C
100
AcDbEntity
  8
0
100
AcDbSpline
 62
7
  6
BYLAYER
 70
0
 71
3
 72
15
 73
11
 74
0
 42
0.0000001
 43
0.0000001
 44
0.0000000001
 40
0.0
 40
0.0
 40
0.0
 40
0.0
 40
0.1563750204
 40
0.3046375521
 40
0.4434521632
 40
0.5720631913
 40
0.6904894822
 40
0.7996974009
 40
0.9018217131
 40
1.0
 40
1.0
 40
1.0
 40
1.0
 10
14.6232417305
 20
78.9800544992
 30
0.0
 10
14.2124072528
 20
78.8757756431
 30
0.0
 10
13.4206787308
 20
78.6359377332
 30
0.0
 10
12.3096563458
 20
78.1713822535
 30
0.0
 10
11.3242407913
 20
77.6191831428
 30
0.0
 10
10.4844731102
 20
76.9898098956
 30
0.0
 10
9.8077138179
 20
76.294646001
 30
0.0
 10
9.3088451413
 20
75.5456951542
 30
0.0
 10
9.0019388207
 20
74.7572721619
 30
0.0
 10
8.9321310781
 20
74.2121186941
 30
0.0
 10
8.9321329971
 20
73.946001695
 30
0.0
  0
SPLINE
  5
25D
100
AcDbEntity
  8
0
100
AcDbSpline
 62
7
  6
BYLAYER
 70
0
 71
3
 72
31
 73
27
 74
0
 42
0.0000001
 43
0.0000001
 44
0.0000000001
 40
0.0
 40
0.0
 40
0.0
 40
0.0
 40
0.0225231755
 40
0.0454896488
 40
0.0692594681
 40
0.0941560204
 40
0.1204242649
 40
0.1482154868
 40
0.1776068761
 40
0.208606969
 40
0.2751349741
 40
0.3469178802
 40
0.4224760429
 40
0.5000003162
 40
0.5775242977
 40
0.6530816445
 40
0.7248635856
 40
0.7913909878
 40
0.8223909707
 40
0.8517824718
 40
0.8795738887
 40
0.9058424153
 40
0.9307392628
 40
0.9545095991
 40
0.9774766178
 40
1.0
 40
1.0
 40
1.0
 40
1.0
 10
27.982132997
 20
68.7612571368
 30
0.0
 10
27.9821342968
 20
68.5810093429
 30
0.0
 10
27.950708765
 20
68.2162499857
 30
0.0
 10
27.8111120956
 20
67.6774122931
 30
0.0
 10
27.5803130291
 20
67.1501908789
 30
0.0
 10
27.2615872249
 20
66.6399700562
 30
0.0
 10
26.8584004374
 20
66.1513429077
 30
0.0
 10
26.3750008792
 20
65.6885804149
 30
0.0
 10
25.8160181684
 20
65.2558925275
 30
0.0
 10
24.9570223752
 20
64.7115639832
 30
0.0
 10
23.7231347456
 20
64.1371404071
 30
0.0
 10
22.0811702331
 20
63.6380095158
 30
0.0
 10
20.3036464849
 20
63.3308772728
 30
0.0
 10
18.4571506289
 20
63.2272330891
 30
0.0
 10
16.610661129
 20
63.3308727482
 30
0.0
 10
14.8331528239
 20
63.6379966143
 30
0.0
 10
13.1912046311
 20
64.1371139261
 30
0.0
 10
11.9573233752
 20
64.7115193272
 30
0.0
 10
11.0983274196
 20
65.2558382231
 30
0.0
 10
10.5393356165
 20
65.6885170824
 30
0.0
 10
10.0559288068
 20
66.1512786322
 30
0.0
 10
9.6527265076
 20
66.6399009385
 30
0.0
 10
9.3339887965
 20
67.1501247166
 30
0.0
 10
9.1031743848
 20
67.677351415
 30
0.0
 10
8.963568939
 20
68.2161973058
 30
0.0
 10
8.932134297
 20
68.5809618977
 30
0.0
 10
8.9321329971
 20
68.7612113462
 30
0.0
  0
SPLINE
  5
25E
100
AcDbEntity
  8
0
100
AcDbSpline
 62
7
  6
BYLAYER
 70
0
 71
3
 72
12
 73
8
 74
0
 42
0.0000001
 43
0.0000001
 44
0.0000000001
 40
0.0
 40
0.0
 40
0.0
 40
0.0
 40
0.1126329206
 40
0.2337959937
 40
0.4917248652
 40
0.7539299893
 40
1.0
 40
1.0
 40
1.0
 40
1.0
 10
46.59589477
 20
55.7050504072
 30
0.0
 10
46.59589477
 20
55.5748091821
 30
0.0
 10
46.6031157859
 20
55.3044364835
 30
0.0
 10
46.6426665488
 20
54.7370936624
 30
0.0
 10
46.7370464363
 20
54.0008412452
 30
0.0
 10
46.9080686172
 20
53.1309540038
 30
0.0
 10
47.0615163436
 20
52.5628405132
 30
0.0
 10
47.1482156803
 20
52.2918318918
 30
0.0
  0
SPLINE
  5
25F
100
AcDbEntity
  8
0
100
AcDbSpline
 62
7
  6
BYLAYER
 70
0
 71
3
 72
23
 73
19
 74
0
 42
0.0000001
 43
0.0000001
 44
0.0000000001
 40
0.0
 40
0.0
 40
0.0
 40
0.0
 40
0.0451130589
 40
0.0939295193
 40
0.1478456263
 40
0.2073417797
 40
0.2721785758
 40
0.3415941057
 40
0.4144446976
 40
0.4893468618
 40
0.5647863089
 40
0.6392120634
 40
0.7111382257
 40
0.7792465777
 40
0.8424966585
 40
0.9002666031
 40
0.9525145099
 40
1.0
 40
1.0
 40
1.0
 40
1.0
 10
21.6157551108
 20
52.8138630124
 30
0.0
 10
21.596416089
 20
52.7043064098
 30
0.0
 10
21.5204035497
 20
52.4815141893
 30
0.0
 10
21.3133038331
 20
52.1773568946
 30
0.0
 10
21.0199189826
 20
51.9015421517
 30
0.0
 10
20.6498590075
 20
51.6608460361
 30
0.0
 10
20.2140632987
 20
51.4614124487
 30
0.0
 10
19.7254130859
 20
51.3088162308
 30
0.0
 10
19.1984822804
 20
51.2074800276
 30
0.0
 10
18.6491356699
 20
51.1604033313
 30
0.0
 10
18.0939762363
 20
51.1690181413
 30
0.0
 10
17.5498115291
 20
51.2331037566
 30
0.0
 10
17.0330757564
 20
51.3506937841
 30
0.0
 10
16.5592659335
 20
51.5182894933
 30
0.0
 10
16.142469761
 20
51.7310602559
 30
0.0
 10
15.7950168331
 20
51.9834012884
 30
0.0
 10
15.5273615901
 20
52.2684657781
 30
0.0
 10
15.4036648585
 20
52.4848164
 30
0.0
 10
15.360868318
 20
52.5938167289
 30
0.0
  0
SPLINE
  5
260
100
AcDbEntity
  8
0
100
AcDbSpline
 62
7
  6
BYLAYER
 70
0
 71
3
 72
23
 73
19
 74
0
 42
0.0000001
 43
0.0000001
 44
0.0000000001
 40
0.0
 40
0.0
 40
0.0
 40
0.0
 40
0.0451130589
 40
0.0939295193
 40
0.1478456263
 40
0.2073417797
 40
0.2721785758
 40
0.3415941057
 40
0.4144446976
 40
0.4893468618
 40
0.5647863089
 40
0.6392120634
 40
0.7111382257
 40
0.7792465777
 40
0.8424966585
 40
0.9002666031
 40
0.9525145099
 40
1.0
 40
1.0
 40
1.0
 40
1.0
 10
59.715913736
 20
30.8172238045
 30
0.0
 10
59.6965747141
 20
30.7076672019
 30
0.0
 10
59.6205621748
 20
30.4848749814
 30
0.0
 10
59.4134624583
 20
30.1807176867
 30
0.0
 10
59.1200776077
 20
29.9049029438
 30
0.0
 10
58.7500176326
 20
29.6642068282
 30
0.0
 10
58.3142219238
 20
29.4647732408
 30
0.0
 10
57.825571711
 20
29.3121770229
 30
0.0
 10
57.2986409055
 20
29.2108408197
 30
0.0
 10
56.749294295
 20
29.1637641234
 30
0.0
 10
56.1941348614
 20
29.1723789333
 30
0.0
 10
55.6499701542
 20
29.2364645487
 30
0.0
 10
55.1332343815
 20
29.3540545762
 30
0.0
 10
54.6594245586
 20
29.5216502854
 30
0.0
 10
54.2426283861
 20
29.734421048
 30
0.0
 10
53.8951754582
 20
29.9867620805
 30
0.0
 10
53.6275202152
 20
30.2718265702
 30
0.0
 10
53.5038234836
 20
30.4881771921
 30
0.0
 10
53.4610269431
 20
30.597177521
 30
0.0
  0
SPLINE
  5
261
100
AcDbEntity
  8
0
100
AcDbSpline
 62
7
  6
BYLAYER
 70
0
 71
3
 72
23
 73
19
 74
0
 42
0.0000001
 43
0.0000001
 44
0.0000000001
 40
0.0
 40
0.0
 40
0.0
 40
0.0
 40
0.0429520352
 40
0.0878551549
 40
0.1362207451
 40
0.1890140056
 40
0.2465964531
 40
0.3088541009
 40
0.3752959475
 40
0.4451569345
 40
0.5174779234
 40
0.591171345
 40
0.6650818411
 40
0.7380444491
 40
0.8089405196
 40
0.8767555343
 40
0.9406430471
 40
1.0
 40
1.0
 40
1.0
 40
1.0
 10
63.6692916221
 20
36.8098146591
 30
0.0
 10
63.6692931514
 20
36.5977403471
 30
0.0
 10
63.6095873432
 20
36.1619709118
 30
0.0
 10
63.3481705921
 20
35.5353914359
 30
0.0
 10
62.9250980311
 20
34.9448586239
 30
0.0
 10
62.3537125145
 20
34.4027094598
 30
0.0
 10
61.6479881407
 20
33.9193678119
 30
0.0
 10
60.8243347724
 20
33.5047492551
 30
0.0
 10
59.9015984233
 20
33.1677843071
 30
0.0
 10
58.9010247956
 20
32.9160431337
 30
0.0
 10
57.8457998075
 20
32.755292119
 30
0.0
 10
56.7604925857
 20
32.6892868403
 30
0.0
 10
55.6704464905
 20
32.7195507965
 30
0.0
 10
54.6011086672
 20
32.8453653825
 30
0.0
 10
53.5774221774
 20
33.0637881306
 30
0.0
 10
52.6230853956
 20
33.3698513648
 30
0.0
 10
51.760395852
 20
33.756463088
 30
0.0
 10
51.2390621102
 20
34.0748013877
 30
0.0
 10
51.0014939128
 20
34.2464206684
 30
0.0
  0
SPLINE
  5
262
100
AcDbEntity
  8
0
100
AcDbSpline
 62
7
  6
BYLAYER
 70
0
 71
3
 72
13
 73
9
 74
0
 42
0.0000001
 43
0.0000001
 44
0.0000000001
 40
0.0
 40
0.0
 40
0.0
 40
0.0
 40
0.2827350271
 40
0.5394325617
 40
0.6596627383
 40
0.7756639089
 40
0.8886701674
 40
1.0
 40
1.0
 40
1.0
 40
1.0
 10
51.0014939128
 20
34.2464206684
 30
0.0
 10
50.7638286895
 20
34.4181100407
 30
0.0
 10
50.3344939618
 20
34.781726401
 30
0.0
 10
49.9057526277
 20
35.3224490772
 30
0.0
 10
49.6659535766
 20
35.7752873352
 30
0.0
 10
49.539046726
 20
36.115684178
 30
0.0
 10
49.4625069065
 20
36.4613589115
 30
0.0
 10
49.4452924547
 20
36.694332793
 30
0.0
 10
49.4452916222
 20
36.8097804688
 30
0.0
  0
SPLINE
  5
263
100
AcDbEntity
  8
0
100
AcDbSpline
 62
7
  6
BYLAYER
 70
0
 71
3
 72
31
 73
27
 74
0
 42
0.0000001
 43
0.0000001
 44
0.0000000001
 40
0.0
 40
0.0
 40
0.0
 40
0.0
 40
0.0225231938
 40
0.0454897203
 40
0.0692596231
 40
0.0941562825
 40
0.1204246509
 40
0.1482160063
 40
0.1776075325
 40
0.2086077605
 40
0.2751360132
 40
0.3469191138
 40
0.4224773998
 40
0.5000017154
 40
0.5775256547
 40
0.6530828781
 40
0.7248646246
 40
0.7913917794
 40
0.8223916272
 40
0.8517829913
 40
0.8795742747
 40
0.9058426775
 40
0.9307394178
 40
0.9545096706
 40
0.9774766361
 40
1.0
 40
1.0
 40
1.0
 40
1.0
 10
47.0322916222
 20
51.9493624871
 30
0.0
 10
47.0322929221
 20
51.7691145466
 30
0.0
 10
47.0637237874
 20
51.4043550775
 30
0.0
 10
47.2033282702
 20
50.8655181477
 30
0.0
 10
47.434134938
 20
50.3382979579
 30
0.0
 10
47.7528680638
 20
49.8280787723
 30
0.0
 10
48.1560618437
 20
49.3394536421
 30
0.0
 10
48.639468018
 20
48.8766935261
 30
0.0
 10
49.1984569161
 20
48.4440083563
 30
0.0
 10
50.0574603139
 20
47.8996840772
 30
0.0
 10
51.2913557686
 20
47.3252665379
 30
0.0
 10
52.9333273485
 20
46.8261434533
 30
0.0
 10
54.7108554582
 20
46.5190196499
 30
0.0
 10
56.5573527899
 20
46.4153842301
 30
0.0
 10
58.4038408141
 20
46.5190326531
 30
0.0
 10
60.1813447577
 20
46.8261649586
 30
0.0
 10
61.8232858831
 20
47.325290077
 30
0.0
 10
63.057159314
 20
47.8997015148
 30
0.0
 10
63.9161476652
 20
48.4440246758
 30
0.0
 10
64.4751332811
 20
48.8767062528
 30
0.0
 10
64.9585334746
 20
49.3394701794
 30
0.0
 10
65.3617287815
 20
49.828094504
 30
0.0
 10
65.680459171
 20
50.3383199192
 30
0.0
 10
65.9112659813
 20
50.8655478422
 30
0.0
 10
66.0508636135
 20
51.4043944957
 30
0.0
 10
66.0822929219
 20
51.7691589758
 30
0.0
 10
66.0822916221
 20
51.9494082776
 30
0.0
  0
SPLINE
  5
264
100
AcDbEntity
  8
0
100
AcDbSpline
 62
7
  6
BYLAYER
 70
0
 71
3
 72
20
 73
16
 74
0
 42
0.0000001
 43
0.0000001
 44
0.0000000001
 40
0.0
 40
0.0
 40
0.0
 40
0.0
 40
0.1550393702
 40
0.3061331317
 40
0.4496845821
 40
0.5177132834
 40
0.5828249939
 40
0.64481922
 40
0.7035968048
 40
0.7591744151
 40
0.8117054264
 40
0.8614975586
 40
0.9090274764
 40
0.9549491743
 40
1.0
 40
1.0
 40
1.0
 40
1.0
 10
37.5071594344
 20
66.2669208527
 30
0.0
 10
38.3344074026
 20
66.2669228412
 30
0.0
 10
39.9694895434
 20
66.1751797206
 30
0.0
 10
42.3388623839
 20
65.7657090641
 30
0.0
 10
44.1965150803
 20
65.2011483041
 30
0.0
 10
45.5556935058
 20
64.6216666187
 30
0.0
 10
46.480156543
 20
64.140162843
 30
0.0
 10
47.3189867202
 20
63.608502166
 30
0.0
 10
48.0642879637
 20
63.0316042301
 30
0.0
 10
48.7089023302
 20
62.4146438566
 30
0.0
 10
49.2464254344
 20
61.7630613869
 30
0.0
 10
49.6714464817
 20
61.0828040109
 30
0.0
 10
49.9791201298
 20
60.3798632808
 30
0.0
 10
50.1653754252
 20
59.661456551
 30
0.0
 10
50.207210576
 20
59.1750867527
 30
0.0
 10
50.2072123095
 20
58.9347077834
 30
0.0
  0
SPLINE
  5
265
100
AcDbEntity
  8
0
100
AcDbSpline
 62
7
  6
BYLAYER
 70
0
 71
3
 72
19
 73
15
 74
0
 42
0.0000001
 43
0.0000001
 44
0.0000000001
 40
0.0
 40
0.0
 40
0.0
 40
0.0
 40
0.1869346729
 40
0.3644360429
 40
0.5270622993
 40
0.6699994484
 40
0.7328388733
 40
0.7894189401
 40
0.8394686185
 40
0.8829016466
 40
0.9198511229
 40
0.9507912304
 40
0.976839451
 40
1.0
 40
1.0
 40
1.0
 40
1.0
 10
48.2052676505
 20
54.4274343458
 30
0.0
 10
48.1674521557
 20
54.6128626044
 30
0.0
 10
48.0859383035
 20
54.9728314415
 30
0.0
 10
47.9439499033
 20
55.4873963548
 30
0.0
 10
47.7888935792
 20
55.9514511613
 30
0.0
 10
47.647889339
 20
56.2971868107
 30
0.0
 10
47.5306983189
 20
56.5356484654
 30
0.0
 10
47.4466794383
 20
56.6853513987
 30
0.0
 10
47.3633616887
 20
56.8125629538
 30
0.0
 10
47.2813856861
 20
56.9163620874
 30
0.0
 10
47.2012918751
 20
56.9961613298
 30
0.0
 10
47.1231031907
 20
57.0513839155
 30
0.0
 10
47.0465508088
 20
57.0814069457
 30
0.0
 10
46.9953793847
 20
57.0828200746
 30
0.0
 10
46.9722910436
 20
57.0787359356
 30
0.0
  0
SPLINE
  5
266
100
AcDbEntity
  8
0
100
AcDbSpline
 62
7
  6
BYLAYER
 70
0
 71
3
 72
15
 73
11
 74
0
 42
0.0000001
 43
0.0000001
 44
0.0000000001
 40
0.0
 40
0.0
 40
0.0
 40
0.0
 40
0.1854521133
 40
0.3535705124
 40
0.5030165793
 40
0.6332403239
 40
0.744802997
 40
0.8398506274
 40
0.9226893121
 40
1.0
 40
1.0
 40
1.0
 40
1.0
 10
49.9973965132
 20
56.269147694
 30
0.0
 10
49.9765986944
 20
56.3641971873
 30
0.0
 10
49.9318673385
 20
56.5443810077
 30
0.0
 10
49.8496756478
 20
56.7954680584
 30
0.0
 10
49.7560577961
 20
57.0114048207
 30
0.0
 10
49.6522538033
 20
57.189224009
 30
0.0
 10
49.5395251469
 20
57.3265719593
 30
0.0
 10
49.4191563012
 20
57.421759257
 30
0.0
 10
49.2925175957
 20
57.4719912148
 30
0.0
 10
49.2062079573
 20
57.4730740491
 30
0.0
 10
49.1662656248
 20
57.4660145091
 30
0.0
  0
SPLINE
  5
267
100
AcDbEntity
  8
0
100
AcDbSpline
 62
7
  6
BYLAYER
 70
0
 71
3
 72
29
 73
25
 74
0
 42
0.0000001
 43
0.0000001
 44
0.0000000001
 40
0.0
 40
0.0
 40
0.0
 40
0.0
 40
0.0225211594
 40
0.0454933268
 40
0.069270432
 40
0.0941700748
 40
0.1204406359
 40
0.1482362141
 40
0.2085689269
 40
0.2751047528
 40
0.3468971684
 40
0.4224650755
 40
0.4999991648
 40
0.5775329214
 40
0.6530999888
 40
0.7248916447
 40
0.7914274474
 40
0.851760998
 40
0.8795571487
 40
0.9058281186
 40
0.9307283242
 40
0.9545060786
 40
0.9774787037
 40
1.0
 40
1.0
 40
1.0
 40
1.0
 10
51.4772916222
 20
55.0602473808
 30
0.0
 10
51.4772923153
 20
54.9641368829
 30
0.0
 10
51.4940841859
 20
54.7696129554
 30
0.0
 10
51.5685070572
 20
54.4822210051
 30
0.0
 10
51.6916059802
 20
54.2010069515
 30
0.0
 10
51.8615904134
 20
53.9288771101
 30
0.0
 10
52.0766554661
 20
53.6682928353
 30
0.0
 10
52.4300137773
 20
53.3300706451
 30
0.0
 10
52.9772764368
 20
52.9532298374
 30
0.0
 10
53.748625784
 20
52.5941564081
 30
0.0
 10
54.6245421542
 20
52.3278557766
 30
0.0
 10
55.5724892112
 20
52.1640849081
 30
0.0
 10
56.5572909643
 20
52.1087978225
 30
0.0
 10
57.5420890802
 20
52.1640847998
 30
0.0
 10
58.4900281571
 20
52.3278534762
 30
0.0
 10
59.3659379616
 20
52.5941511417
 30
0.0
 10
60.1372894155
 20
52.9532210943
 30
0.0
 10
60.6845567286
 20
53.3300650725
 30
0.0
 10
61.0379244911
 20
53.6682887338
 30
0.0
 10
61.2529931219
 20
53.9288787135
 30
0.0
 10
61.422981575
 20
54.2010142612
 30
0.0
 10
61.5460806875
 20
54.482236215
 30
0.0
 10
61.6205016487
 20
54.7696340807
 30
0.0
 10
61.6372923152
 20
54.9641607201
 30
0.0
 10
61.6372916221
 20
55.0602718024
 30
0.0
  0
SPLINE
  5
268
100
AcDbEntity
  8
0
100
AcDbSpline
 62
7
  6
BYLAYER
 70
0
 71
3
 72
19
 73
15
 74
0
 42
0.0000001
 43
0.0000001
 44
0.0000000001
 40
0.0
 40
0.0
 40
0.0
 40
0.0
 40
0.0450641551
 40
0.0909784283
 40
0.1385141194
 40
0.1883126361
 40
0.240847427
 40
0.2964305992
 40
0.3552138491
 40
0.4172152017
 40
0.5502662522
 40
0.6938323313
 40
0.8449456839
 40
1.0
 40
1.0
 40
1.0
 40
1.0
 10
47.6671736058
 20
69.9330884324
 30
0.0
 10
47.6671738843
 20
70.1013856837
 30
0.0
 10
47.6963521733
 20
70.4418448506
 30
0.0
 10
47.8268718959
 20
70.9446843732
 30
0.0
 10
48.042142574
 20
71.4367360525
 30
0.0
 10
48.3396707237
 20
71.9129143702
 30
0.0
 10
48.7159241524
 20
72.3690269472
 30
0.0
 10
49.1671494228
 20
72.8008833406
 30
0.0
 10
49.688847931
 20
73.204755106
 30
0.0
 10
50.4905754379
 20
73.7127754873
 30
0.0
 10
51.6421689166
 20
74.2489120021
 30
0.0
 10
53.1746838382
 20
74.7147538537
 30
0.0
 10
54.83352668
 20
75.0014455565
 30
0.0
 10
55.9780278717
 20
75.065657567
 30
0.0
 10
56.5570959841
 20
75.0656589589
 30
0.0
  0
SPLINE
  5
269
100
AcDbEntity
  8
0
100
AcDbSpline
 62
7
  6
BYLAYER
 70
0
 71
3
 72
29
 73
25
 74
0
 42
0.0000001
 43
0.0000001
 44
0.0000000001
 40
0.0
 40
0.0
 40
0.0
 40
0.0
 40
0.0225211411
 40
0.0454932553
 40
0.069270277
 40
0.0941698126
 40
0.1204402498
 40
0.1482356945
 40
0.2085681344
 40
0.2751037127
 40
0.3468959338
 40
0.4224637174
 40
0.4999977644
 40
0.5775315633
 40
0.6530987542
 40
0.7248906046
 40
0.7914266548
 40
0.8517604785
 40
0.8795567627
 40
0.9058278564
 40
0.9307281692
 40
0.9545060071
 40
0.9774786853
 40
1.0
 40
1.0
 40
1.0
 40
1.0
 10
61.6372916221
 20
51.9493975932
 30
0.0
 10
61.6372923152
 20
51.8532871735
 30
0.0
 10
61.6205032889
 20
51.6587633053
 30
0.0
 10
61.5460845849
 20
51.3713709487
 30
0.0
 10
61.4229897164
 20
51.0901562419
 30
0.0
 10
61.2530091883
 20
50.8180255274
 30
0.0
 10
61.0379478645
 20
50.557440176
 30
0.0
 10
60.6845943582
 20
50.2192162183
 30
0.0
 10
60.1373369025
 20
49.8423726656
 30
0.0
 10
59.3659926059
 20
49.4832955406
 30
0.0
 10
58.4900800026
 20
49.2169907417
 30
0.0
 10
57.5421352726
 20
49.0532153733
 30
0.0
 10
56.5573343062
 20
48.9979236134
 30
0.0
 10
55.5725354036
 20
49.0532059163
 30
0.0
 10
54.6245939998
 20
49.2169700929
 30
0.0
 10
53.7486804285
 20
49.4832635908
 30
0.0
 10
52.9773239242
 20
49.8423298478
 30
0.0
 10
52.4300514073
 20
50.219171081
 30
0.0
 10
52.0766788398
 20
50.5573929746
 30
0.0
 10
51.8616064801
 20
50.8179818777
 30
0.0
 10
51.6916141219
 20
51.0901165523
 30
0.0
 10
51.5685109547
 20
51.371337853
 30
0.0
 10
51.4940858261
 20
51.6587353123
 30
0.0
 10
51.4772923153
 20
51.853262011
 30
0.0
 10
51.4772916222
 20
51.9493731715
 30
0.0
  0
SPLINE
  5
26A
100
AcDbEntity
  8
0
100
AcDbSpline
 62
7
  6
BYLAYER
 70
0
 71
3
 72
29
 73
25
 74
0
 42
0.0000001
 43
0.0000001
 44
0.0000000001
 40
0.0
 40
0.0
 40
0.0
 40
0.0
 40
0.0225211594
 40
0.0454933268
 40
0.069270432
 40
0.0941700748
 40
0.1204406359
 40
0.1482362141
 40
0.2085689269
 40
0.2751047528
 40
0.3468971684
 40
0.4224650755
 40
0.4999991648
 40
0.5775329214
 40
0.6530999888
 40
0.7248916447
 40
0.7914274474
 40
0.851760998
 40
0.8795571487
 40
0.9058281186
 40
0.9307283242
 40
0.9545060786
 40
0.9774787037
 40
1.0
 40
1.0
 40
1.0
 40
1.0
 10
13.3771329971
 20
77.0568865887
 30
0.0
 10
13.3771336902
 20
76.9607760908
 30
0.0
 10
13.3939255608
 20
76.7662521633
 30
0.0
 10
13.4683484321
 20
76.478860213
 30
0.0
 10
13.5914473551
 20
76.1976461594
 30
0.0
 10
13.7614317883
 20
75.925516318
 30
0.0
 10
13.976496841
 20
75.6649320432
 30
0.0
 10
14.3298551522
 20
75.326709853
 30
0.0
 10
14.8771178117
 20
74.9498690453
 30
0.0
 10
15.6484671589
 20
74.590795616
 30
0.0
 10
16.5243835291
 20
74.3244949845
 30
0.0
 10
17.4723305861
 20
74.160724116
 30
0.0
 10
18.4571323392
 20
74.1054370304
 30
0.0
 10
19.4419304551
 20
74.1607240077
 30
0.0
 10
20.389869532
 20
74.3244926841
 30
0.0
 10
21.2657793365
 20
74.5907903496
 30
0.0
 10
22.0371307904
 20
74.9498603022
 30
0.0
 10
22.5843981035
 20
75.3267042804
 30
0.0
 10
22.937765866
 20
75.6649279417
 30
0.0
 10
23.1528344968
 20
75.9255179214
 30
0.0
 10
23.3228229499
 20
76.1976534691
 30
0.0
 10
23.4459220624
 20
76.4788754229
 30
0.0
 10
23.5203430236
 20
76.7662732886
 30
0.0
 10
23.5371336901
 20
76.960799928
 30
0.0
 10
23.537132997
 20
77.0569110103
 30
0.0
  0
SPLINE
  5
26B
100
AcDbEntity
  8
0
100
AcDbSpline
 62
7
  6
BYLAYER
 70
0
 71
3
 72
18
 73
14
 74
0
 42
0.0000001
 43
0.0000001
 44
0.0000000001
 40
0.0
 40
0.0
 40
0.0
 40
0.0
 40
0.1550738325
 40
0.3062051426
 40
0.4497904257
 40
0.5828603272
 40
0.7035275292
 40
0.7591189882
 40
0.8116611849
 40
0.8614668046
 40
0.9090091413
 40
0.9549296249
 40
1.0
 40
1.0
 40
1.0
 40
1.0
 10
56.5570959841
 20
75.0656589589
 30
0.0
 10
57.1361631101
 20
75.0656603508
 30
0.0
 10
58.2806835867
 20
75.0014433049
 30
0.0
 10
59.9394176402
 20
74.7148110195
 30
0.0
 10
61.4723040514
 20
74.2487999167
 30
0.0
 10
62.82216677
 20
73.6204012322
 30
0.0
 10
63.7798338424
 20
72.9608826776
 30
0.0
 10
64.3983218674
 20
72.3690739424
 30
0.0
 10
64.7745777493
 20
71.9129255049
 30
0.0
 10
65.072121168
 20
71.4367539308
 30
0.0
 10
65.2873903892
 20
70.9446928832
 30
0.0
 10
65.4179145912
 20
70.4418492793
 30
0.0
 10
65.4470905983
 20
70.101387427
 30
0.0
 10
65.4470977111
 20
69.9330884165
 30
0.0
  0
SPLINE
  5
26C
100
AcDbEntity
  8
0
100
AcDbSpline
 62
7
  6
BYLAYER
 70
0
 71
3
 72
29
 73
25
 74
0
 42
0.0000001
 43
0.0000001
 44
0.0000000001
 40
0.0
 40
0.0
 40
0.0
 40
0.0
 40
0.0225211411
 40
0.0454932553
 40
0.069270277
 40
0.0941698126
 40
0.1204402498
 40
0.1482356945
 40
0.2085681344
 40
0.2751037127
 40
0.3468959338
 40
0.4224637174
 40
0.4999977644
 40
0.5775315633
 40
0.6530987542
 40
0.7248906046
 40
0.7914266548
 40
0.8517604785
 40
0.8795567627
 40
0.9058278564
 40
0.9307281692
 40
0.9545060071
 40
0.9774786853
 40
1.0
 40
1.0
 40
1.0
 40
1.0
 10
23.537132997
 20
73.9460368011
 30
0.0
 10
23.5371336901
 20
73.8499263814
 30
0.0
 10
23.5203446638
 20
73.6554025132
 30
0.0
 10
23.4459259598
 20
73.3680101566
 30
0.0
 10
23.3228310913
 20
73.0867954498
 30
0.0
 10
23.1528505632
 20
72.8146647353
 30
0.0
 10
22.9377892394
 20
72.5540793839
 30
0.0
 10
22.5844357331
 20
72.2158554263
 30
0.0
 10
22.0371782774
 20
71.8390118735
 30
0.0
 10
21.2658339808
 20
71.4799347485
 30
0.0
 10
20.3899213774
 20
71.2136299496
 30
0.0
 10
19.4419766474
 20
71.0498545812
 30
0.0
 10
18.4571756811
 20
70.9945628213
 30
0.0
 10
17.4723767785
 20
71.0498451242
 30
0.0
 10
16.5244353747
 20
71.2136093008
 30
0.0
 10
15.6485218034
 20
71.4799027987
 30
0.0
 10
14.8771652991
 20
71.8389690557
 30
0.0
 10
14.3298927822
 20
72.2158102889
 30
0.0
 10
13.9765202147
 20
72.5540321825
 30
0.0
 10
13.761447855
 20
72.8146210856
 30
0.0
 10
13.5914554968
 20
73.0867557602
 30
0.0
 10
13.4683523296
 20
73.3679770609
 30
0.0
 10
13.393927201
 20
73.6553745202
 30
0.0
 10
13.3771336902
 20
73.8499012189
 30
0.0
 10
13.3771329971
 20
73.9460123794
 30
0.0
  0
SPLINE
  5
26D
100
AcDbEntity
  8
0
100
AcDbSpline
 62
7
  6
BYLAYER
 70
0
 71
3
 72
31
 73
27
 74
0
 42
0.0000001
 43
0.0000001
 44
0.0000000001
 40
0.0
 40
0.0
 40
0.0
 40
0.0
 40
0.0225231938
 40
0.0454897203
 40
0.0692596231
 40
0.0941562825
 40
0.1204246509
 40
0.1482160063
 40
0.1776075325
 40
0.2086077605
 40
0.2751360132
 40
0.3469191138
 40
0.4224773998
 40
0.5000017154
 40
0.5775256547
 40
0.6530828781
 40
0.7248646246
 40
0.7913917794
 40
0.8223916272
 40
0.8517829913
 40
0.8795742747
 40
0.9058426775
 40
0.9307394178
 40
0.9545096706
 40
0.9774766361
 40
1.0
 40
1.0
 40
1.0
 40
1.0
 10
8.9321329971
 20
73.946001695
 30
0.0
 10
8.9321342969
 20
73.7657537545
 30
0.0
 10
8.9635651623
 20
73.4009942854
 30
0.0
 10
9.1031696451
 20
72.8621573556
 30
0.0
 10
9.3339763129
 20
72.3349371658
 30
0.0
 10
9.6527094387
 20
71.8247179802
 30
0.0
 10
10.0559032186
 20
71.33609285
 30
0.0
 10
10.5393093929
 20
70.873332734
 30
0.0
 10
11.098298291
 20
70.4406475642
 30
0.0
 10
11.9573016888
 20
69.8963232851
 30
0.0
 10
13.1911971435
 20
69.3219057458
 30
0.0
 10
14.8331687234
 20
68.8227826612
 30
0.0
 10
16.6106968331
 20
68.5156588578
 30
0.0
 10
18.4571941648
 20
68.412023438
 30
0.0
 10
20.3036821889
 20
68.515671861
 30
0.0
 10
22.0811861326
 20
68.8228041666
 30
0.0
 10
23.723127258
 20
69.3219292849
 30
0.0
 10
24.9570006889
 20
69.8963407227
 30
0.0
 10
25.8159890401
 20
70.4406638838
 30
0.0
 10
26.3749746559
 20
70.8733454607
 30
0.0
 10
26.8583748495
 20
71.3361093873
 30
0.0
 10
27.2615701564
 20
71.8247337119
 30
0.0
 10
27.5803005458
 20
72.3349591272
 30
0.0
 10
27.8111073561
 20
72.8621870501
 30
0.0
 10
27.9507049884
 20
73.4010337036
 30
0.0
 10
27.9821342968
 20
73.7657981837
 30
0.0
 10
27.982132997
 20
73.9460474855
 30
0.0
  0
ELLIPSE
  5
26E
100
AcDbEntity
  8
0
100
AcDbEllipse
 62
7
  6
BYLAYER
 10
68.5419358852
 20
59.8478458808
 30
0.0
 11
-0.442973351
 21
8.1909377003
 31
0.0
 40
0.0688505444
 41
-3.1227087902
 42
-0.6658260041
  0
ENDSEC
  0
SECTION
  2
OBJECTS
  0
DICTIONARY
  5
C
100
AcDbDictionary
280
0
281
1
  3
ACAD_GROUP
350
D
  3
ACAD_MLINESTYLE
350
17
  3
ACAD_LAYOUT
350
1A
  3
ACAD_PLOTSETTINGS
350
19
  3
ACAD_PLOTSTYLENAME
350
E
  0
DICTIONARY
  5
D
102
{ACAD_REACTORS
330
C
102
}
100
AcDbDictionary
280
0
281
1
  0
ACDBDICTIONARYWDFLT
  5
E
102
{ACAD_REACTORS
330
C
102
}
100
AcDbDictionary
281
1
  3
Normal
350
F
100
AcDbDictionaryWithDefault
340
F
  0
DICTIONARY
  5
17
102
{ACAD_REACTORS
330
C
102
}
100
AcDbDictionary
280
0
281
1
  3
Standard
350
18
  0
DICTIONARY
  5
19
102
{ACAD_REACTORS
330
C
102
}
100
AcDbDictionary
281
1
  0
DICTIONARY
  5
1A
102
{ACAD_REACTORS
330
C
102
}
100
AcDbDictionary
281
1
  3
Model
350
26F
  3
Layout1
350
270
  0
ACDBPLACEHOLDER
  5
F
102
{ACAD_REACTORS
330
E
102
}
  0
MLINESTYLE
  5
18
102
{ACAD_REACTORS
330
17
102
}
100
AcDbMlineStyle
  2
STANDARD
 70
0
  3

 62
256
 51
90.0
 52
90.0
 71
2
 49
0.5
 62
256
  6
BYLAYER
 49
-0.5
 62
256
  6
BYLAYER
  0
LAYOUT
  5
26F
102
{ACAD_REACTORS
330
1A
102
}
100
AcDbPlotSettings
  1

  2
none_device
  4

  6

 40
0.0
 41
0.0
 42
0.0
 43
0.0
 44
210.0
 45
297.0
 46
0.0
 47
0.0
 48
0.0
 49
0.0
140
0.0
141
0.0
142
1.0
143
1.0
 70
1024
 72
1
 73
0
 74
0
  7

 75
0
147
1.0
148
0.0
149
0.0
100
AcDbLayout
  1
Model
 70
0
 71
0
 10
0.0
 20
0.0
 11
210.0
 21
297.0
 12
0.0
 22
0.0
 32
0.0
 14
0.0
 24
0.0
 34
0.0
 15
0.0
 25
0.0
 35
0.0
146
0.0
 13
0.0
 23
0.0
 33
0.0
 16
1.0
 26
0.0
 36
0.0
 17
0.0
 27
1.0
 37
0.0
 76
0
330
210
345
0
346
0
  0
LAYOUT
  5
270
102
{ACAD_REACTORS
330
1A
102
}
100
AcDbPlotSettings
  1

  2
none_device
  4

  6

 40
0.0
 41
0.0
 42
0.0
 43
0.0
 44
210.0
 45
297.0
 46
0.0
 47
0.0
 48
0.0
 49
0.0
140
0.0
141
0.0
142
1.0
143
1.0
 70
0
 72
1
 73
0
 74
0
  7

 75
0
147
1.0
148
0.0
149
0.0
100
AcDbLayout
  1
Layout1
 70
0
 71
1
 10
0.0
 20
0.0
 11
210.0
 21
297.0
 12
0.0
 22
0.0
 32
0.0
 14
0.0
 24
0.0
 34
0.0
 15
0.0
 25
0.0
 35
0.0
146
0.0
 13
0.0
 23
0.0
 33
0.0
 16
1.0
 26
0.0
 36
0.0
 17
0.0
 27
1.0
 37
0.0
 76
0
330
211
345
0
346
0
  0
ENDSEC
  0
EOF
