999
DXF file: C:\Users\sesa63760\Dev\_Creo\CAD\MCADID0004815_3D-CAD\drw0001_3.dxf
999
Pro/ENGINEER 2019471 by Parametric Technology Corporation
  0
SECTION
  2
HEADER
  9
$ACADVER
  1
AC1024
  9
$DWGCODEPAGE
  3
ANSI_1252
  9
$EXTMAX
 10
41.8606353389
 20
59.2028985507
 30
0.0
  9
$EXTMIN
 10
0.0
 20
0.0
 30
0.0
  9
$LIMMIN
 10
0.0
 20
0.0
  9
$LIMMAX
 10
41.8606353389
 20
59.2028985507
  9
$VIEWCTR
 10
20.9303176695
 20
29.6014492754
  9
$VIEWSIZE
 40
59.2028985507
  9
$CLAYER
  8
0
  9
$LTSCALE
 40
3.8591519055
  9
$CELTYPE
  6
BYLAYER
  9
$DIMSCALE
 40
1.0
  9
$DIMASZ
 40
0.4983408969
  9
$DIMEXO
 40
1.0
  9
$DIMDLI
 40
2.6663231347
  9
$DIMEXE
 40
1.0
  9
$DIMCEN
 40
0.6314975845
  9
$DIMLFAC
 40
1.0
  9
$DIMBLK
  1
_FILLED
  9
$DIMALT
 70
0
  9
$DIMALTF
 40
0.0393700787
  9
$DIMTXT
 40
0.6976772556
  9
$DIMTOL
 70
1
  9
$DIMLIM
 70
0
  9
$DIMTFAC
 40
1.0
  9
$DIMTP
 40
0.01
  9
$DIMTM
 40
0.01
  9
$DIMGAP
 40
0.625
  9
$DIMDSEP
 70
46
  9
$AUNITS
 70
0
  9
$PDMODE
 70
3
  9
$PDSIZE
 40
0.3125
  9
$HANDSEED
  5
282
  9
$TILEMODE
 70
1
  9
$MEASUREMENT
 70
1
  9
$INSUNITS
 70
4
  0
ENDSEC
  0
SECTION
  2
CLASSES
  0
CLASS
  1
ACDBDICTIONARYWDFLT
  2
AcDbDictionaryWithDefault
  3
AutoCAD 2000
 90
0
 91
1
280
0
281
0
  0
CLASS
  1
ACDBPLACEHOLDER
  2
AcDbPlaceHolder
  3
AutoCAD 2000
 90
0
 91
1
280
0
281
0
  0
CLASS
  1
LAYOUT
  2
AcDbLayout
  3
AutoCAD 2000
 90
0
 91
0
280
0
281
0
  0
ENDSEC
  0
SECTION
  2
TABLES
  0
TABLE
  2
VPORT
  5
8
100
AcDbSymbolTable
 70
2
  0
VPORT
  5
1F4
100
AcDbSymbolTableRecord
100
AcDbViewportTableRecord
  2
*ACTIVE
 70
0
 10
0.0
 20
0.0
 11
1.0
 21
1.0
 12
20.9303176695
 22
29.6014492754
 13
0.0
 23
0.0
 14
1.0
 24
1.0
 15
0.0
 25
0.0
 16
0.0
 26
0.0
 36
1.0
 17
0.0
 27
0.0
 37
0.0
 40
59.2028985507
 41
0.7070707071
 42
50.0
 43
0.0
 44
0.0
 50
0.0
 51
0.0
 71
0
 72
100
 73
1
 74
1
 75
0
 76
0
 77
0
 78
0
  0
ENDTAB
  0
TABLE
  2
LTYPE
  5
5
100
AcDbSymbolTable
 70
6
  0
LTYPE
  5
14
100
AcDbSymbolTableRecord
100
AcDbLinetypeTableRecord
  2
BYBLOCK
 70
0
  3

 72
65
 73
0
 40
0.0
  0
LTYPE
  5
15
100
AcDbSymbolTableRecord
100
AcDbLinetypeTableRecord
  2
BYLAYER
 70
0
  3

 72
65
 73
0
 40
0.0
  0
LTYPE
  5
16
100
AcDbSymbolTableRecord
100
AcDbLinetypeTableRecord
  2
CONTINUOUS
 70
64
  3
Solid line
 72
65
 73
0
 40
0.0
  0
LTYPE
  5
1F5
100
AcDbSymbolTableRecord
100
AcDbLinetypeTableRecord
  2
CENTER
 70
64
  3
____ _ ____ _ ____ _ ____ _ ____ _ ____ _ ____
 72
65
 73
4
 40
0.6
 49
0.375
 74
0
 49
-0.075
 74
0
 49
0.075
 74
0
 49
-0.075
 74
0
  0
LTYPE
  5
1F6
100
AcDbSymbolTableRecord
100
AcDbLinetypeTableRecord
  2
HIDDEN
 70
64
  3
- - - - - - - - - - - - - - - - - - - -
 72
65
 73
2
 40
0.2
 49
0.1
 74
0
 49
-0.1
 74
0
  0
LTYPE
  5
1F7
100
AcDbSymbolTableRecord
100
AcDbLinetypeTableRecord
  2
PHANTOM
 70
64
  3
_____ _ _ _____ _ _ _____ _ _ _____
 72
65
 73
6
 40
0.8
 49
0.45
 74
0
 49
-0.05
 74
0
 49
0.1
 74
0
 49
-0.05
 74
0
 49
0.1
 74
0
 49
-0.05
 74
0
  0
LTYPE
  5
1F8
100
AcDbSymbolTableRecord
100
AcDbLinetypeTableRecord
  2
DOT
 70
64
  3
. . . . . . . . . . . . . . . . . . . .
 72
65
 73
2
 40
0.2
 49
0.1
 74
0
 49
-0.1
 74
0
  0
LTYPE
  5
1F9
100
AcDbSymbolTableRecord
100
AcDbLinetypeTableRecord
  2
DASHED
 70
64
  3
- - - - - - - - - - - - - - - - - - - -
 72
65
 73
2
 40
0.2
 49
0.1
 74
0
 49
-0.1
 74
0
  0
ENDTAB
  0
TABLE
  2
LAYER
  5
2
100
AcDbSymbolTable
 70
36
  0
LAYER
  5
10
100
AcDbSymbolTableRecord
100
AcDbLayerTableRecord
  2
0
 70
0
 62
7
  6
CONTINUOUS
370
-3
390
F
  0
LAYER
  5
1FA
100
AcDbSymbolTableRecord
100
AcDbLayerTableRecord
  2
DEFAULT_1
 70
0
 62
7
  6
CENTER
370
-3
390
F
  0
LAYER
  5
1FB
100
AcDbSymbolTableRecord
100
AcDbLayerTableRecord
  2
DEFAULT_2
 70
0
 62
7
  6
HIDDEN
370
-3
390
F
  0
LAYER
  5
1FC
100
AcDbSymbolTableRecord
100
AcDbLayerTableRecord
  2
DEFAULT_3
 70
0
 62
7
  6
PHANTOM
370
-3
390
F
  0
LAYER
  5
1FD
100
AcDbSymbolTableRecord
100
AcDbLayerTableRecord
  2
00_COMPONENTS
 70
0
 62
7
  6
CONTINUOUS
370
-3
390
F
  0
LAYER
  5
1FE
100
AcDbSymbolTableRecord
100
AcDbLayerTableRecord
  2
01_1_DEFAULT_DATUMS
 70
0
 62
7
  6
CONTINUOUS
370
-3
390
F
  0
LAYER
  5
1FF
100
AcDbSymbolTableRecord
100
AcDbLayerTableRecord
  2
01_PLANES
 70
0
 62
7
  6
CONTINUOUS
370
-3
390
F
  0
LAYER
  5
200
100
AcDbSymbolTableRecord
100
AcDbLayerTableRecord
  2
02_COORD_SYS
 70
0
 62
7
  6
CONTINUOUS
370
-3
390
F
  0
LAYER
  5
201
100
AcDbSymbolTableRecord
100
AcDbLayerTableRecord
  2
03_AXES
 70
0
 62
7
  6
CONTINUOUS
370
-3
390
F
  0
LAYER
  5
202
100
AcDbSymbolTableRecord
100
AcDbLayerTableRecord
  2
04_POINTS
 70
0
 62
7
  6
CONTINUOUS
370
-3
390
F
  0
LAYER
  5
203
100
AcDbSymbolTableRecord
100
AcDbLayerTableRecord
  2
05_CURVES
 70
0
 62
7
  6
CONTINUOUS
370
-3
390
F
  0
LAYER
  5
204
100
AcDbSymbolTableRecord
100
AcDbLayerTableRecord
  2
06_SURFS
 70
0
 62
7
  6
CONTINUOUS
370
-3
390
F
  0
LAYER
  5
205
100
AcDbSymbolTableRecord
100
AcDbLayerTableRecord
  2
07_COSMETICS
 70
0
 62
7
  6
CONTINUOUS
370
-3
390
F
  0
LAYER
  5
206
100
AcDbSymbolTableRecord
100
AcDbLayerTableRecord
  2
10_NOTES
 70
0
 62
7
  6
CONTINUOUS
370
-3
390
F
  0
LAYER
  5
207
100
AcDbSymbolTableRecord
100
AcDbLayerTableRecord
  2
11_NOTES_PUB
 70
0
 62
7
  6
CONTINUOUS
370
-3
390
F
  0
LAYER
  5
208
100
AcDbSymbolTableRecord
100
AcDbLayerTableRecord
  2
13_REF_GTOL
 70
0
 62
7
  6
CONTINUOUS
370
-3
390
F
  0
LAYER
  5
209
100
AcDbSymbolTableRecord
100
AcDbLayerTableRecord
  2
16_MISC
 70
0
 62
7
  6
CONTINUOUS
370
-3
390
F
  0
LAYER
  5
20A
100
AcDbSymbolTableRecord
100
AcDbLayerTableRecord
  2
17_NO_PRINT
 70
0
 62
7
  6
CONTINUOUS
370
-3
390
F
  0
LAYER
  5
20B
100
AcDbSymbolTableRecord
100
AcDbLayerTableRecord
  2
18_DATUM_CAMS_JOINTS
 70
0
 62
7
  6
CONTINUOUS
370
-3
390
F
  0
LAYER
  5
20C
100
AcDbSymbolTableRecord
100
AcDbLayerTableRecord
  2
19_DATUM_FUNCTIONAL
 70
0
 62
7
  6
CONTINUOUS
370
-3
390
F
  0
LAYER
  5
20D
100
AcDbSymbolTableRecord
100
AcDbLayerTableRecord
  2
20_DATUM_KINEMATIC_SCHEME
 70
0
 62
7
  6
CONTINUOUS
370
-3
390
F
  0
ENDTAB
  0
TABLE
  2
STYLE
  5
3
100
AcDbSymbolTable
 70
1
  0
STYLE
  5
11
100
AcDbSymbolTableRecord
100
AcDbTextStyleTableRecord
  2
STANDARD
 70
0
 40
0.0
 41
1.0
 50
0.0
 71
0
 42
0.2
  3
ARIAL.TTF
  4

  0
STYLE
  5
20E
100
AcDbSymbolTableRecord
100
AcDbTextStyleTableRecord
  2
TEXTSTYLE_1
 70
0
 40
0.0
 41
0.8
 50
0.0
 71
0
 42
0.2
  3
gdt
  4

  0
ENDTAB
  0
TABLE
  2
VIEW
  5
6
100
AcDbSymbolTable
 70
0
  0
ENDTAB
  0
TABLE
  2
UCS
  5
7
100
AcDbSymbolTable
 70
0
  0
ENDTAB
  0
TABLE
  2
APPID
  5
9
100
AcDbSymbolTable
 70
1
  0
APPID
  5
20F
100
AcDbSymbolTableRecord
100
AcDbRegAppTableRecord
  2
ACAD
 70
0
  0
ENDTAB
  0
TABLE
  2
BLOCK_RECORD
  5
1
100
AcDbSymbolTable
 70
0
  0
BLOCK_RECORD
  5
210
100
AcDbSymbolTableRecord
100
AcDbBlockTableRecord
  2
*Model_Space
  0
BLOCK_RECORD
  5
211
100
AcDbSymbolTableRecord
100
AcDbBlockTableRecord
  2
*Paper_Space
  0
BLOCK_RECORD
  5
212
100
AcDbSymbolTableRecord
100
AcDbBlockTableRecord
  2
_FILLED
  0
ENDTAB
  0
TABLE
  2
DIMSTYLE
  5
A
100
AcDbSymbolTable
 70
1
100
AcDbDimStyleTable
 71
0
  0
DIMSTYLE
105
213
100
AcDbSymbolTableRecord
100
AcDbDimStyleTableRecord
  2
STANDARD
 70
0
  3

  4

 40
1.0
 41
0.4983408969
 42
1.0
 43
0.38
 44
1.0
 45
0.0
 46
0.0
 47
0.01
 48
0.01
140
0.6976772556
141
0.09
142
0.0
143
25.4
144
1.0
145
0.0
146
1.0
147
0.625
 71
1
 72
0
 73
0
 74
0
 75
0
 76
0
 77
1
 78
8
 79
2
170
0
171
1
172
0
173
0
174
0
175
0
176
0
177
0
178
0
270
2
179
2
271
2
272
2
273
2
274
2
275
0
280
0
281
0
282
0
283
1
284
8
285
0
286
0
287
3
288
0
340
11
278
46
341
212
342
212
343
212
344
212
  0
ENDTAB
  0
ENDSEC
  0
SECTION
  2
BLOCKS
  0
BLOCK
  5
20
100
AcDbEntity
  8
0
100
AcDbBlockBegin
  2
*Model_Space
 70
0
 10
0.0
 20
0.0
 30
0.0
  3
*Model_Space
  1

  0
ENDBLK
  5
21
100
AcDbEntity
  8
0
100
AcDbBlockEnd
  0
BLOCK
  5
1C
100
AcDbEntity
  8
0
100
AcDbBlockBegin
  2
*Paper_Space
 70
0
 10
0.0
 20
0.0
 30
0.0
  3
*Paper_Space
  1

  0
ENDBLK
  5
1D
100
AcDbEntity
  8
0
100
AcDbBlockEnd
  0
BLOCK
  5
214
100
AcDbEntity
  8
0
100
AcDbBlockBegin
  2
_FILLED
 70
64
 10
0.0
 20
0.0
  3
_FILLED
  1

  0
SOLID
  5
215
100
AcDbEntity
  8
0
  6
BYBLOCK
 62
0
100
AcDbTrace
 10
0.0
 20
0.0
 11
-1.0
 21
0.25
 12
-1.0
 22
-0.25
 13
-1.0
 23
-0.25
  0
ENDBLK
  5
216
100
AcDbEntity
  8
0
  6
BYBLOCK
 62
0
100
AcDbBlockEnd
  0
ENDSEC
  0
SECTION
  2
ENTITIES
  0
LINE
  5
217
100
AcDbEntity
  8
0
100
AcDbLine
 62
7
  6
BYLAYER
 10
29.5098874058
 20
4.7463768116
 11
13.5098874058
 21
4.7463768116
  0
LINE
  5
218
100
AcDbEntity
  8
0
100
AcDbLine
 62
7
  6
BYLAYER
 10
30.8848874058
 20
7.2463768116
 11
12.1348874058
 21
7.2463768116
  0
LINE
  5
219
100
AcDbEntity
  8
0
100
AcDbLine
 62
7
  6
BYLAYER
 10
30.8848874058
 20
8.7463768116
 11
12.1348874058
 21
8.7463768116
  0
LINE
  5
21A
100
AcDbEntity
  8
0
100
AcDbLine
 62
7
  6
BYLAYER
 10
12.1348874058
 20
9.4963768116
 11
17.7827490812
 21
9.4963768116
  0
LINE
  5
21B
100
AcDbEntity
  8
0
100
AcDbLine
 62
7
  6
BYLAYER
 10
25.2370257305
 20
9.4963768116
 11
30.8848874058
 21
9.4963768116
  0
LINE
  5
21C
100
AcDbEntity
  8
0
100
AcDbLine
 62
7
  6
BYLAYER
 10
35.5150295274
 20
15.4976833978
 11
35.8098887458
 21
15.5529829584
  0
LINE
  5
21D
100
AcDbEntity
  8
0
100
AcDbLine
 62
7
  6
BYLAYER
 10
7.5047445484
 20
15.4976794747
 11
7.2098874055
 21
15.5529901002
  0
LINE
  5
21E
100
AcDbEntity
  8
0
100
AcDbLine
 62
7
  6
BYLAYER
 10
6.5098874058
 20
49.7463588775
 11
6.5098874058
 21
6.9504947413
  0
LINE
  5
21F
100
AcDbEntity
  8
0
100
AcDbLine
 62
7
  6
BYLAYER
 10
7.2098874058
 20
6.6980982805
 11
7.2098874056
 21
13.9397635227
  0
LINE
  5
220
100
AcDbEntity
  8
0
100
AcDbLine
 62
7
  6
BYLAYER
 10
7.2098874055
 20
15.5529901006
 11
7.2098874058
 21
50.6814674064
  0
LINE
  5
221
100
AcDbEntity
  8
0
100
AcDbLine
 62
7
  6
BYLAYER
 10
7.4348898475
 20
14.7463766266
 11
7.0786348676
 21
14.7463770988
  0
LINE
  5
222
100
AcDbEntity
  8
0
100
AcDbLine
 62
7
  6
BYLAYER
 10
35.5848831767
 20
14.7463770277
 11
35.9411416003
 21
14.7463764505
  0
LINE
  5
223
100
AcDbEntity
  8
0
100
AcDbLine
 62
7
  6
BYLAYER
 10
7.5047451673
 20
13.9950708493
 11
7.2098862745
 21
13.9397695524
  0
LINE
  5
224
100
AcDbEntity
  8
0
100
AcDbLine
 62
7
  6
BYLAYER
 10
35.5150302634
 20
13.9950741489
 11
35.8098874062
 21
13.9397635235
  0
LINE
  5
225
100
AcDbEntity
  8
0
100
AcDbLine
 62
7
  6
BYLAYER
 10
11.5098873494
 20
54.4463768116
 11
11.5098873494
 21
54.7463768116
  0
LINE
  5
226
100
AcDbEntity
  8
0
100
AcDbLine
 62
7
  6
BYLAYER
 10
12.1348874058
 20
9.6917183674
 11
12.1348874058
 21
7.0510352558
  0
LINE
  5
227
100
AcDbEntity
  8
0
100
AcDbLine
 62
7
  6
BYLAYER
 10
12.7348874058
 20
7.2463768116
 11
12.7348874058
 21
8.7463768116
  0
LINE
  5
228
100
AcDbEntity
  8
0
100
AcDbLine
 62
7
  6
BYLAYER
 10
13.5098874058
 20
5.2631339313
 11
13.5098874058
 21
4.7463768116
  0
LINE
  5
229
100
AcDbEntity
  8
0
100
AcDbLine
 62
7
  6
BYLAYER
 10
7.1419000841
 20
6.4059036124
 11
7.2098874058
 21
6.6980982805
  0
LINE
  5
22A
100
AcDbEntity
  8
0
100
AcDbLine
 62
7
  6
BYLAYER
 10
18.3688780358
 20
9.3248977208
 11
17.5393704863
 21
12.7278343434
  0
LINE
  5
22B
100
AcDbEntity
  8
0
100
AcDbLine
 62
7
  6
BYLAYER
 10
17.4098874058
 20
51.1463768116
 11
17.4098874058
 21
52.9463768116
  0
LINE
  5
22C
100
AcDbEntity
  8
0
100
AcDbLine
 62
7
  6
BYLAYER
 10
21.5098873931
 20
6.4043731671
 11
21.5098873931
 21
7.2463768116
  0
LINE
  5
22D
100
AcDbEntity
  8
0
100
AcDbLine
 62
7
  6
BYLAYER
 10
18.3688657511
 20
9.3248931763
 11
18.3363897515
 21
8.8733630663
  0
LINE
  5
22E
100
AcDbEntity
  8
0
100
AcDbLine
 62
7
  6
BYLAYER
 10
24.6509090472
 20
9.324893049
 11
24.6833757093
 21
8.8733124221
  0
LINE
  5
22F
100
AcDbEntity
  8
0
100
AcDbLine
 62
7
  6
BYLAYER
 10
25.6098874058
 20
51.1463768116
 11
25.6098874058
 21
52.9463768116
  0
LINE
  5
230
100
AcDbEntity
  8
0
100
AcDbLine
 62
7
  6
BYLAYER
 10
25.7598874058
 20
52.9463768116
 11
25.7598874058
 21
51.1463768116
  0
LINE
  5
231
100
AcDbEntity
  8
0
100
AcDbLine
 62
7
  6
BYLAYER
 10
29.5098874058
 20
5.2631339313
 11
29.5098874058
 21
4.7463768116
  0
LINE
  5
232
100
AcDbEntity
  8
0
100
AcDbLine
 62
7
  6
BYLAYER
 10
24.6509067067
 20
9.3248940484
 11
25.4804098051
 21
12.7277895137
  0
LINE
  5
233
100
AcDbEntity
  8
0
100
AcDbLine
 62
7
  6
BYLAYER
 10
30.2848874058
 20
7.2463768116
 11
30.2848874058
 21
8.7463768116
  0
LINE
  5
234
100
AcDbEntity
  8
0
100
AcDbLine
 62
7
  6
BYLAYER
 10
30.8848874058
 20
7.0510352558
 11
30.8848874058
 21
9.6917183674
  0
LINE
  5
235
100
AcDbEntity
  8
0
100
AcDbLine
 62
7
  6
BYLAYER
 10
35.8778747276
 20
6.4059036124
 11
35.8098874058
 21
6.6980982805
  0
LINE
  5
236
100
AcDbEntity
  8
0
100
AcDbLine
 62
7
  6
BYLAYER
 10
35.3098874175
 20
54.7463768116
 11
35.3098874175
 21
54.4463768116
  0
LINE
  5
237
100
AcDbEntity
  8
0
100
AcDbLine
 62
7
  6
BYLAYER
 10
35.8098874058
 20
54.2263659553
 11
35.8098874062
 21
15.5529901001
  0
LINE
  5
238
100
AcDbEntity
  8
0
100
AcDbLine
 62
7
  6
BYLAYER
 10
35.8098874064
 20
13.9397635233
 11
35.8098874058
 21
6.6980982805
  0
LINE
  5
239
100
AcDbEntity
  8
0
100
AcDbLine
 62
7
  6
BYLAYER
 10
36.5098874058
 20
6.9504947413
 11
36.5098874058
 21
53.5463768116
  0
LINE
  5
23A
100
AcDbEntity
  8
0
100
AcDbLine
 62
7
  6
BYLAYER
 10
36.4714680265
 20
53.8475917877
 11
36.5098874058
 21
53.5463768116
  0
LINE
  5
23B
100
AcDbEntity
  8
0
100
AcDbLine
 62
7
  6
BYLAYER
 10
25.7598874058
 20
51.1463768116
 11
17.4098874058
 21
51.1463768116
  0
LINE
  5
23C
100
AcDbEntity
  8
0
100
AcDbLine
 62
7
  6
BYLAYER
 10
17.4098874058
 20
52.9463768116
 11
21.2862806081
 21
52.9463768116
  0
LINE
  5
23D
100
AcDbEntity
  8
0
100
AcDbLine
 62
7
  6
BYLAYER
 10
21.7334942036
 20
52.9463768116
 11
25.7598874058
 21
52.9463768116
  0
LINE
  5
23E
100
AcDbEntity
  8
0
100
AcDbLine
 62
7
  6
BYLAYER
 10
11.5098874058
 20
54.4463768116
 11
35.3098874058
 21
54.4463768116
  0
LINE
  5
23F
100
AcDbEntity
  8
0
100
AcDbLine
 62
7
  6
BYLAYER
 10
35.3098875985
 20
54.7463768116
 11
11.5098873592
 21
54.7463768116
  0
ARC
  5
240
100
AcDbEntity
  8
0
100
AcDbCircle
 62
7
  6
BYLAYER
 10
21.4879060612
 20
-58.1884883074
 40
68.5275578893
100
AcDbArc
 50
82.1183651061
 51
86.6420030186
  0
ARC
  5
241
100
AcDbEntity
  8
0
100
AcDbCircle
 62
7
  6
BYLAYER
 10
-0.8677765018
 20
9.3112114017
 40
18.4081906458
100
AcDbArc
 50
0.5763404134
 51
2.8341263666
  0
ARC
  5
242
100
AcDbEntity
  8
0
100
AcDbCircle
 62
7
  6
BYLAYER
 10
7.0098874058
 20
6.9504947413
 40
0.5
100
AcDbArc
 50
180.0
 51
256.6720384104
  0
ARC
  5
243
100
AcDbEntity
  8
0
100
AcDbCircle
 62
7
  6
BYLAYER
 10
11.0269458567
 20
193.0503199552
 40
187.9929376183
100
AcDbArc
 50
277.5753023499
 51
277.7077406616
  0
ARC
  5
244
100
AcDbEntity
  8
0
100
AcDbCircle
 62
7
  6
BYLAYER
 10
21.5043186471
 20
74.7671429114
 40
68.3627699695
100
AcDbArc
 50
270.0046672321
 51
277.8868688045
  0
ARC
  5
245
100
AcDbEntity
  8
0
100
AcDbCircle
 62
7
  6
BYLAYER
 10
11.5098874058
 20
49.7463768116
 40
5.0
100
AcDbArc
 50
90.0000002671
 51
180.0001027548
  0
ARC
  5
246
100
AcDbEntity
  8
0
100
AcDbCircle
 62
7
  6
BYLAYER
 10
11.7104931392
 20
50.1239391848
 40
4.5349984443
100
AcDbArc
 50
154.7213984875
 51
172.9382618017
  0
ARC
  5
247
100
AcDbEntity
  8
0
100
AcDbCircle
 62
7
  6
BYLAYER
 10
11.5098874058
 20
14.7463768116
 40
4.375
100
AcDbArc
 50
190.6243314824
 51
169.3756685166
  0
CIRCLE
  5
248
100
AcDbEntity
  8
0
100
AcDbCircle
 62
7
  6
BYLAYER
 10
11.5098874058
 20
14.7463768116
 40
4.075
  0
CIRCLE
  5
249
100
AcDbEntity
  8
0
100
AcDbCircle
 62
7
  6
BYLAYER
 10
11.5098874058
 20
14.7463768116
 40
2.125
  0
ARC
  5
24A
100
AcDbEntity
  8
0
100
AcDbCircle
 62
7
  6
BYLAYER
 10
21.5057291638
 20
53.0954893847
 40
0.4384071467
100
AcDbArc
 50
199.884398531
 51
212.5021627686
  0
ARC
  5
24B
100
AcDbEntity
  8
0
100
AcDbCircle
 62
7
  6
BYLAYER
 10
21.5101902156
 20
-164.4697599699
 40
173.3721620733
100
AcDbArc
 50
88.9512686274
 51
91.0489314624
  0
ARC
  5
24C
100
AcDbEntity
  8
0
100
AcDbCircle
 62
7
  6
BYLAYER
 10
21.5487496792
 20
-58.3600423784
 40
68.699806538
100
AcDbArc
 50
93.3636708984
 51
97.8759609769
  0
ARC
  5
24D
100
AcDbEntity
  8
0
100
AcDbCircle
 62
7
  6
BYLAYER
 10
43.8875021746
 20
9.3112259363
 40
18.4081405312
100
AcDbArc
 50
177.1659146196
 51
179.4237075663
  0
ARC
  5
24E
100
AcDbEntity
  8
0
100
AcDbCircle
 62
7
  6
BYLAYER
 10
36.0098874058
 20
6.9504947413
 40
0.5
100
AcDbArc
 50
283.3279615896
 51
360.0
  0
ARC
  5
24F
100
AcDbEntity
  8
0
100
AcDbCircle
 62
7
  6
BYLAYER
 10
31.0826389503
 20
186.2659933819
 40
181.1478324461
100
AcDbArc
 50
262.2897451283
 51
262.4271883159
  0
ARC
  5
250
100
AcDbEntity
  8
0
100
AcDbCircle
 62
7
  6
BYLAYER
 10
21.5154561648
 20
74.7671427802
 40
68.3627698399
100
AcDbArc
 50
262.1131311803
 51
269.995332725
  0
ARC
  5
251
100
AcDbEntity
  8
0
100
AcDbCircle
 62
7
  6
BYLAYER
 10
21.5098874058
 20
68.1563768116
 40
63.4
100
AcDbArc
 50
271.9616823297
 51
283.32796159
  0
ARC
  5
252
100
AcDbEntity
  8
0
100
AcDbCircle
 62
7
  6
BYLAYER
 10
21.5098874058
 20
68.1563768116
 40
63.4
100
AcDbArc
 50
256.67203841
 51
268.0383176703
  0
ARC
  5
253
100
AcDbEntity
  8
0
100
AcDbCircle
 62
7
  6
BYLAYER
 10
21.5098874058
 20
68.1563768116
 40
63.1
100
AcDbArc
 50
256.9015825347
 51
283.0984174653
  0
ARC
  5
254
100
AcDbEntity
  8
0
100
AcDbCircle
 62
7
  6
BYLAYER
 10
31.5098874058
 20
14.7463768116
 40
4.375
100
AcDbArc
 50
10.6243314776
 51
349.3756685259
  0
CIRCLE
  5
255
100
AcDbEntity
  8
0
100
AcDbCircle
 62
7
  6
BYLAYER
 10
31.5098874058
 20
14.7463768116
 40
4.075
  0
CIRCLE
  5
256
100
AcDbEntity
  8
0
100
AcDbCircle
 62
7
  6
BYLAYER
 10
31.5098874058
 20
14.7463768116
 40
2.125
  0
ARC
  5
257
100
AcDbEntity
  8
0
100
AcDbCircle
 62
7
  6
BYLAYER
 10
35.3098874058
 20
53.5463768116
 40
1.2
100
AcDbArc
 50
14.5374484628
 51
89.9999954001
  0
ARC
  5
258
100
AcDbEntity
  8
0
100
AcDbCircle
 62
7
  6
BYLAYER
 10
21.5098874058
 20
53.1464140087
 40
0.3000268449
100
AcDbArc
 50
221.8156095642
 51
318.1843904358
  0
SPLINE
  5
259
100
AcDbEntity
  8
0
100
AcDbSpline
 62
7
  6
BYLAYER
 70
0
 71
3
 72
15
 73
11
 74
0
 42
0.0000001
 43
0.0000001
 44
0.0000000001
 40
0.0
 40
0.0
 40
0.0
 40
0.0
 40
0.1251258039
 40
0.2500356181
 40
0.3750169068
 40
0.500000919
 40
0.6249849745
 40
0.7499660537
 40
0.8748751775
 40
1.0
 40
1.0
 40
1.0
 40
1.0
 10
21.1359892184
 20
52.8599194396
 30
0.0
 10
21.1558599339
 20
52.8286421505
 30
0.0
 10
21.2035664095
 20
52.7708348316
 30
0.0
 10
21.2941895522
 20
52.7046835353
 30
0.0
 10
21.3985760987
 20
52.6634787149
 30
0.0
 10
21.5098990893
 20
52.6494734924
 30
0.0
 10
21.6212210534
 20
52.6634851751
 30
0.0
 10
21.7256056469
 20
52.7046941877
 30
0.0
 10
21.81622486
 20
52.7708501142
 30
0.0
 10
21.8639278658
 20
52.8286595534
 30
0.0
 10
21.8837969686
 20
52.8599375227
 30
0.0
  0
SPLINE
  5
25A
100
AcDbEntity
  8
0
100
AcDbSpline
 62
7
  6
BYLAYER
 70
0
 71
3
 72
9
 73
5
 74
0
 42
0.0000001
 43
0.0000001
 44
0.0000000001
 40
0.0
 40
0.0
 40
0.0
 40
0.0
 40
0.2507545533
 40
1.0
 40
1.0
 40
1.0
 40
1.0
 10
21.8837969686
 20
52.8599375227
 30
0.0
 10
21.8881191756
 20
52.866741547
 30
0.0
 10
21.9046221554
 20
52.8943338377
 30
0.0
 10
21.9181370988
 20
52.9237224547
 30
0.0
 10
21.9263153005
 20
52.9463768116
 30
0.0
  0
SPLINE
  5
25B
100
AcDbEntity
  8
0
100
AcDbSpline
 62
7
  6
BYLAYER
 70
0
 71
3
 72
19
 73
15
 74
0
 42
0.0000001
 43
0.0000001
 44
0.0000000001
 40
0.0
 40
0.0
 40
0.0
 40
0.0
 40
0.0612269727
 40
0.1232440812
 40
0.1856761743
 40
0.2483521731
 40
0.3740749864
 40
0.4999998217
 40
0.6259247742
 40
0.7516478356
 40
0.8143240354
 40
0.8767563637
 40
0.9387732795
 40
1.0
 40
1.0
 40
1.0
 40
1.0
 10
23.3258128568
 20
8.7463768116
 30
0.0
 10
23.2516218687
 20
8.746376764
 30
0.0
 10
23.1022979804
 20
8.7509656194
 30
0.0
 10
22.8776365434
 20
8.7630142413
 30
0.0
 10
22.6513102713
 20
8.7768680861
 30
0.0
 10
22.3479096532
 20
8.7949461647
 30
0.0
 10
21.9674259059
 20
8.8130544135
 30
0.0
 10
21.5098879894
 20
8.8209731593
 30
0.0
 10
21.0523498187
 20
8.813053289
 30
0.0
 10
20.671865326
 20
8.7949462835
 30
0.0
 10
20.3684639087
 20
8.7768676758
 30
0.0
 10
20.1421373442
 20
8.7630136504
 30
0.0
 10
19.9174760707
 20
8.750967063
 30
0.0
 10
19.7681527659
 20
8.7463767651
 30
0.0
 10
19.6939620834
 20
8.7463768116
 30
0.0
  0
SPLINE
  5
25C
100
AcDbEntity
  8
0
100
AcDbSpline
 62
7
  6
BYLAYER
 70
0
 71
3
 72
15
 73
11
 74
0
 42
0.0000001
 43
0.0000001
 44
0.0000000001
 40
0.0
 40
0.0
 40
0.0
 40
0.0
 40
0.1254894639
 40
0.2509476247
 40
0.3763509231
 40
0.50162604
 40
0.62673217
 40
0.7515607102
 40
0.8760366798
 40
1.0
 40
1.0
 40
1.0
 40
1.0
 10
11.5098874058
 20
54.4463768334
 30
0.0
 10
11.3083030435
 20
54.4463765843
 30
0.0
 10
10.9046776067
 20
54.4197009715
 30
0.0
 10
10.310337257
 20
54.2997899374
 30
0.0
 10
9.7380019479
 20
54.1002214035
 30
0.0
 10
9.1988857865
 20
53.8243291134
 30
0.0
 10
8.7046931888
 20
53.4757675054
 30
0.0
 10
8.2658684481
 20
53.0613514563
 30
0.0
 10
7.893595693
 20
52.5886611884
 30
0.0
 10
7.6948703643
 20
52.2405014982
 30
0.0
 10
7.6097563557
 20
52.0604751865
 30
0.0
  0
SPLINE
  5
25D
100
AcDbEntity
  8
0
100
AcDbSpline
 62
7
  6
BYLAYER
 70
0
 71
3
 72
9
 73
5
 74
0
 42
0.0000001
 43
0.0000001
 44
0.0000000001
 40
0.0
 40
0.0
 40
0.0
 40
0.0
 40
0.4984166046
 40
1.0
 40
1.0
 40
1.0
 40
1.0
 10
35.6771985803
 20
54.3477557476
 30
0.0
 10
35.623773009
 20
54.3827252522
 30
0.0
 10
35.5028878278
 20
54.4329621801
 30
0.0
 10
35.3741457331
 20
54.4463749741
 30
0.0
 10
35.3098874058
 20
54.4463753109
 30
0.0
  0
SPLINE
  5
25E
100
AcDbEntity
  8
0
100
AcDbSpline
 62
7
  6
BYLAYER
 70
0
 71
3
 72
9
 73
5
 74
0
 42
0.0000001
 43
0.0000001
 44
0.0000000001
 40
0.0
 40
0.0
 40
0.0
 40
0.0
 40
0.2485822846
 40
1.0
 40
1.0
 40
1.0
 40
1.0
 10
35.8098880349
 20
54.2263664766
 30
0.0
 10
35.8003613858
 20
54.2378623705
 30
0.0
 10
35.7607524236
 20
54.2829832746
 30
0.0
 10
35.7149611184
 20
54.3230407343
 30
0.0
 10
35.6771998505
 20
54.3477576881
 30
0.0
  0
SPLINE
  5
25F
100
AcDbEntity
  8
0
100
AcDbSpline
 62
7
  6
BYLAYER
 70
0
 71
3
 72
9
 73
5
 74
0
 42
0.0000001
 43
0.0000001
 44
0.0000000001
 40
0.0
 40
0.0
 40
0.0
 40
0.0
 40
0.5000047876
 40
1.0
 40
1.0
 40
1.0
 40
1.0
 10
7.2098874058
 20
15.5529901006
 30
0.0
 10
7.1672465049
 20
15.4231764594
 30
0.0
 10
7.101236476
 20
15.1567395867
 30
0.0
 10
7.0786474104
 20
14.8830117704
 30
0.0
 10
7.0786374056
 20
14.7463768089
 30
0.0
  0
SPLINE
  5
260
100
AcDbEntity
  8
0
100
AcDbSpline
 62
7
  6
BYLAYER
 70
0
 71
3
 72
12
 73
8
 74
0
 42
0.0000001
 43
0.0000001
 44
0.0000000001
 40
0.0
 40
0.0
 40
0.0
 40
0.0
 40
0.0787877615
 40
0.1741366948
 40
0.4084074232
 40
0.6892162108
 40
1.0
 40
1.0
 40
1.0
 40
1.0
 10
17.4617818554
 20
8.9046191004
 30
0.0
 10
17.4846809925
 20
8.9026027549
 30
0.0
 10
17.5353552241
 20
8.8988627551
 30
0.0
 10
17.6543170326
 20
8.8919525104
 30
0.0
 10
17.832280693
 20
8.8846305198
 30
0.0
 10
18.0731455043
 20
8.8777310915
 30
0.0
 10
18.2457286592
 20
8.8746245256
 30
0.0
 10
18.3363961342
 20
8.8733290559
 30
0.0
  0
SPLINE
  5
261
100
AcDbEntity
  8
0
100
AcDbSpline
 62
7
  6
BYLAYER
 70
0
 71
3
 72
15
 73
11
 74
0
 42
0.0000001
 43
0.0000001
 44
0.0000000001
 40
0.0
 40
0.0
 40
0.0
 40
0.0
 40
0.0264280515
 40
0.0494274245
 40
0.0798467612
 40
0.1634869123
 40
0.2772629374
 40
0.419888092
 40
0.5897735698
 40
1.0
 40
1.0
 40
1.0
 40
1.0
 10
18.3175365677
 20
8.7463768116
 30
0.0
 10
18.3186795784
 20
8.7463767956
 30
0.0
 10
18.3203201948
 20
8.7484434151
 30
0.0
 10
18.3217026759
 20
8.7514305917
 30
0.0
 10
18.3236834929
 20
8.7571100691
 30
0.0
 10
18.3258583635
 20
8.7666839068
 30
0.0
 10
18.3283013089
 20
8.7812124884
 30
0.0
 10
18.3306144391
 20
8.7994994633
 30
0.0
 10
18.3337016813
 20
8.8306107442
 30
0.0
 10
18.3353944042
 20
8.8556484823
 30
0.0
 10
18.3363897919
 20
8.8733627922
 30
0.0
  0
SPLINE
  5
262
100
AcDbEntity
  8
0
100
AcDbSpline
 62
7
  6
BYLAYER
 70
0
 71
3
 72
11
 73
7
 74
0
 42
0.0000001
 43
0.0000001
 44
0.0000000001
 40
0.0
 40
0.0
 40
0.0
 40
0.0
 40
0.2499165772
 40
0.5001052136
 40
0.7501770314
 40
1.0
 40
1.0
 40
1.0
 40
1.0
 10
17.1721487847
 20
8.7463768116
 30
0.0
 10
17.2007912797
 20
8.7463768116
 30
0.0
 10
17.2583295014
 20
8.753587831
 30
0.0
 10
17.3393701381
 20
8.7847329745
 30
0.0
 10
17.410132478
 20
8.8351172332
 30
0.0
 10
17.4470642789
 20
8.8800595268
 30
0.0
 10
17.461812352
 20
8.9046007655
 30
0.0
  0
SPLINE
  5
263
100
AcDbEntity
  8
0
100
AcDbSpline
 62
7
  6
BYLAYER
 70
0
 71
3
 72
9
 73
5
 74
0
 42
0.0000001
 43
0.0000001
 44
0.0000000001
 40
0.0
 40
0.0
 40
0.0
 40
0.0
 40
0.4999952154
 40
1.0
 40
1.0
 40
1.0
 40
1.0
 10
35.9411374061
 20
14.7463768118
 30
0.0
 10
35.9411274425
 20
14.8830117746
 30
0.0
 10
35.9185385657
 20
15.1567396594
 30
0.0
 10
35.8525279494
 20
15.4231763424
 30
0.0
 10
35.8098874058
 20
15.5529901006
 30
0.0
  0
SPLINE
  5
264
100
AcDbEntity
  8
0
100
AcDbSpline
 62
7
  6
BYLAYER
 70
0
 71
3
 72
9
 73
5
 74
0
 42
0.0000001
 43
0.0000001
 44
0.0000000001
 40
0.0
 40
0.0
 40
0.0
 40
0.0
 40
0.4999997977
 40
1.0
 40
1.0
 40
1.0
 40
1.0
 10
17.7827490812
 20
9.4963768116
 30
0.0
 10
17.777123783
 20
9.4702239634
 30
0.0
 10
17.7662883857
 20
9.4178306567
 30
0.0
 10
17.7552469292
 20
9.3654783233
 30
0.0
 10
17.7500853116
 20
9.3392300032
 30
0.0
  0
SPLINE
  5
265
100
AcDbEntity
  8
0
100
AcDbSpline
 62
7
  6
BYLAYER
 70
0
 71
3
 72
11
 73
7
 74
0
 42
0.0000001
 43
0.0000001
 44
0.0000000001
 40
0.0
 40
0.0
 40
0.0
 40
0.0
 40
0.2071036898
 40
0.4492476287
 40
0.7168570674
 40
1.0
 40
1.0
 40
1.0
 40
1.0
 10
17.7501418914
 20
9.3392188771
 30
0.0
 10
17.7928413751
 20
9.3377173913
 30
0.0
 10
17.8855021906
 20
9.3356489874
 30
0.0
 10
18.0333379842
 20
9.3317377977
 30
0.0
 10
18.1968675832
 20
9.3277858542
 30
0.0
 10
18.310473555
 20
9.3258901019
 30
0.0
 10
18.3688780358
 20
9.3248977208
 30
0.0
  0
SPLINE
  5
266
100
AcDbEntity
  8
0
100
AcDbSpline
 62
7
  6
BYLAYER
 70
0
 71
3
 72
9
 73
5
 74
0
 42
0.0000001
 43
0.0000001
 44
0.0000000001
 40
0.0
 40
0.0
 40
0.0
 40
0.0
 40
0.500005138
 40
1.0
 40
1.0
 40
1.0
 40
1.0
 10
35.8098874058
 20
13.9397635229
 30
0.0
 10
35.8525347879
 20
14.0695748339
 30
0.0
 10
35.918512421
 20
14.3360186705
 30
0.0
 10
35.9411301476
 20
14.6097422326
 30
0.0
 10
35.9411374061
 20
14.7463768118
 30
0.0
  0
SPLINE
  5
267
100
AcDbEntity
  8
0
100
AcDbSpline
 62
7
  6
BYLAYER
 70
0
 71
3
 72
23
 73
19
 74
0
 42
0.0000001
 43
0.0000001
 44
0.0000000001
 40
0.0
 40
0.0
 40
0.0
 40
0.0
 40
0.0311110879
 40
0.0622969192
 40
0.1247605786
 40
0.1872732074
 40
0.2498057589
 40
0.3123483925
 40
0.3748965132
 40
0.4999998799
 40
0.6251032726
 40
0.6876514123
 40
0.7501940543
 40
0.8127266093
 40
0.875239231
 40
0.9377028467
 40
0.9688886337
 40
1.0
 40
1.0
 40
1.0
 40
1.0
 10
18.3688780363
 20
9.3248977208
 30
0.0
 10
18.4338750428
 20
9.3203046503
 30
0.0
 10
18.5642657111
 20
9.3145622683
 30
0.0
 10
18.8255384388
 20
9.310158123
 30
0.0
 10
19.1526281223
 20
9.3131422419
 30
0.0
 10
19.5452639942
 20
9.320907776
 30
0.0
 10
19.9380461416
 20
9.3299418759
 30
0.0
 10
20.3309138764
 20
9.3383854334
 30
0.0
 10
20.8548502351
 20
9.3471708578
 30
0.0
 10
21.5098915671
 20
9.3512970232
 30
0.0
 10
22.1649329514
 20
9.3471712316
 30
0.0
 10
22.688869401
 20
9.3383845734
 30
0.0
 10
23.0817372152
 20
9.3299418736
 30
0.0
 10
23.4745193732
 20
9.3209073253
 30
0.0
 10
23.8671551302
 20
9.3131428025
 30
0.0
 10
24.1942446924
 20
9.3101571032
 30
0.0
 10
24.455517658
 20
9.3145647908
 30
0.0
 10
24.5859091278
 20
9.3203008045
 30
0.0
 10
24.6509067067
 20
9.3248940484
 30
0.0
  0
SPLINE
  5
268
100
AcDbEntity
  8
0
100
AcDbSpline
 62
7
  6
BYLAYER
 70
0
 71
3
 72
10
 73
6
 74
0
 42
0.0000001
 43
0.0000001
 44
0.0000000001
 40
0.0
 40
0.0
 40
0.0
 40
0.0
 40
0.2506874804
 40
0.5005222915
 40
1.0
 40
1.0
 40
1.0
 40
1.0
 10
25.480858175
 20
12.7278323882
 30
0.0
 10
25.500147452
 20
12.5191508545
 30
0.0
 10
25.5246859864
 20
12.1011537253
 30
0.0
 10
25.5330542351
 20
11.2650247664
 30
0.0
 10
25.5118972127
 20
10.6388332622
 30
0.0
 10
25.5018964487
 20
10.2213968568
 30
0.0
  0
SPLINE
  5
269
100
AcDbEntity
  8
0
100
AcDbSpline
 62
7
  6
BYLAYER
 70
0
 71
3
 72
39
 73
35
 74
0
 42
0.0000001
 43
0.0000001
 44
0.0000000001
 40
0.0
 40
0.0
 40
0.0
 40
0.0
 40
0.0624888361
 40
0.0937442994
 40
0.1250003969
 40
0.1562547882
 40
0.1875109927
 40
0.2187659802
 40
0.2500212735
 40
0.281276375
 40
0.3125305656
 40
0.343783724
 40
0.3750346443
 40
0.4062813264
 40
0.4375205438
 40
0.4687455367
 40
0.4843734951
 40
0.5000002329
 40
0.5156270744
 40
0.5312551767
 40
0.5624802104
 40
0.5937194394
 40
0.6249661312
 40
0.6562170438
 40
0.6874701784
 40
0.7187243582
 40
0.7499796099
 40
0.781235021
 40
0.8124898881
 40
0.843745935
 40
0.8750001402
 40
0.906255991
 40
0.9375112377
 40
1.0
 40
1.0
 40
1.0
 40
1.0
 10
17.5393717601
 20
12.7278344404
 30
0.0
 10
17.566648775
 20
13.0219996387
 30
0.0
 10
17.6287511032
 20
13.4620387264
 30
0.0
 10
17.7656875763
 20
14.0372687458
 30
0.0
 10
17.8970456862
 20
14.4610383567
 30
0.0
 10
18.0577961541
 20
14.8745515847
 30
0.0
 10
18.2464106042
 20
15.2760700036
 30
0.0
 10
18.4599967555
 20
15.6648444734
 30
0.0
 10
18.6973343941
 20
16.0395918519
 30
0.0
 10
18.9580122788
 20
16.3985208768
 30
0.0
 10
19.2424023983
 20
16.7390283776
 30
0.0
 10
19.5515331174
 20
17.0573577848
 30
0.0
 10
19.887021929
 20
17.3479790192
 30
0.0
 10
20.2508286453
 20
17.6027166392
 30
0.0
 10
20.6442465289
 20
17.8094735276
 30
0.0
 10
20.9965723987
 20
17.9272109701
 30
0.0
 10
21.2881479875
 20
17.9776004078
 30
0.0
 10
21.5099133119
 20
17.9906916159
 30
0.0
 10
21.7316789097
 20
17.9775941511
 30
0.0
 10
22.0232546972
 20
17.9271979289
 30
0.0
 10
22.3755786166
 20
17.809451799
 30
0.0
 10
22.7689927949
 20
17.6026875166
 30
0.0
 10
23.1327958737
 20
17.3479446602
 30
0.0
 10
23.4682810607
 20
17.0573194633
 30
0.0
 10
23.7774089431
 20
16.7389876303
 30
0.0
 10
24.0617973046
 20
16.3984779851
 30
0.0
 10
24.3224726691
 20
16.0395454198
 30
0.0
 10
24.5598040908
 20
15.6647936592
 30
0.0
 10
24.7733965553
 20
15.2760230543
 30
0.0
 10
24.9619880171
 20
14.8744965536
 30
0.0
 10
25.1227545744
 20
14.4609928033
 30
0.0
 10
25.2540978478
 20
14.0372212928
 30
0.0
 10
25.3910318632
 20
13.4619937973
 30
0.0
 10
25.4531339753
 20
13.0219559011
 30
0.0
 10
25.480410231
 20
12.727790983
 30
0.0
  0
SPLINE
  5
26A
100
AcDbEntity
  8
0
100
AcDbSpline
 62
7
  6
BYLAYER
 70
0
 71
3
 72
10
 73
6
 74
0
 42
0.0000001
 43
0.0000001
 44
0.0000000001
 40
0.0
 40
0.0
 40
0.0
 40
0.0
 40
0.4994776546
 40
0.7493124584
 40
1.0
 40
1.0
 40
1.0
 40
1.0
 10
17.5178783632
 20
10.2213968568
 30
0.0
 10
17.5078774253
 20
10.6388405276
 30
0.0
 10
17.4867199274
 20
11.2650429546
 30
0.0
 10
17.4950896708
 20
12.1011865577
 30
0.0
 10
17.5196300888
 20
12.5191909882
 30
0.0
 10
17.5389206842
 20
12.7278761373
 30
0.0
  0
SPLINE
  5
26B
100
AcDbEntity
  8
0
100
AcDbSpline
 62
7
  6
BYLAYER
 70
0
 71
3
 72
11
 73
7
 74
0
 42
0.0000001
 43
0.0000001
 44
0.0000000001
 40
0.0
 40
0.0
 40
0.0
 40
0.0
 40
0.28313955
 40
0.5507547587
 40
0.7928992781
 40
1.0
 40
1.0
 40
1.0
 40
1.0
 10
24.6509067067
 20
9.3248940485
 30
0.0
 10
24.7093074713
 20
9.3259323024
 30
0.0
 10
24.8229091045
 20
9.3278496152
 30
0.0
 10
24.9864345435
 20
9.3317378469
 30
0.0
 10
25.1342661296
 20
9.3356234778
 30
0.0
 10
25.2269217874
 20
9.3377337155
 30
0.0
 10
25.2696190141
 20
9.3392357446
 30
0.0
  0
SPLINE
  5
26C
100
AcDbEntity
  8
0
100
AcDbSpline
 62
7
  6
BYLAYER
 70
0
 71
3
 72
9
 73
5
 74
0
 42
0.0000001
 43
0.0000001
 44
0.0000000001
 40
0.0
 40
0.0
 40
0.0
 40
0.0
 40
0.5000002133
 40
1.0
 40
1.0
 40
1.0
 40
1.0
 10
25.269676345
 20
9.339247019
 30
0.0
 10
25.2645151126
 20
9.3654921343
 30
0.0
 10
25.2534882567
 20
9.4178408889
 30
0.0
 10
25.2426503478
 20
9.4702271107
 30
0.0
 10
25.2370257305
 20
9.4963768116
 30
0.0
  0
SPLINE
  5
26D
100
AcDbEntity
  8
0
100
AcDbSpline
 62
7
  6
BYLAYER
 70
0
 71
3
 72
9
 73
5
 74
0
 42
0.0000001
 43
0.0000001
 44
0.0000000001
 40
0.0
 40
0.0
 40
0.0
 40
0.0
 40
0.4999828148
 40
1.0
 40
1.0
 40
1.0
 40
1.0
 10
25.269676345
 20
9.339247019
 30
0.0
 10
25.3220684726
 20
9.2698500946
 30
0.0
 10
25.4212855814
 20
9.1268331853
 30
0.0
 10
25.5131591307
 20
8.9791285797
 30
0.0
 10
25.5579628066
 20
8.9045998045
 30
0.0
  0
SPLINE
  5
26E
100
AcDbEntity
  8
0
100
AcDbSpline
 62
7
  6
BYLAYER
 70
0
 71
3
 72
14
 73
10
 74
0
 42
0.0000001
 43
0.0000001
 44
0.0000000001
 40
0.0
 40
0.0
 40
0.0
 40
0.0
 40
0.0924776434
 40
0.1935929183
 40
0.3067070856
 40
0.4323275761
 40
0.568917191
 40
0.7124788483
 40
1.0
 40
1.0
 40
1.0
 40
1.0
 10
36.125149727
 20
6.4639614975
 30
0.0
 10
36.1353666825
 20
6.4663819488
 30
0.0
 10
36.1560975606
 20
6.4746670212
 30
0.0
 10
36.1839556338
 20
6.4962316178
 30
0.0
 10
36.2077045513
 20
6.5270845514
 30
0.0
 10
36.2264541492
 20
6.5656265592
 30
0.0
 10
36.2390170929
 20
6.6101630944
 30
0.0
 10
36.2477298094
 20
6.6741687721
 30
0.0
 10
36.2453258953
 20
6.723584941
 30
0.0
 10
36.2405710297
 20
6.7558814501
 30
0.0
  0
SPLINE
  5
26F
100
AcDbEntity
  8
0
100
AcDbSpline
 62
7
  6
BYLAYER
 70
0
 71
3
 72
12
 73
8
 74
0
 42
0.0000001
 43
0.0000001
 44
0.0000000001
 40
0.0
 40
0.0
 40
0.0
 40
0.0
 40
0.310777955
 40
0.5915777737
 40
0.8258572983
 40
0.9212101116
 40
1.0
 40
1.0
 40
1.0
 40
1.0
 10
24.6833757093
 20
8.8733124221
 30
0.0
 10
24.7740403079
 20
8.8746027326
 30
0.0
 10
24.9466169812
 20
8.8777036597
 30
0.0
 10
25.1874759776
 20
8.8846265022
 30
0.0
 10
25.3654387561
 20
8.8919358547
 30
0.0
 10
25.4844031686
 20
8.8988482833
 30
0.0
 10
25.5350782327
 20
8.9025913134
 30
0.0
 10
25.5579775847
 20
8.9046086885
 30
0.0
  0
SPLINE
  5
270
100
AcDbEntity
  8
0
100
AcDbSpline
 62
7
  6
BYLAYER
 70
0
 71
3
 72
11
 73
7
 74
0
 42
0.0000001
 43
0.0000001
 44
0.0000000001
 40
0.0
 40
0.0
 40
0.0
 40
0.0
 40
0.2498798087
 40
0.5000103819
 40
0.7501392247
 40
1.0
 40
1.0
 40
1.0
 40
1.0
 10
25.8476296907
 20
8.7463768116
 30
0.0
 10
25.8189906011
 20
8.7463768116
 30
0.0
 10
25.761460925
 20
8.7535728167
 30
0.0
 10
25.680416303
 20
8.7847071428
 30
0.0
 10
25.609652499
 20
8.8351021934
 30
0.0
 10
25.5727134018
 20
8.8800540828
 30
0.0
 10
25.5579628066
 20
8.9045998045
 30
0.0
  0
SPLINE
  5
271
100
AcDbEntity
  8
0
100
AcDbSpline
 62
7
  6
BYLAYER
 70
0
 71
3
 72
13
 73
9
 74
0
 42
0.0000001
 43
0.0000001
 44
0.0000000001
 40
0.0
 40
0.0
 40
0.0
 40
0.0
 40
0.2457911968
 40
0.370193256
 40
0.4952769574
 40
0.6209518585
 40
0.7470757027
 40
1.0
 40
1.0
 40
1.0
 40
1.0
 10
23.6801408473
 20
4.7935328098
 30
0.0
 10
23.5008078985
 20
4.7873904411
 30
0.0
 10
23.2300107437
 20
4.7974598838
 30
0.0
 10
22.8701449214
 20
4.8322357974
 30
0.0
 10
22.5984028514
 20
4.8668443397
 30
0.0
 10
22.3263689073
 20
4.9081630061
 30
0.0
 10
21.9630711128
 20
4.9697698208
 30
0.0
 10
21.6911653055
 20
5.0212724973
 30
0.0
 10
21.5098874058
 20
5.0563768116
 30
0.0
  0
SPLINE
  5
272
100
AcDbEntity
  8
0
100
AcDbSpline
 62
7
  6
BYLAYER
 70
0
 71
3
 72
15
 73
11
 74
0
 42
0.0000001
 43
0.0000001
 44
0.0000000001
 40
0.0
 40
0.0
 40
0.0
 40
0.0
 40
0.026402596
 40
0.0494015578
 40
0.0798205434
 40
0.1634530504
 40
0.277218717
 40
0.4198420729
 40
0.5897379552
 40
1.0
 40
1.0
 40
1.0
 40
1.0
 10
24.7021910387
 20
8.7463768116
 30
0.0
 10
24.7010492302
 20
8.7463767951
 30
0.0
 10
24.6994120499
 20
8.7484451536
 30
0.0
 10
24.69803012
 20
8.7514302983
 30
0.0
 10
24.6960511355
 20
8.7571098999
 30
0.0
 10
24.6938841972
 20
8.7666838057
 30
0.0
 10
24.6914595931
 20
8.7812133516
 30
0.0
 10
24.6891624643
 20
8.7995004408
 30
0.0
 10
24.6860795193
 20
8.8306111472
 30
0.0
 10
24.6843782308
 20
8.8556480815
 30
0.0
 10
24.683384967
 20
8.8733624768
 30
0.0
  0
SPLINE
  5
273
100
AcDbEntity
  8
0
100
AcDbSpline
 62
7
  6
BYLAYER
 70
0
 71
3
 72
14
 73
10
 74
0
 42
0.0000001
 43
0.0000001
 44
0.0000000001
 40
0.0
 40
0.0
 40
0.0
 40
0.0
 40
0.088543701
 40
0.1817367874
 40
0.2837861325
 40
0.3981309633
 40
0.5270936711
 40
0.6708461588
 40
1.0
 40
1.0
 40
1.0
 40
1.0
 10
6.5098874059
 20
6.9504934821
 30
0.0
 10
6.5098911696
 20
6.9399133223
 30
0.0
 10
6.5129527625
 20
6.9180927241
 30
0.0
 10
6.526498416
 20
6.8866330603
 30
0.0
 10
6.5488163443
 20
6.8567629956
 30
0.0
 10
6.5797363526
 20
6.8290981132
 30
0.0
 10
6.6189607303
 20
6.8042536501
 30
0.0
 10
6.6845926657
 20
6.7744566116
 30
0.0
 10
6.7402274261
 20
6.7611591165
 30
0.0
 10
6.7792024107
 20
6.7558801381
 30
0.0
  0
SPLINE
  5
274
100
AcDbEntity
  8
0
100
AcDbSpline
 62
7
  6
BYLAYER
 70
0
 71
3
 72
14
 73
10
 74
0
 42
0.0000001
 43
0.0000001
 44
0.0000000001
 40
0.0
 40
0.0
 40
0.0
 40
0.0
 40
0.0902796516
 40
0.1894059808
 40
0.300840238
 40
0.4253862458
 40
0.5619475959
 40
0.7066836357
 40
1.0
 40
1.0
 40
1.0
 40
1.0
 10
6.8946250847
 20
6.4639614975
 30
0.0
 10
6.884650994
 20
6.4663244128
 30
0.0
 10
6.864350513
 20
6.4743434549
 30
0.0
 10
6.8368542773
 20
6.4952573799
 30
0.0
 10
6.8131121578
 20
6.5254241425
 30
0.0
 10
6.794128221
 20
6.5635019233
 30
0.0
 10
6.7812085445
 20
6.6079494884
 30
0.0
 10
6.7720000284
 20
6.6726886076
 30
0.0
 10
6.7743530925
 20
6.7229340727
 30
0.0
 10
6.779203781
 20
6.7558814438
 30
0.0
  0
SPLINE
  5
275
100
AcDbEntity
  8
0
100
AcDbSpline
 62
7
  6
BYLAYER
 70
0
 71
3
 72
14
 73
10
 74
0
 42
0.0000001
 43
0.0000001
 44
0.0000000001
 40
0.0
 40
0.0
 40
0.0
 40
0.0
 40
0.3291503044
 40
0.4729068251
 40
0.6018715494
 40
0.7162135604
 40
0.818258693
 40
0.9114508875
 40
1.0
 40
1.0
 40
1.0
 40
1.0
 10
36.2405712375
 20
6.7558797588
 30
0.0
 10
36.2795459137
 20
6.7611584087
 30
0.0
 10
36.3351806803
 20
6.7744566946
 30
0.0
 10
36.4008130538
 20
6.8042536782
 30
0.0
 10
36.4400382198
 20
6.8290977533
 30
0.0
 10
36.4709582474
 20
6.8567618737
 30
0.0
 10
36.4932754617
 20
6.8866314405
 30
0.0
 10
36.5068204964
 20
6.9180914695
 30
0.0
 10
36.5098826527
 20
6.9399123738
 30
0.0
 10
36.5098874058
 20
6.9504931995
 30
0.0
  0
SPLINE
  5
276
100
AcDbEntity
  8
0
100
AcDbSpline
 62
7
  6
BYLAYER
 70
0
 71
3
 72
13
 73
9
 74
0
 42
0.0000001
 43
0.0000001
 44
0.0000000001
 40
0.0
 40
0.0
 40
0.0
 40
0.0
 40
0.2457905761
 40
0.3701925238
 40
0.4952762519
 40
0.6209509844
 40
0.7470749015
 40
1.0
 40
1.0
 40
1.0
 40
1.0
 10
19.3396339644
 20
4.7935328098
 30
0.0
 10
19.5189661715
 20
4.7873904665
 30
0.0
 10
19.7897609253
 20
4.7975171217
 30
0.0
 10
20.1496257969
 20
4.8322785263
 30
0.0
 10
20.4213722976
 20
4.8668474717
 30
0.0
 10
20.6934110699
 20
4.9081320471
 30
0.0
 10
21.0567084531
 20
4.9697423373
 30
0.0
 10
21.3286092238
 20
5.0212724426
 30
0.0
 10
21.5098874058
 20
5.0563768116
 30
0.0
  0
SPLINE
  5
277
100
AcDbEntity
  8
0
100
AcDbSpline
 62
7
  6
BYLAYER
 70
0
 71
3
 72
18
 73
14
 74
0
 42
0.0000001
 43
0.0000001
 44
0.0000000001
 40
0.0
 40
0.0
 40
0.0
 40
0.0
 40
0.0258935438
 40
0.060004867
 40
0.1022474971
 40
0.1515818461
 40
0.2069005209
 40
0.2671749603
 40
0.3990734178
 40
0.5416608134
 40
0.691076064
 40
0.8445757122
 40
1.0
 40
1.0
 40
1.0
 40
1.0
 10
6.5098874058
 20
49.7463589495
 30
0.0
 10
6.5098874325
 20
49.7564944076
 30
0.0
 10
6.5151724344
 20
49.7798253398
 30
0.0
 10
6.5311854521
 20
49.8165148156
 30
0.0
 10
6.5551742159
 20
49.8595569133
 30
0.0
 10
6.5861750725
 20
49.9079953303
 30
0.0
 10
6.6230280569
 20
49.961015952
 30
0.0
 10
6.6803301588
 20
50.0391336313
 30
0.0
 10
6.7606801632
 20
50.1426663343
 30
0.0
 10
6.8648602652
 20
50.2718146691
 30
0.0
 10
6.9760178836
 20
50.4061811924
 30
0.0
 10
7.0915810498
 20
50.5434132886
 30
0.0
 10
7.1702334532
 20
50.6352612431
 30
0.0
 10
7.2098874058
 20
50.6813996818
 30
0.0
  0
SPLINE
  5
278
100
AcDbEntity
  8
0
100
AcDbSpline
 62
7
  6
BYLAYER
 70
0
 71
3
 72
20
 73
16
 74
0
 42
0.0000001
 43
0.0000001
 44
0.0000000001
 40
0.0
 40
0.0
 40
0.0
 40
0.0
 40
0.0087416543
 40
0.0150951829
 40
0.0232724122
 40
0.0458732453
 40
0.0776890729
 40
0.1193086966
 40
0.1704376456
 40
0.2305367467
 40
0.2990455166
 40
0.4576990701
 40
0.6352555217
 40
0.81957317
 40
1.0
 40
1.0
 40
1.0
 40
1.0
 10
6.6240621277
 20
50.8087849862
 30
0.0
 10
6.6236874265
 20
50.807061361
 30
0.0
 10
6.6249882004
 20
50.8038269683
 30
0.0
 10
6.6282646458
 20
50.8005364418
 30
0.0
 10
6.6342866003
 20
50.7959939322
 30
0.0
 10
6.6455656654
 20
50.7902150184
 30
0.0
 10
6.6635728012
 20
50.7830263453
 30
0.0
 10
6.6874811733
 20
50.7752271619
 30
0.0
 10
6.7171591479
 20
50.7668213913
 30
0.0
 10
6.7523349751
 20
50.7579722667
 30
0.0
 10
6.808864696
 20
50.7451427304
 30
0.0
 10
6.8890157726
 20
50.7294162776
 30
0.0
 10
6.9925482937
 20
50.7116929618
 30
0.0
 10
7.1007766658
 20
50.6955068029
 30
0.0
 10
7.1737441987
 20
50.6858671642
 30
0.0
 10
7.2098755277
 20
50.6814005186
 30
0.0
  0
SPLINE
  5
279
100
AcDbEntity
  8
0
100
AcDbSpline
 62
7
  6
BYLAYER
 70
0
 71
3
 72
20
 73
16
 74
0
 42
0.0000001
 43
0.0000001
 44
0.0000000001
 40
0.0
 40
0.0
 40
0.0
 40
0.0
 40
0.0089424505
 40
0.0153559614
 40
0.0235734828
 40
0.0462159647
 40
0.0780426474
 40
0.1196546259
 40
0.1707644296
 40
0.2308370754
 40
0.29931501
 40
0.457901357
 40
0.6353892684
 40
0.8196395505
 40
1.0
 40
1.0
 40
1.0
 40
1.0
 10
7.2098874627
 20
52.297847024
 30
0.0
 10
7.2091729009
 20
52.2966427725
 30
0.0
 10
7.2092891891
 20
52.2939056508
 30
0.0
 10
7.210869219
 20
52.2906087868
 30
0.0
 10
7.2141463286
 20
52.2857330858
 30
0.0
 10
7.2209917427
 20
52.2786457392
 30
0.0
 10
7.2324460022
 20
52.2688780941
 30
0.0
 10
7.2481006377
 20
52.2572268306
 30
0.0
 10
7.267859884
 20
52.2437295755
 30
0.0
 10
7.2915656236
 20
52.2285731448
 30
0.0
 10
7.3300202348
 20
52.2052671876
 30
0.0
 10
7.3851771296
 20
52.1740841419
 30
0.0
 10
7.4570870372
 20
52.1357638255
 30
0.0
 10
7.5328556416
 20
52.097476927
 30
0.0
 10
7.5842620617
 20
52.0726279518
 30
0.0
 10
7.6097944906
 20
52.0605558439
 30
0.0
  0
SPLINE
  5
27A
100
AcDbEntity
  8
0
100
AcDbSpline
 62
7
  6
BYLAYER
 70
0
 71
3
 72
19
 73
15
 74
0
 42
0.0000001
 43
0.0000001
 44
0.0000000001
 40
0.0
 40
0.0
 40
0.0
 40
0.0
 40
0.0132751679
 40
0.030478712
 40
0.0545849877
 40
0.0872106879
 40
0.1292184744
 40
0.1804455483
 40
0.2404061795
 40
0.3085593412
 40
0.4658816081
 40
0.6413470058
 40
0.8228564869
 40
1.0
 40
1.0
 40
1.0
 40
1.0
 10
35.8098867004
 20
54.6372483521
 30
0.0
 10
35.8111960922
 20
54.6366481936
 30
0.0
 10
35.8137151932
 20
54.634158311
 30
0.0
 10
35.8152183163
 20
54.6282735137
 30
0.0
 10
35.8151537097
 20
54.6202207736
 30
0.0
 10
35.8133749281
 20
54.6096208882
 30
0.0
 10
35.8097918163
 20
54.596432373
 30
0.0
 10
35.8044017059
 20
54.5806988925
 30
0.0
 10
35.797222503
 20
54.5626070473
 30
0.0
 10
35.784708742
 20
54.5342706632
 30
0.0
 10
35.765231373
 20
54.4953472874
 30
0.0
 10
35.7382983221
 20
54.4464636337
 30
0.0
 10
35.7085956595
 20
54.396689821
 30
0.0
 10
35.6877252964
 20
54.3638390569
 30
0.0
 10
35.6771989361
 20
54.3477573977
 30
0.0
  0
SPLINE
  5
27B
100
AcDbEntity
  8
0
100
AcDbSpline
 62
7
  6
BYLAYER
 70
0
 71
3
 72
14
 73
10
 74
0
 42
0.0000001
 43
0.0000001
 44
0.0000000001
 40
0.0
 40
0.0
 40
0.0
 40
0.0
 40
0.1361376237
 40
0.2712984413
 40
0.4041943959
 40
0.5337868446
 40
0.6591948922
 40
0.7794534317
 40
1.0
 40
1.0
 40
1.0
 40
1.0
 10
35.8098874058
 20
54.2263659553
 30
0.0
 10
35.8372036655
 20
54.2091074105
 30
0.0
 10
35.8913444668
 20
54.1742410702
 30
0.0
 10
35.9706698668
 20
54.1202639618
 30
0.0
 10
36.0467393686
 20
54.0643536245
 30
0.0
 10
36.1186415356
 20
54.0068206402
 30
0.0
 10
36.1863186136
 20
53.9488967889
 30
0.0
 10
36.2684588884
 20
53.8747558925
 30
0.0
 10
36.326516538
 20
53.8183181517
 30
0.0
 10
36.3624160195
 20
53.7802224345
 30
0.0
  0
SPLINE
  5
27C
100
AcDbEntity
  8
0
100
AcDbSpline
 62
7
  6
BYLAYER
 70
0
 71
3
 72
12
 73
8
 74
0
 42
0.0000001
 43
0.0000001
 44
0.0000000001
 40
0.0
 40
0.0
 40
0.0
 40
0.0
 40
0.3255130829
 40
0.6025356546
 40
0.7205532817
 40
0.8251462426
 40
1.0
 40
1.0
 40
1.0
 40
1.0
 10
36.3624160195
 20
53.7802224345
 30
0.0
 10
36.383329338
 20
53.7580296942
 30
0.0
 10
36.4209820352
 20
53.7159274078
 30
0.0
 10
36.4620609899
 20
53.6622199923
 30
0.0
 10
36.4865825261
 20
53.6222428982
 30
0.0
 10
36.5028991872
 20
53.5888431864
 30
0.0
 10
36.5098874058
 20
53.5627570814
 30
0.0
 10
36.5098874058
 20
53.5463768116
 30
0.0
  0
SPLINE
  5
27D
100
AcDbEntity
  8
0
100
AcDbSpline
 62
7
  6
BYLAYER
 70
0
 71
3
 72
18
 73
14
 74
0
 42
0.0000001
 43
0.0000001
 44
0.0000000001
 40
0.0
 40
0.0
 40
0.0
 40
0.0
 40
0.0202756087
 40
0.0424304434
 40
0.0692551921
 40
0.1029359201
 40
0.1448897891
 40
0.195361787
 40
0.320784811
 40
0.474990509
 40
0.6473547281
 40
0.8258524025
 40
1.0
 40
1.0
 40
1.0
 40
1.0
 10
36.0207632607
 20
54.5131525767
 30
0.0
 10
36.0227957175
 20
54.5116580975
 30
0.0
 10
36.0264819261
 20
54.5076460929
 30
0.0
 10
36.0293521738
 20
54.4993166537
 30
0.0
 10
36.0294636804
 20
54.4889099403
 30
0.0
 10
36.0267693069
 20
54.4763787929
 30
0.0
 10
36.0211447579
 20
54.4616866944
 30
0.0
 10
36.0088616521
 20
54.4374869547
 30
0.0
 10
35.9859113078
 20
54.403267439
 30
0.0
 10
35.9501592672
 20
54.3598005147
 30
0.0
 10
35.9071011843
 20
54.3139699812
 30
0.0
 10
35.8597366848
 20
54.2689448904
 30
0.0
 10
35.826571432
 20
54.2401918161
 30
0.0
 10
35.809887585
 20
54.2263659265
 30
0.0
  0
SPLINE
  5
27E
100
AcDbEntity
  8
0
100
AcDbSpline
 62
7
  6
BYLAYER
 70
0
 71
3
 72
9
 73
5
 74
0
 42
0.0000001
 43
0.0000001
 44
0.0000000001
 40
0.0
 40
0.0
 40
0.0
 40
0.0
 40
0.4999817855
 40
1.0
 40
1.0
 40
1.0
 40
1.0
 10
17.7500853116
 20
9.3392300032
 30
0.0
 10
17.6976924797
 20
9.2698385187
 30
0.0
 10
17.5984826447
 20
9.1268252269
 30
0.0
 10
17.5066170008
 20
8.9791248028
 30
0.0
 10
17.461812352
 20
8.9046007655
 30
0.0
  0
SPLINE
  5
27F
100
AcDbEntity
  8
0
100
AcDbSpline
 62
7
  6
BYLAYER
 70
0
 71
3
 72
9
 73
5
 74
0
 42
0.0000001
 43
0.0000001
 44
0.0000000001
 40
0.0
 40
0.0
 40
0.0
 40
0.0
 40
0.499992657
 40
1.0
 40
1.0
 40
1.0
 40
1.0
 10
7.0786374056
 20
14.7463768089
 30
0.0
 10
7.0786476221
 20
14.6097428647
 30
0.0
 10
7.1012583116
 20
14.3360180645
 30
0.0
 10
7.1672495842
 20
14.0695785742
 30
0.0
 10
7.2098874058
 20
13.9397635224
 30
0.0
  0
ENDSEC
  0
SECTION
  2
OBJECTS
  0
DICTIONARY
  5
C
100
AcDbDictionary
280
0
281
1
  3
ACAD_GROUP
350
D
  3
ACAD_MLINESTYLE
350
17
  3
ACAD_LAYOUT
350
1A
  3
ACAD_PLOTSETTINGS
350
19
  3
ACAD_PLOTSTYLENAME
350
E
  0
DICTIONARY
  5
D
102
{ACAD_REACTORS
330
C
102
}
100
AcDbDictionary
280
0
281
1
  0
ACDBDICTIONARYWDFLT
  5
E
102
{ACAD_REACTORS
330
C
102
}
100
AcDbDictionary
281
1
  3
Normal
350
F
100
AcDbDictionaryWithDefault
340
F
  0
DICTIONARY
  5
17
102
{ACAD_REACTORS
330
C
102
}
100
AcDbDictionary
280
0
281
1
  3
Standard
350
18
  0
DICTIONARY
  5
19
102
{ACAD_REACTORS
330
C
102
}
100
AcDbDictionary
281
1
  0
DICTIONARY
  5
1A
102
{ACAD_REACTORS
330
C
102
}
100
AcDbDictionary
281
1
  3
Model
350
280
  3
Layout1
350
281
  0
ACDBPLACEHOLDER
  5
F
102
{ACAD_REACTORS
330
E
102
}
  0
MLINESTYLE
  5
18
102
{ACAD_REACTORS
330
17
102
}
100
AcDbMlineStyle
  2
STANDARD
 70
0
  3

 62
256
 51
90.0
 52
90.0
 71
2
 49
0.5
 62
256
  6
BYLAYER
 49
-0.5
 62
256
  6
BYLAYER
  0
LAYOUT
  5
280
102
{ACAD_REACTORS
330
1A
102
}
100
AcDbPlotSettings
  1

  2
none_device
  4

  6

 40
0.0
 41
0.0
 42
0.0
 43
0.0
 44
210.0
 45
297.0
 46
0.0
 47
0.0
 48
0.0
 49
0.0
140
0.0
141
0.0
142
1.0
143
1.0
 70
1024
 72
1
 73
0
 74
0
  7

 75
0
147
1.0
148
0.0
149
0.0
100
AcDbLayout
  1
Model
 70
0
 71
0
 10
0.0
 20
0.0
 11
210.0
 21
297.0
 12
0.0
 22
0.0
 32
0.0
 14
0.0
 24
0.0
 34
0.0
 15
0.0
 25
0.0
 35
0.0
146
0.0
 13
0.0
 23
0.0
 33
0.0
 16
1.0
 26
0.0
 36
0.0
 17
0.0
 27
1.0
 37
0.0
 76
0
330
210
345
0
346
0
  0
LAYOUT
  5
281
102
{ACAD_REACTORS
330
1A
102
}
100
AcDbPlotSettings
  1

  2
none_device
  4

  6

 40
0.0
 41
0.0
 42
0.0
 43
0.0
 44
210.0
 45
297.0
 46
0.0
 47
0.0
 48
0.0
 49
0.0
140
0.0
141
0.0
142
1.0
143
1.0
 70
0
 72
1
 73
0
 74
0
  7

 75
0
147
1.0
148
0.0
149
0.0
100
AcDbLayout
  1
Layout1
 70
0
 71
1
 10
0.0
 20
0.0
 11
210.0
 21
297.0
 12
0.0
 22
0.0
 32
0.0
 14
0.0
 24
0.0
 34
0.0
 15
0.0
 25
0.0
 35
0.0
146
0.0
 13
0.0
 23
0.0
 33
0.0
 16
1.0
 26
0.0
 36
0.0
 17
0.0
 27
1.0
 37
0.0
 76
0
330
211
345
0
346
0
  0
ENDSEC
  0
EOF
