999
DXF file: C:\Users\sesa63760\Dev\_Creo\CAD\MCADID0003982_3D-CAD\drw0001_6.dxf
999
Pro/ENGINEER 2019471 by Parametric Technology Corporation
  0
SECTION
  2
HEADER
  9
$ACADVER
  1
AC1024
  9
$DWGCODEPAGE
  3
ANSI_1252
  9
$EXTMAX
 10
77.1078398868
 20
109.0525164114
 30
0.0
  9
$EXTMIN
 10
0.0
 20
0.0
 30
0.0
  9
$LIMMIN
 10
0.0
 20
0.0
  9
$LIMMAX
 10
77.1078398868
 20
109.0525164114
  9
$VIEWCTR
 10
38.5539199434
 20
54.5262582057
  9
$VIEWSIZE
 40
109.0525164114
  9
$CLAYER
  8
0
  9
$LTSCALE
 40
7.1086084772
  9
$CELTYPE
  6
BYLAYER
  9
$DIMSCALE
 40
1.0
  9
$DIMASZ
 40
0.9179504748
  9
$DIMEXO
 40
1.0
  9
$DIMDLI
 40
4.9114022206
  9
$DIMEXE
 40
1.0
  9
$DIMCEN
 40
1.1632268417
  9
$DIMLFAC
 40
1.0
  9
$DIMBLK
  1
_FILLED
  9
$DIMALT
 70
0
  9
$DIMALTF
 40
0.0393700787
  9
$DIMTXT
 40
1.2851306648
  9
$DIMTOL
 70
1
  9
$DIMLIM
 70
0
  9
$DIMTFAC
 40
1.0
  9
$DIMTP
 40
0.01
  9
$DIMTM
 40
0.01
  9
$DIMGAP
 40
0.625
  9
$DIMDSEP
 70
46
  9
$AUNITS
 70
0
  9
$PDMODE
 70
3
  9
$PDSIZE
 40
0.3125
  9
$HANDSEED
  5
32E
  9
$TILEMODE
 70
1
  9
$MEASUREMENT
 70
1
  9
$INSUNITS
 70
4
  0
ENDSEC
  0
SECTION
  2
CLASSES
  0
CLASS
  1
ACDBDICTIONARYWDFLT
  2
AcDbDictionaryWithDefault
  3
AutoCAD 2000
 90
0
 91
1
280
0
281
0
  0
CLASS
  1
ACDBPLACEHOLDER
  2
AcDbPlaceHolder
  3
AutoCAD 2000
 90
0
 91
1
280
0
281
0
  0
CLASS
  1
LAYOUT
  2
AcDbLayout
  3
AutoCAD 2000
 90
0
 91
0
280
0
281
0
  0
ENDSEC
  0
SECTION
  2
TABLES
  0
TABLE
  2
VPORT
  5
8
100
AcDbSymbolTable
 70
2
  0
VPORT
  5
1F4
100
AcDbSymbolTableRecord
100
AcDbViewportTableRecord
  2
*ACTIVE
 70
0
 10
0.0
 20
0.0
 11
1.0
 21
1.0
 12
38.5539199434
 22
54.5262582057
 13
0.0
 23
0.0
 14
1.0
 24
1.0
 15
0.0
 25
0.0
 16
0.0
 26
0.0
 36
1.0
 17
0.0
 27
0.0
 37
0.0
 40
109.0525164114
 41
0.7070707071
 42
50.0
 43
0.0
 44
0.0
 50
0.0
 51
0.0
 71
0
 72
100
 73
1
 74
1
 75
0
 76
0
 77
0
 78
0
  0
ENDTAB
  0
TABLE
  2
LTYPE
  5
5
100
AcDbSymbolTable
 70
6
  0
LTYPE
  5
14
100
AcDbSymbolTableRecord
100
AcDbLinetypeTableRecord
  2
BYBLOCK
 70
0
  3

 72
65
 73
0
 40
0.0
  0
LTYPE
  5
15
100
AcDbSymbolTableRecord
100
AcDbLinetypeTableRecord
  2
BYLAYER
 70
0
  3

 72
65
 73
0
 40
0.0
  0
LTYPE
  5
16
100
AcDbSymbolTableRecord
100
AcDbLinetypeTableRecord
  2
CONTINUOUS
 70
64
  3
Solid line
 72
65
 73
0
 40
0.0
  0
LTYPE
  5
1F5
100
AcDbSymbolTableRecord
100
AcDbLinetypeTableRecord
  2
CENTER
 70
64
  3
____ _ ____ _ ____ _ ____ _ ____ _ ____ _ ____
 72
65
 73
4
 40
0.6
 49
0.375
 74
0
 49
-0.075
 74
0
 49
0.075
 74
0
 49
-0.075
 74
0
  0
LTYPE
  5
1F6
100
AcDbSymbolTableRecord
100
AcDbLinetypeTableRecord
  2
HIDDEN
 70
64
  3
- - - - - - - - - - - - - - - - - - - -
 72
65
 73
2
 40
0.2
 49
0.1
 74
0
 49
-0.1
 74
0
  0
LTYPE
  5
1F7
100
AcDbSymbolTableRecord
100
AcDbLinetypeTableRecord
  2
PHANTOM
 70
64
  3
_____ _ _ _____ _ _ _____ _ _ _____
 72
65
 73
6
 40
0.8
 49
0.45
 74
0
 49
-0.05
 74
0
 49
0.1
 74
0
 49
-0.05
 74
0
 49
0.1
 74
0
 49
-0.05
 74
0
  0
LTYPE
  5
1F8
100
AcDbSymbolTableRecord
100
AcDbLinetypeTableRecord
  2
DOT
 70
64
  3
. . . . . . . . . . . . . . . . . . . .
 72
65
 73
2
 40
0.2
 49
0.1
 74
0
 49
-0.1
 74
0
  0
LTYPE
  5
1F9
100
AcDbSymbolTableRecord
100
AcDbLinetypeTableRecord
  2
DASHED
 70
64
  3
- - - - - - - - - - - - - - - - - - - -
 72
65
 73
2
 40
0.2
 49
0.1
 74
0
 49
-0.1
 74
0
  0
ENDTAB
  0
TABLE
  2
LAYER
  5
2
100
AcDbSymbolTable
 70
36
  0
LAYER
  5
10
100
AcDbSymbolTableRecord
100
AcDbLayerTableRecord
  2
0
 70
0
 62
7
  6
CONTINUOUS
370
-3
390
F
  0
LAYER
  5
1FA
100
AcDbSymbolTableRecord
100
AcDbLayerTableRecord
  2
DEFAULT_1
 70
0
 62
7
  6
CENTER
370
-3
390
F
  0
LAYER
  5
1FB
100
AcDbSymbolTableRecord
100
AcDbLayerTableRecord
  2
DEFAULT_2
 70
0
 62
7
  6
HIDDEN
370
-3
390
F
  0
LAYER
  5
1FC
100
AcDbSymbolTableRecord
100
AcDbLayerTableRecord
  2
DEFAULT_3
 70
0
 62
7
  6
PHANTOM
370
-3
390
F
  0
LAYER
  5
1FD
100
AcDbSymbolTableRecord
100
AcDbLayerTableRecord
  2
00_COMPONENTS
 70
0
 62
7
  6
CONTINUOUS
370
-3
390
F
  0
LAYER
  5
1FE
100
AcDbSymbolTableRecord
100
AcDbLayerTableRecord
  2
01_1_DEFAULT_DATUMS
 70
0
 62
7
  6
CONTINUOUS
370
-3
390
F
  0
LAYER
  5
1FF
100
AcDbSymbolTableRecord
100
AcDbLayerTableRecord
  2
01_PLANES
 70
0
 62
7
  6
CONTINUOUS
370
-3
390
F
  0
LAYER
  5
200
100
AcDbSymbolTableRecord
100
AcDbLayerTableRecord
  2
02_COORD_SYS
 70
0
 62
7
  6
CONTINUOUS
370
-3
390
F
  0
LAYER
  5
201
100
AcDbSymbolTableRecord
100
AcDbLayerTableRecord
  2
03_AXES
 70
0
 62
7
  6
CONTINUOUS
370
-3
390
F
  0
LAYER
  5
202
100
AcDbSymbolTableRecord
100
AcDbLayerTableRecord
  2
04_POINTS
 70
0
 62
7
  6
CONTINUOUS
370
-3
390
F
  0
LAYER
  5
203
100
AcDbSymbolTableRecord
100
AcDbLayerTableRecord
  2
05_CURVES
 70
0
 62
7
  6
CONTINUOUS
370
-3
390
F
  0
LAYER
  5
204
100
AcDbSymbolTableRecord
100
AcDbLayerTableRecord
  2
06_SURFS
 70
0
 62
7
  6
CONTINUOUS
370
-3
390
F
  0
LAYER
  5
205
100
AcDbSymbolTableRecord
100
AcDbLayerTableRecord
  2
07_COSMETICS
 70
0
 62
7
  6
CONTINUOUS
370
-3
390
F
  0
LAYER
  5
206
100
AcDbSymbolTableRecord
100
AcDbLayerTableRecord
  2
10_NOTES
 70
0
 62
7
  6
CONTINUOUS
370
-3
390
F
  0
LAYER
  5
207
100
AcDbSymbolTableRecord
100
AcDbLayerTableRecord
  2
11_NOTES_PUB
 70
0
 62
7
  6
CONTINUOUS
370
-3
390
F
  0
LAYER
  5
208
100
AcDbSymbolTableRecord
100
AcDbLayerTableRecord
  2
13_REF_GTOL
 70
0
 62
7
  6
CONTINUOUS
370
-3
390
F
  0
LAYER
  5
209
100
AcDbSymbolTableRecord
100
AcDbLayerTableRecord
  2
16_MISC
 70
0
 62
7
  6
CONTINUOUS
370
-3
390
F
  0
LAYER
  5
20A
100
AcDbSymbolTableRecord
100
AcDbLayerTableRecord
  2
17_NO_PRINT
 70
0
 62
7
  6
CONTINUOUS
370
-3
390
F
  0
LAYER
  5
20B
100
AcDbSymbolTableRecord
100
AcDbLayerTableRecord
  2
18_DATUM_CAMS_JOINTS
 70
0
 62
7
  6
CONTINUOUS
370
-3
390
F
  0
LAYER
  5
20C
100
AcDbSymbolTableRecord
100
AcDbLayerTableRecord
  2
19_DATUM_FUNCTIONAL
 70
0
 62
7
  6
CONTINUOUS
370
-3
390
F
  0
LAYER
  5
20D
100
AcDbSymbolTableRecord
100
AcDbLayerTableRecord
  2
20_DATUM_KINEMATIC_SCHEME
 70
0
 62
7
  6
CONTINUOUS
370
-3
390
F
  0
ENDTAB
  0
TABLE
  2
STYLE
  5
3
100
AcDbSymbolTable
 70
1
  0
STYLE
  5
11
100
AcDbSymbolTableRecord
100
AcDbTextStyleTableRecord
  2
STANDARD
 70
0
 40
0.0
 41
1.0
 50
0.0
 71
0
 42
0.2
  3
ARIAL.TTF
  4

  0
STYLE
  5
20E
100
AcDbSymbolTableRecord
100
AcDbTextStyleTableRecord
  2
TEXTSTYLE_1
 70
0
 40
0.0
 41
0.8
 50
0.0
 71
0
 42
0.2
  3
gdt
  4

  0
ENDTAB
  0
TABLE
  2
VIEW
  5
6
100
AcDbSymbolTable
 70
0
  0
ENDTAB
  0
TABLE
  2
UCS
  5
7
100
AcDbSymbolTable
 70
0
  0
ENDTAB
  0
TABLE
  2
APPID
  5
9
100
AcDbSymbolTable
 70
1
  0
APPID
  5
20F
100
AcDbSymbolTableRecord
100
AcDbRegAppTableRecord
  2
ACAD
 70
0
  0
ENDTAB
  0
TABLE
  2
BLOCK_RECORD
  5
1
100
AcDbSymbolTable
 70
0
  0
BLOCK_RECORD
  5
210
100
AcDbSymbolTableRecord
100
AcDbBlockTableRecord
  2
*Model_Space
  0
BLOCK_RECORD
  5
211
100
AcDbSymbolTableRecord
100
AcDbBlockTableRecord
  2
*Paper_Space
  0
BLOCK_RECORD
  5
212
100
AcDbSymbolTableRecord
100
AcDbBlockTableRecord
  2
_FILLED
  0
ENDTAB
  0
TABLE
  2
DIMSTYLE
  5
A
100
AcDbSymbolTable
 70
1
100
AcDbDimStyleTable
 71
0
  0
DIMSTYLE
105
213
100
AcDbSymbolTableRecord
100
AcDbDimStyleTableRecord
  2
STANDARD
 70
0
  3

  4

 40
1.0
 41
0.9179504748
 42
1.0
 43
0.38
 44
1.0
 45
0.0
 46
0.0
 47
0.01
 48
0.01
140
1.2851306648
141
0.09
142
0.0
143
25.4
144
1.0
145
0.0
146
1.0
147
0.625
 71
1
 72
0
 73
0
 74
0
 75
0
 76
0
 77
1
 78
8
 79
2
170
0
171
1
172
0
173
0
174
0
175
0
176
0
177
0
178
0
270
2
179
2
271
2
272
2
273
2
274
2
275
0
280
0
281
0
282
0
283
1
284
8
285
0
286
0
287
3
288
0
340
11
278
46
341
212
342
212
343
212
344
212
  0
ENDTAB
  0
ENDSEC
  0
SECTION
  2
BLOCKS
  0
BLOCK
  5
20
100
AcDbEntity
  8
0
100
AcDbBlockBegin
  2
*Model_Space
 70
0
 10
0.0
 20
0.0
 30
0.0
  3
*Model_Space
  1

  0
ENDBLK
  5
21
100
AcDbEntity
  8
0
100
AcDbBlockEnd
  0
BLOCK
  5
1C
100
AcDbEntity
  8
0
100
AcDbBlockBegin
  2
*Paper_Space
 70
0
 10
0.0
 20
0.0
 30
0.0
  3
*Paper_Space
  1

  0
ENDBLK
  5
1D
100
AcDbEntity
  8
0
100
AcDbBlockEnd
  0
BLOCK
  5
214
100
AcDbEntity
  8
0
100
AcDbBlockBegin
  2
_FILLED
 70
64
 10
0.0
 20
0.0
  3
_FILLED
  1

  0
SOLID
  5
215
100
AcDbEntity
  8
0
  6
BYBLOCK
 62
0
100
AcDbTrace
 10
0.0
 20
0.0
 11
-1.0
 21
0.25
 12
-1.0
 22
-0.25
 13
-1.0
 23
-0.25
  0
ENDBLK
  5
216
100
AcDbEntity
  8
0
  6
BYBLOCK
 62
0
100
AcDbBlockEnd
  0
ENDSEC
  0
SECTION
  2
ENTITIES
  0
LINE
  5
217
100
AcDbEntity
  8
0
100
AcDbLine
 62
7
  6
BYLAYER
 10
8.7213160047
 20
49.3554064929
 11
8.7213160047
 21
59.6971099185
  0
LINE
  5
218
100
AcDbEntity
  8
0
100
AcDbLine
 62
7
  6
BYLAYER
 10
10.0213160047
 20
49.1262582057
 11
10.0213160047
 21
59.9262582057
  0
LINE
  5
219
100
AcDbEntity
  8
0
100
AcDbLine
 62
7
  6
BYLAYER
 10
10.2213160047
 20
59.9262307101
 11
10.2213160047
 21
49.1262497084
  0
LINE
  5
21A
100
AcDbEntity
  8
0
100
AcDbLine
 62
7
  6
BYLAYER
 10
10.6713160047
 20
59.8762582057
 11
10.6713160047
 21
49.1762582057
  0
LINE
  5
21B
100
AcDbEntity
  8
0
100
AcDbLine
 62
7
  6
BYLAYER
 10
11.3213160047
 20
48.5262582057
 11
11.3213160047
 21
60.5262582057
  0
LINE
  5
21C
100
AcDbEntity
  8
0
100
AcDbLine
 62
7
  6
BYLAYER
 10
10.6713160047
 20
59.8762582057
 11
11.3213160047
 21
60.5262582057
  0
LINE
  5
21D
100
AcDbEntity
  8
0
100
AcDbLine
 62
7
  6
BYLAYER
 10
10.6713160047
 20
49.1762582057
 11
11.3213160047
 21
48.5262582057
  0
LINE
  5
21E
100
AcDbEntity
  8
0
100
AcDbLine
 62
7
  6
BYLAYER
 10
16.8213160047
 20
60.5262582057
 11
16.8213160047
 21
48.5262582057
  0
LINE
  5
21F
100
AcDbEntity
  8
0
100
AcDbLine
 62
7
  6
BYLAYER
 10
17.4713160047
 20
49.1762582057
 11
17.4713160047
 21
59.8762582057
  0
LINE
  5
220
100
AcDbEntity
  8
0
100
AcDbLine
 62
7
  6
BYLAYER
 10
26.1543287066
 20
59.8762582057
 11
26.1543287066
 21
49.1762582057
  0
LINE
  5
221
100
AcDbEntity
  8
0
100
AcDbLine
 62
7
  6
BYLAYER
 10
26.6543287066
 20
49.3102328019
 11
26.6543287066
 21
59.7422836095
  0
LINE
  5
222
100
AcDbEntity
  8
0
100
AcDbLine
 62
7
  6
BYLAYER
 10
27.7213160047
 20
48.7263400121
 11
27.7213160047
 21
60.3261763993
  0
LINE
  5
223
100
AcDbEntity
  8
0
100
AcDbLine
 62
7
  6
BYLAYER
 10
27.9213160047
 20
48.5262582057
 11
27.9213160047
 21
60.5262582057
  0
LINE
  5
224
100
AcDbEntity
  8
0
100
AcDbLine
 62
7
  6
BYLAYER
 10
27.7213160047
 20
60.3262582057
 11
27.9213160047
 21
60.5262582057
  0
LINE
  5
225
100
AcDbEntity
  8
0
100
AcDbLine
 62
7
  6
BYLAYER
 10
17.4713160047
 20
49.1762582057
 11
16.8213160047
 21
48.5262582057
  0
LINE
  5
226
100
AcDbEntity
  8
0
100
AcDbLine
 62
7
  6
BYLAYER
 10
57.9213160047
 20
46.7748480442
 11
57.7213160047
 21
46.7212582057
  0
LINE
  5
227
100
AcDbEntity
  8
0
100
AcDbLine
 62
7
  6
BYLAYER
 10
8.7213160047
 20
49.3554832806
 11
10.0213160047
 21
49.1262582057
  0
LINE
  5
228
100
AcDbEntity
  8
0
100
AcDbLine
 62
7
  6
BYLAYER
 10
27.7213160047
 20
48.7262582057
 11
27.9213160047
 21
48.5262582057
  0
LINE
  5
229
100
AcDbEntity
  8
0
100
AcDbLine
 62
7
  6
BYLAYER
 10
17.4713160047
 20
59.8762582057
 11
16.8213160047
 21
60.5262582057
  0
LINE
  5
22A
100
AcDbEntity
  8
0
100
AcDbLine
 62
7
  6
BYLAYER
 10
57.0467135509
 20
44.8613036295
 11
55.3959184276
 21
44.8613036295
  0
LINE
  5
22B
100
AcDbEntity
  8
0
100
AcDbLine
 62
7
  6
BYLAYER
 10
62.3959184585
 20
44.8613036295
 11
64.0467135509
 21
44.8613036295
  0
LINE
  5
22C
100
AcDbEntity
  8
0
100
AcDbLine
 62
7
  6
BYLAYER
 10
69.1213160047
 20
48.5262582057
 11
64.7213160047
 21
48.5262582057
  0
LINE
  5
22D
100
AcDbEntity
  8
0
100
AcDbLine
 62
7
  6
BYLAYER
 10
61.0213160047
 20
48.5262582057
 11
58.4213160047
 21
48.5262582057
  0
LINE
  5
22E
100
AcDbEntity
  8
0
100
AcDbLine
 62
7
  6
BYLAYER
 10
54.7213160047
 20
48.5262582057
 11
27.9213160047
 21
48.5262582057
  0
LINE
  5
22F
100
AcDbEntity
  8
0
100
AcDbLine
 62
7
  6
BYLAYER
 10
16.8213160047
 20
48.5262582057
 11
11.3213160047
 21
48.5262582057
  0
LINE
  5
230
100
AcDbEntity
  8
0
100
AcDbLine
 62
7
  6
BYLAYER
 10
10.2213160047
 20
49.1262582057
 11
10.0213160047
 21
49.1262582057
  0
LINE
  5
231
100
AcDbEntity
  8
0
100
AcDbLine
 62
7
  6
BYLAYER
 10
26.1543287066
 20
49.1762582057
 11
17.4713160047
 21
49.1762582057
  0
LINE
  5
232
100
AcDbEntity
  8
0
100
AcDbLine
 62
7
  6
BYLAYER
 10
10.6713160047
 20
49.1762582057
 11
10.2213160047
 21
49.1762582057
  0
LINE
  5
233
100
AcDbEntity
  8
0
100
AcDbLine
 62
7
  6
BYLAYER
 10
69.3213160047
 20
49.3262582057
 11
69.653603581
 21
49.3262582057
  0
LINE
  5
234
100
AcDbEntity
  8
0
100
AcDbLine
 62
7
  6
BYLAYER
 10
57.0467135521
 20
49.4687809176
 11
55.3959184573
 21
49.4687809176
  0
LINE
  5
235
100
AcDbEntity
  8
0
100
AcDbLine
 62
7
  6
BYLAYER
 10
62.3959184573
 20
49.4687809176
 11
64.046713583
 21
49.4687809176
  0
LINE
  5
236
100
AcDbEntity
  8
0
100
AcDbLine
 62
7
  6
BYLAYER
 10
57.1008083684
 20
50.1187809176
 11
55.3418236578
 21
50.1187809176
  0
LINE
  5
237
100
AcDbEntity
  8
0
100
AcDbLine
 62
7
  6
BYLAYER
 10
62.341823641
 20
50.1187809176
 11
64.1008082847
 21
50.1187809176
  0
LINE
  5
238
100
AcDbEntity
  8
0
100
AcDbLine
 62
7
  6
BYLAYER
 10
27.7213160047
 20
49.9262582057
 11
26.6543287066
 21
49.3102328019
  0
LINE
  5
239
100
AcDbEntity
  8
0
100
AcDbLine
 62
7
  6
BYLAYER
 10
61.5213160047
 20
46.7748480442
 11
61.7213160047
 21
46.7212582057
  0
LINE
  5
23A
100
AcDbEntity
  8
0
100
AcDbLine
 62
7
  6
BYLAYER
 10
27.7213160047
 20
59.1262582057
 11
26.6543287066
 21
59.7422836095
  0
LINE
  5
23B
100
AcDbEntity
  8
0
100
AcDbLine
 62
7
  6
BYLAYER
 10
61.0213160047
 20
62.143693771
 11
61.7213160047
 21
62.3312582057
  0
LINE
  5
23C
100
AcDbEntity
  8
0
100
AcDbLine
 62
7
  6
BYLAYER
 10
58.4077038399
 20
47.1298767671
 11
58.4213160047
 21
47.1234496193
  0
LINE
  5
23D
100
AcDbEntity
  8
0
100
AcDbLine
 62
7
  6
BYLAYER
 10
57.1008083684
 20
58.9337354938
 11
55.3418237247
 21
58.9337354938
  0
LINE
  5
23E
100
AcDbEntity
  8
0
100
AcDbLine
 62
7
  6
BYLAYER
 10
62.341823641
 20
58.9337354938
 11
64.1008083516
 21
58.9337354938
  0
LINE
  5
23F
100
AcDbEntity
  8
0
100
AcDbLine
 62
7
  6
BYLAYER
 10
57.0467135509
 20
59.5837354938
 11
55.3959184276
 21
59.5837354938
  0
LINE
  5
240
100
AcDbEntity
  8
0
100
AcDbLine
 62
7
  6
BYLAYER
 10
62.3959184585
 20
59.5837354938
 11
64.0467134452
 21
59.5837354938
  0
LINE
  5
241
100
AcDbEntity
  8
0
100
AcDbLine
 62
7
  6
BYLAYER
 10
69.653603581
 20
59.7262582057
 11
69.3213160047
 21
59.7262582057
  0
LINE
  5
242
100
AcDbEntity
  8
0
100
AcDbLine
 62
7
  6
BYLAYER
 10
26.1543287066
 20
59.8762582057
 11
17.4713160047
 21
59.8762582057
  0
LINE
  5
243
100
AcDbEntity
  8
0
100
AcDbLine
 62
7
  6
BYLAYER
 10
10.6713160047
 20
59.8762582057
 11
10.2213160047
 21
59.8762582057
  0
LINE
  5
244
100
AcDbEntity
  8
0
100
AcDbLine
 62
7
  6
BYLAYER
 10
10.2213160047
 20
59.9262582057
 11
10.0213160047
 21
59.9262582057
  0
LINE
  5
245
100
AcDbEntity
  8
0
100
AcDbLine
 62
7
  6
BYLAYER
 10
69.1213160047
 20
60.5262582057
 11
64.7213160047
 21
60.5262582057
  0
LINE
  5
246
100
AcDbEntity
  8
0
100
AcDbLine
 62
7
  6
BYLAYER
 10
61.1916436741
 20
60.5262582057
 11
58.250984739
 21
60.5262582057
  0
LINE
  5
247
100
AcDbEntity
  8
0
100
AcDbLine
 62
7
  6
BYLAYER
 10
54.7213160047
 20
60.5262582057
 11
27.9213160047
 21
60.5262582057
  0
LINE
  5
248
100
AcDbEntity
  8
0
100
AcDbLine
 62
7
  6
BYLAYER
 10
16.8213160047
 20
60.5262582057
 11
11.3213160047
 21
60.5262582057
  0
LINE
  5
249
100
AcDbEntity
  8
0
100
AcDbLine
 62
7
  6
BYLAYER
 10
54.7213160047
 20
63.0262582057
 11
55.3722522078
 21
64.1537127819
  0
LINE
  5
24A
100
AcDbEntity
  8
0
100
AcDbLine
 62
7
  6
BYLAYER
 10
8.7213160047
 20
59.6970331308
 11
10.0213160047
 21
59.9262582057
  0
LINE
  5
24B
100
AcDbEntity
  8
0
100
AcDbLine
 62
7
  6
BYLAYER
 10
57.0467135521
 20
64.1912127819
 11
55.3959185634
 21
64.1912127819
  0
LINE
  5
24C
100
AcDbEntity
  8
0
100
AcDbLine
 62
7
  6
BYLAYER
 10
62.3959184573
 20
64.1912127819
 11
64.046713583
 21
64.1912127819
  0
LINE
  5
24D
100
AcDbEntity
  8
0
100
AcDbLine
 62
7
  6
BYLAYER
 10
54.7213160047
 20
46.0262582057
 11
55.3722522078
 21
44.8988036295
  0
LINE
  5
24E
100
AcDbEntity
  8
0
100
AcDbLine
 62
7
  6
BYLAYER
 10
58.1624942905
 20
60.5998095957
 11
58.1929920428
 21
60.6416571355
  0
LINE
  5
24F
100
AcDbEntity
  8
0
100
AcDbLine
 62
7
  6
BYLAYER
 10
58.4213160047
 20
62.143693771
 11
57.7213160047
 21
62.3312582057
  0
LINE
  5
250
100
AcDbEntity
  8
0
100
AcDbLine
 62
7
  6
BYLAYER
 10
58.1929920428
 20
48.0673036748
 11
58.1877386377
 21
48.074346012
  0
LINE
  5
251
100
AcDbEntity
  8
0
100
AcDbLine
 62
7
  6
BYLAYER
 10
54.7213160047
 20
46.0262610732
 11
54.7213160047
 21
63.0262553381
  0
LINE
  5
252
100
AcDbEntity
  8
0
100
AcDbLine
 62
7
  6
BYLAYER
 10
61.7213160047
 20
63.0262582057
 11
62.3722522078
 21
64.1537127819
  0
LINE
  5
253
100
AcDbEntity
  8
0
100
AcDbLine
 62
7
  6
BYLAYER
 10
61.0349192382
 20
47.1299265331
 11
61.0213160047
 21
47.1234496193
  0
LINE
  5
254
100
AcDbEntity
  8
0
100
AcDbLine
 62
7
  6
BYLAYER
 10
61.7213160047
 20
46.0262582057
 11
62.3722522078
 21
44.8988036295
  0
LINE
  5
255
100
AcDbEntity
  8
0
100
AcDbLine
 62
7
  6
BYLAYER
 10
57.7213160047
 20
63.0262553381
 11
57.7213160047
 21
46.0262610732
  0
LINE
  5
256
100
AcDbEntity
  8
0
100
AcDbLine
 62
7
  6
BYLAYER
 10
58.4213160047
 20
62.141486566
 11
58.4213160047
 21
61.8243944542
  0
LINE
  5
257
100
AcDbEntity
  8
0
100
AcDbLine
 62
7
  6
BYLAYER
 10
58.4213160047
 20
61.720329324
 11
58.4213160047
 21
61.4400847366
  0
LINE
  5
258
100
AcDbEntity
  8
0
100
AcDbLine
 62
7
  6
BYLAYER
 10
58.4213160047
 20
61.1575880259
 11
58.4213160047
 21
60.8335589455
  0
LINE
  5
259
100
AcDbEntity
  8
0
100
AcDbLine
 62
7
  6
BYLAYER
 10
58.4213160047
 20
60.3817103311
 11
58.4213160047
 21
60.0243113189
  0
LINE
  5
25A
100
AcDbEntity
  8
0
100
AcDbLine
 62
7
  6
BYLAYER
 10
58.4213160047
 20
59.417633587
 11
58.4213160047
 21
59.0383517415
  0
LINE
  5
25B
100
AcDbEntity
  8
0
100
AcDbLine
 62
7
  6
BYLAYER
 10
58.4213160047
 20
58.2963440136
 11
58.4213160047
 21
57.9073697653
  0
LINE
  5
25C
100
AcDbEntity
  8
0
100
AcDbLine
 62
7
  6
BYLAYER
 10
58.4213160047
 20
57.0538807803
 11
58.4213160047
 21
56.6677160816
  0
LINE
  5
25D
100
AcDbEntity
  8
0
100
AcDbLine
 62
7
  6
BYLAYER
 10
58.4213160047
 20
55.7301776777
 11
58.4213160047
 21
55.3592341797
  0
LINE
  5
25E
100
AcDbEntity
  8
0
100
AcDbLine
 62
7
  6
BYLAYER
 10
58.4213160047
 20
54.3677796127
 11
58.4213160047
 21
54.0014249418
  0
LINE
  5
25F
100
AcDbEntity
  8
0
100
AcDbLine
 62
7
  6
BYLAYER
 10
58.4213160047
 20
53.0330299829
 11
58.4213160047
 21
52.6529457773
  0
LINE
  5
260
100
AcDbEntity
  8
0
100
AcDbLine
 62
7
  6
BYLAYER
 10
58.4213160047
 20
51.7538124364
 11
58.4213160047
 21
51.3646764156
  0
LINE
  5
261
100
AcDbEntity
  8
0
100
AcDbLine
 62
7
  6
BYLAYER
 10
58.4213160047
 20
50.563703578
 11
58.4213160047
 21
50.1780228941
  0
LINE
  5
262
100
AcDbEntity
  8
0
100
AcDbLine
 62
7
  6
BYLAYER
 10
58.4213160047
 20
49.5009544858
 11
58.4213160047
 21
49.1311252331
  0
LINE
  5
263
100
AcDbEntity
  8
0
100
AcDbLine
 62
7
  6
BYLAYER
 10
58.4213160047
 20
48.59972279
 11
58.4213160047
 21
48.2576315851
  0
LINE
  5
264
100
AcDbEntity
  8
0
100
AcDbLine
 62
7
  6
BYLAYER
 10
58.4213160047
 20
47.8889748188
 11
58.4213160047
 21
47.5856167545
  0
LINE
  5
265
100
AcDbEntity
  8
0
100
AcDbLine
 62
7
  6
BYLAYER
 10
58.4213160047
 20
47.3915545968
 11
58.4213160047
 21
47.1366798509
  0
LINE
  5
266
100
AcDbEntity
  8
0
100
AcDbLine
 62
7
  6
BYLAYER
 10
58.4213160047
 20
47.1234496193
 11
58.4213160047
 21
46.9252500757
  0
LINE
  5
267
100
AcDbEntity
  8
0
100
AcDbLine
 62
7
  6
BYLAYER
 10
57.7213160047
 20
46.0262582057
 11
57.0703798016
 21
44.8988036295
  0
LINE
  5
268
100
AcDbEntity
  8
0
100
AcDbLine
 62
7
  6
BYLAYER
 10
61.2496399666
 20
48.0673036748
 11
61.2548841212
 21
48.0743584194
  0
LINE
  5
269
100
AcDbEntity
  8
0
100
AcDbLine
 62
7
  6
BYLAYER
 10
61.2801763404
 20
60.5998512816
 11
61.2496399666
 21
60.6416571355
  0
LINE
  5
26A
100
AcDbEntity
  8
0
100
AcDbLine
 62
7
  6
BYLAYER
 10
57.7213160047
 20
63.0262582057
 11
57.0703798016
 21
64.1537127819
  0
LINE
  5
26B
100
AcDbEntity
  8
0
100
AcDbLine
 62
7
  6
BYLAYER
 10
61.0213160047
 20
46.9252500757
 11
61.0213160047
 21
47.1234496193
  0
LINE
  5
26C
100
AcDbEntity
  8
0
100
AcDbLine
 62
7
  6
BYLAYER
 10
61.0213160047
 20
47.1366798509
 11
61.0213160047
 21
47.3915545968
  0
LINE
  5
26D
100
AcDbEntity
  8
0
100
AcDbLine
 62
7
  6
BYLAYER
 10
61.0213160047
 20
47.5856167545
 11
61.0213160047
 21
47.8889748188
  0
LINE
  5
26E
100
AcDbEntity
  8
0
100
AcDbLine
 62
7
  6
BYLAYER
 10
61.0213160047
 20
48.2576315851
 11
61.0213160047
 21
48.59972279
  0
LINE
  5
26F
100
AcDbEntity
  8
0
100
AcDbLine
 62
7
  6
BYLAYER
 10
61.0213160047
 20
49.1311252331
 11
61.0213160047
 21
49.5009544858
  0
LINE
  5
270
100
AcDbEntity
  8
0
100
AcDbLine
 62
7
  6
BYLAYER
 10
61.0213160047
 20
50.1780228941
 11
61.0213160047
 21
50.563703578
  0
LINE
  5
271
100
AcDbEntity
  8
0
100
AcDbLine
 62
7
  6
BYLAYER
 10
61.0213160047
 20
51.3646764156
 11
61.0213160047
 21
51.7538124364
  0
LINE
  5
272
100
AcDbEntity
  8
0
100
AcDbLine
 62
7
  6
BYLAYER
 10
61.0213160047
 20
52.6529457773
 11
61.0213160047
 21
53.0330299829
  0
LINE
  5
273
100
AcDbEntity
  8
0
100
AcDbLine
 62
7
  6
BYLAYER
 10
61.0213160047
 20
54.0014249418
 11
61.0213160047
 21
54.3677796127
  0
LINE
  5
274
100
AcDbEntity
  8
0
100
AcDbLine
 62
7
  6
BYLAYER
 10
61.0213160047
 20
55.3592341797
 11
61.0213160047
 21
55.7301776777
  0
LINE
  5
275
100
AcDbEntity
  8
0
100
AcDbLine
 62
7
  6
BYLAYER
 10
61.0213160047
 20
56.6677160816
 11
61.0213160047
 21
57.0538807803
  0
LINE
  5
276
100
AcDbEntity
  8
0
100
AcDbLine
 62
7
  6
BYLAYER
 10
61.0213160047
 20
57.9073697653
 11
61.0213160047
 21
58.2963440136
  0
LINE
  5
277
100
AcDbEntity
  8
0
100
AcDbLine
 62
7
  6
BYLAYER
 10
61.0213160047
 20
59.0383517415
 11
61.0213160047
 21
59.417633587
  0
LINE
  5
278
100
AcDbEntity
  8
0
100
AcDbLine
 62
7
  6
BYLAYER
 10
61.0213160047
 20
60.0243113189
 11
61.0213160047
 21
60.3817103311
  0
LINE
  5
279
100
AcDbEntity
  8
0
100
AcDbLine
 62
7
  6
BYLAYER
 10
61.0213160047
 20
60.8335589455
 11
61.0213160047
 21
61.1575880259
  0
LINE
  5
27A
100
AcDbEntity
  8
0
100
AcDbLine
 62
7
  6
BYLAYER
 10
61.0213160047
 20
61.4400847366
 11
61.0213160047
 21
61.720329324
  0
LINE
  5
27B
100
AcDbEntity
  8
0
100
AcDbLine
 62
7
  6
BYLAYER
 10
61.0213160047
 20
61.8243944542
 11
61.0213160047
 21
62.141486566
  0
LINE
  5
27C
100
AcDbEntity
  8
0
100
AcDbLine
 62
7
  6
BYLAYER
 10
61.7213160047
 20
46.0262610732
 11
61.7213160047
 21
63.0262553381
  0
LINE
  5
27D
100
AcDbEntity
  8
0
100
AcDbLine
 62
7
  6
BYLAYER
 10
64.7213160047
 20
63.0262553381
 11
64.7213160047
 21
46.0262610732
  0
LINE
  5
27E
100
AcDbEntity
  8
0
100
AcDbLine
 62
7
  6
BYLAYER
 10
69.3213160047
 20
48.7262582057
 11
69.1213160047
 21
48.5262582057
  0
LINE
  5
27F
100
AcDbEntity
  8
0
100
AcDbLine
 62
7
  6
BYLAYER
 10
69.3213160047
 20
60.3262582057
 11
69.1213160047
 21
60.5262582057
  0
LINE
  5
280
100
AcDbEntity
  8
0
100
AcDbLine
 62
7
  6
BYLAYER
 10
64.7213160047
 20
46.0262582057
 11
64.0703798016
 21
44.8988036295
  0
LINE
  5
281
100
AcDbEntity
  8
0
100
AcDbLine
 62
7
  6
BYLAYER
 10
64.7213160047
 20
63.0262582057
 11
64.0703798016
 21
64.1537127819
  0
LINE
  5
282
100
AcDbEntity
  8
0
100
AcDbLine
 62
7
  6
BYLAYER
 10
69.1213160047
 20
60.5262582057
 11
69.1213160047
 21
48.5262582057
  0
LINE
  5
283
100
AcDbEntity
  8
0
100
AcDbLine
 62
7
  6
BYLAYER
 10
69.3213160047
 20
60.3262248058
 11
69.3213160047
 21
48.7263670109
  0
LINE
  5
284
100
AcDbEntity
  8
0
100
AcDbLine
 62
7
  6
BYLAYER
 10
69.5213160047
 20
59.7262582057
 11
69.5213160047
 21
49.3262582057
  0
LINE
  5
285
100
AcDbEntity
  8
0
100
AcDbLine
 62
7
  6
BYLAYER
 10
69.7213160047
 20
59.5762621451
 11
69.7213160047
 21
49.4762586192
  0
ARC
  5
286
100
AcDbEntity
  8
0
100
AcDbCircle
 62
7
  6
BYLAYER
 10
-36.6617252723
 20
-25.8954128973
 40
127.9217929417
100
AcDbArc
 50
39.913597209
 51
40.0573917343
  0
ARC
  5
287
100
AcDbEntity
  8
0
100
AcDbCircle
 62
7
  6
BYLAYER
 10
-13.966156112
 20
-15.3581977638
 40
103.9752530159
100
AcDbArc
 50
43.6640128139
 51
43.8459429001
  0
ARC
  5
288
100
AcDbEntity
  8
0
100
AcDbCircle
 62
7
  6
BYLAYER
 10
-6.6767939689
 20
5.3477642491
 40
85.7411976976
100
AcDbArc
 50
37.4288711659
 51
37.6059455389
  0
ARC
  5
289
100
AcDbEntity
  8
0
100
AcDbCircle
 62
7
  6
BYLAYER
 10
6.0720918722
 20
18.3995401712
 40
68.3918613711
100
AcDbArc
 50
36.047952661
 51
36.2169752502
  0
ARC
  5
28A
100
AcDbEntity
  8
0
100
AcDbCircle
 62
7
  6
BYLAYER
 10
18.7659915285
 20
17.1379395073
 40
58.7167683898
100
AcDbArc
 50
43.6528706996
 51
43.9746867688
  0
ARC
  5
28B
100
AcDbEntity
  8
0
100
AcDbCircle
 62
7
  6
BYLAYER
 10
15.0339671488
 20
26.5326882733
 40
56.9496936121
100
AcDbArc
 50
35.6238883058
 51
35.7555389505
  0
ARC
  5
28C
100
AcDbEntity
  8
0
100
AcDbCircle
 62
7
  6
BYLAYER
 10
32.9469776263
 20
30.9210074292
 40
39.7335315139
100
AcDbArc
 50
44.5766797026
 51
45.0438509386
  0
ARC
  5
28D
100
AcDbEntity
  8
0
100
AcDbCircle
 62
7
  6
BYLAYER
 10
41.5488189832
 20
39.0502504106
 40
28.6197374418
100
AcDbArc
 50
46.4991892432
 51
47.1261087628
  0
ARC
  5
28E
100
AcDbEntity
  8
0
100
AcDbCircle
 62
7
  6
BYLAYER
 10
47.5399177416
 20
44.5616679604
 40
21.1310798437
100
AcDbArc
 50
49.5492480528
 51
50.3579665646
  0
ARC
  5
28F
100
AcDbEntity
  8
0
100
AcDbCircle
 62
7
  6
BYLAYER
 10
-18.4277236372
 20
115.793416808
 40
102.0733830285
100
AcDbArc
 50
321.3145386134
 51
321.4794548404
  0
ARC
  5
290
100
AcDbEntity
  8
0
100
AcDbCircle
 62
7
  6
BYLAYER
 10
0.1290334749
 20
96.5039112394
 40
76.3197728608
100
AcDbArc
 50
323.2112434021
 51
323.3871737542
  0
ARC
  5
291
100
AcDbEntity
  8
0
100
AcDbCircle
 62
7
  6
BYLAYER
 10
6.6356777082
 20
103.8980075314
 40
75.3446397232
100
AcDbArc
 50
316.205355204
 51
316.456812745
  0
ARC
  5
292
100
AcDbEntity
  8
0
100
AcDbCircle
 62
7
  6
BYLAYER
 10
10.8281692834
 20
86.1897343105
 40
62.2260359601
100
AcDbArc
 50
324.1248028171
 51
324.2787862363
  0
ARC
  5
293
100
AcDbEntity
  8
0
100
AcDbCircle
 62
7
  6
BYLAYER
 10
26.8827626021
 20
83.9812105545
 40
47.7720692554
100
AcDbArc
 50
315.6115121003
 51
316.0043624624
  0
ARC
  5
294
100
AcDbEntity
  8
0
100
AcDbCircle
 62
7
  6
BYLAYER
 10
37.6592980654
 20
73.6516816094
 40
33.6012128173
100
AcDbArc
 50
314.048980282
 51
314.5931697624
  0
ARC
  5
295
100
AcDbEntity
  8
0
100
AcDbCircle
 62
7
  6
BYLAYER
 10
44.7707192042
 20
67.0240156951
 40
24.5669791677
100
AcDbArc
 50
311.4129416223
 51
312.126924586
  0
ARC
  5
296
100
AcDbEntity
  8
0
100
AcDbCircle
 62
7
  6
BYLAYER
 10
49.8891350195
 20
62.3774330035
 40
18.2713128718
100
AcDbArc
 50
307.5368098508
 51
308.4453075527
  0
ARC
  5
297
100
AcDbEntity
  8
0
100
AcDbCircle
 62
7
  6
BYLAYER
 10
51.9370724014
 20
48.4989547497
 40
15.8112721557
100
AcDbArc
 50
54.0564170448
 51
54.9324192402
  0
ARC
  5
298
100
AcDbEntity
  8
0
100
AcDbCircle
 62
7
  6
BYLAYER
 10
49.303875894
 20
58.0295454431
 40
14.8245327009
100
AcDbArc
 50
3.4968015304
 51
6.0178941128
  0
ARC
  5
299
100
AcDbEntity
  8
0
100
AcDbCircle
 62
7
  6
BYLAYER
 10
49.3038760229
 20
51.0229709308
 40
14.82453257
100
AcDbArc
 50
353.9821059797
 51
356.503198584
  0
ARC
  5
29A
100
AcDbEntity
  8
0
100
AcDbCircle
 62
7
  6
BYLAYER
 10
42.3274208673
 20
58.0315038383
 40
14.8009121414
100
AcDbArc
 50
3.4947936857
 51
6.019910309
  0
ARC
  5
29B
100
AcDbEntity
  8
0
100
AcDbCircle
 62
7
  6
BYLAYER
 10
42.32742104
 20
51.0210125316
 40
14.8009119665
100
AcDbArc
 50
353.9800897813
 51
356.5052064341
  0
ARC
  5
29C
100
AcDbEntity
  8
0
100
AcDbCircle
 62
7
  6
BYLAYER
 10
53.7018549027
 20
59.0110517365
 40
13.732706383
100
AcDbArc
 50
302.2080256636
 51
302.9511971882
  0
ARC
  5
29D
100
AcDbEntity
  8
0
100
AcDbCircle
 62
7
  6
BYLAYER
 10
55.1902014021
 20
51.2768750506
 40
12.0520563838
100
AcDbArc
 50
60.5656947997
 51
61.0643273492
  0
ARC
  5
29E
100
AcDbEntity
  8
0
100
AcDbCircle
 62
7
  6
BYLAYER
 10
26.1543287066
 20
50.1762582057
 40
1.0
100
AcDbArc
 50
270.0
 51
300.0
  0
ARC
  5
29F
100
AcDbEntity
  8
0
100
AcDbCircle
 62
7
  6
BYLAYER
 10
26.1543287066
 20
58.8762582057
 40
1.0
100
AcDbArc
 50
60.0
 51
90.0
  0
ARC
  5
2A0
100
AcDbEntity
  8
0
100
AcDbCircle
 62
7
  6
BYLAYER
 10
156.015790859
 20
-25.8209140219
 40
127.8060600896
100
AcDbArc
 50
139.9426190804
 51
140.0865446448
  0
ARC
  5
2A1
100
AcDbEntity
  8
0
100
AcDbCircle
 62
7
  6
BYLAYER
 10
133.4823880105
 20
-15.4286665849
 40
104.0771489053
100
AcDbArc
 50
136.1541461586
 51
136.3358981275
  0
ARC
  5
2A2
100
AcDbEntity
  8
0
100
AcDbCircle
 62
7
  6
BYLAYER
 10
125.4559719142
 20
5.8573907367
 40
84.9046038959
100
AcDbArc
 50
142.3932997949
 51
142.5721204722
  0
ARC
  5
2A3
100
AcDbEntity
  8
0
100
AcDbCircle
 62
7
  6
BYLAYER
 10
113.0594027873
 20
18.6264729273
 40
68.0067583149
100
AcDbArc
 50
143.7823946848
 51
143.9523794217
  0
ARC
  5
2A4
100
AcDbEntity
  8
0
100
AcDbCircle
 62
7
  6
BYLAYER
 10
100.718136445
 20
17.0981271481
 40
58.7742741542
100
AcDbArc
 50
136.025470667
 51
136.346971865
  0
ARC
  5
2A5
100
AcDbEntity
  8
0
100
AcDbCircle
 62
7
  6
BYLAYER
 10
104.5024343818
 20
26.4646169931
 40
57.0655651842
100
AcDbArc
 50
144.2440103718
 51
144.3753920356
  0
ARC
  5
2A6
100
AcDbEntity
  8
0
100
AcDbCircle
 62
7
  6
BYLAYER
 10
86.523245557
 20
30.8935983891
 40
39.7724224285
100
AcDbArc
 50
134.9563774714
 51
135.4230918879
  0
ARC
  5
2A7
100
AcDbEntity
  8
0
100
AcDbCircle
 62
7
  6
BYLAYER
 10
77.9129748324
 20
39.0298361301
 40
28.6477355529
100
AcDbArc
 50
132.8741975922
 51
133.5005044024
  0
ARC
  5
2A8
100
AcDbEntity
  8
0
100
AcDbCircle
 62
7
  6
BYLAYER
 10
71.9160097735
 20
44.5458490241
 40
21.1517435309
100
AcDbArc
 50
129.6424284714
 51
130.4503569119
  0
ARC
  5
2A9
100
AcDbEntity
  8
0
100
AcDbCircle
 62
7
  6
BYLAYER
 10
137.3365871969
 20
115.3669867452
 40
101.3901914221
100
AcDbArc
 50
218.5198650705
 51
218.6858922531
  0
ARC
  5
2AA
100
AcDbEntity
  8
0
100
AcDbCircle
 62
7
  6
BYLAYER
 10
118.9631143522
 20
96.242620813
 40
75.8826099184
100
AcDbArc
 50
216.6122984524
 51
216.7892391316
  0
ARC
  5
2AB
100
AcDbEntity
  8
0
100
AcDbCircle
 62
7
  6
BYLAYER
 10
112.8069542967
 20
103.8980075268
 40
75.3446397169
100
AcDbArc
 50
223.5431872549
 51
223.7946447959
  0
ARC
  5
2AC
100
AcDbEntity
  8
0
100
AcDbCircle
 62
7
  6
BYLAYER
 10
108.4410034792
 20
86.0651567827
 40
62.012477607
100
AcDbArc
 50
215.7213342869
 51
215.8758497382
  0
ARC
  5
2AD
100
AcDbEntity
  8
0
100
AcDbCircle
 62
7
  6
BYLAYER
 10
92.5263655275
 20
83.9486384843
 40
47.7253421323
100
AcDbArc
 50
223.9954452199
 51
224.388680217
  0
ARC
  5
2AE
100
AcDbEntity
  8
0
100
AcDbCircle
 62
7
  6
BYLAYER
 10
81.7603836737
 20
73.6281808933
 40
33.5683650745
100
AcDbArc
 50
225.4065639818
 51
225.9512859733
  0
ARC
  5
2AF
100
AcDbEntity
  8
0
100
AcDbCircle
 62
7
  6
BYLAYER
 10
74.655921944
 20
67.0061119904
 40
24.5429744204
100
AcDbArc
 50
227.8727262465
 51
228.5874075446
  0
ARC
  5
2B0
100
AcDbEntity
  8
0
100
AcDbCircle
 62
7
  6
BYLAYER
 10
69.542510939
 20
62.3633669754
 40
18.2534655633
100
AcDbArc
 50
231.5542482962
 51
232.4636342995
  0
ARC
  5
2B1
100
AcDbEntity
  8
0
100
AcDbCircle
 62
7
  6
BYLAYER
 10
67.5141384123
 20
48.4869540027
 40
15.8260233522
100
AcDbArc
 50
125.0680390976
 51
125.9432304489
  0
ARC
  5
2B2
100
AcDbEntity
  8
0
100
AcDbCircle
 62
7
  6
BYLAYER
 10
77.1391281307
 20
51.0230029845
 40
14.8249059932
100
AcDbArc
 50
183.4968373394
 51
186.0178664452
  0
ARC
  5
2B3
100
AcDbEntity
  8
0
100
AcDbCircle
 62
7
  6
BYLAYER
 10
77.1391258845
 20
58.0295135877
 40
14.8249037414
100
AcDbArc
 50
173.9821332625
 51
176.5031627516
  0
ARC
  5
2B4
100
AcDbEntity
  8
0
100
AcDbCircle
 62
7
  6
BYLAYER
 10
70.1152180383
 20
58.0315043448
 40
14.8009189771
100
AcDbArc
 50
173.9800944532
 51
176.5052098948
  0
ARC
  5
2B5
100
AcDbEntity
  8
0
100
AcDbCircle
 62
7
  6
BYLAYER
 10
70.1152179154
 20
51.0210120285
 40
14.8009188522
100
AcDbArc
 50
183.4947899869
 51
186.0199054495
  0
ARC
  5
2B6
100
AcDbEntity
  8
0
100
AcDbCircle
 62
7
  6
BYLAYER
 10
65.7533685322
 20
59.0308320712
 40
13.7561540552
100
AcDbArc
 50
237.0495573041
 51
237.7915119155
  0
ARC
  5
2B7
100
AcDbEntity
  8
0
100
AcDbCircle
 62
7
  6
BYLAYER
 10
64.2442210575
 20
51.2914960964
 40
12.0352885744
100
AcDbArc
 50
118.9351459514
 51
119.434430689
  0
ARC
  5
2B8
100
AcDbEntity
  8
0
100
AcDbCircle
 62
7
  6
BYLAYER
 10
69.5213160047
 20
49.4762582057
 40
0.2
100
AcDbArc
 50
311.4096221093
 51
360.0
  0
ARC
  5
2B9
100
AcDbEntity
  8
0
100
AcDbCircle
 62
7
  6
BYLAYER
 10
69.5213160047
 20
59.5762582057
 40
0.2
100
AcDbArc
 50
0.0
 51
48.5903778907
  0
SPLINE
  5
2BA
100
AcDbEntity
  8
0
100
AcDbSpline
 62
7
  6
BYLAYER
 70
0
 71
3
 72
9
 73
5
 74
0
 42
0.0000001
 43
0.0000001
 44
0.0000000001
 40
0.0
 40
0.0
 40
0.0
 40
0.0
 40
0.2456243926
 40
1.0
 40
1.0
 40
1.0
 40
1.0
 10
55.3722471747
 20
64.1537128412
 30
0.0
 10
55.3740620465
 20
64.1568581347
 30
0.0
 10
55.3815834176
 20
64.169586721
 30
0.0
 10
55.3896180105
 20
64.182010107
 30
0.0
 10
55.3959184264
 20
64.1912127819
 30
0.0
  0
SPLINE
  5
2BB
100
AcDbEntity
  8
0
100
AcDbSpline
 62
7
  6
BYLAYER
 70
0
 71
3
 72
9
 73
5
 74
0
 42
0.0000001
 43
0.0000001
 44
0.0000000001
 40
0.0
 40
0.0
 40
0.0
 40
0.0
 40
0.2456244201
 40
1.0
 40
1.0
 40
1.0
 40
1.0
 10
57.0703848633
 20
44.8988035699
 30
0.0
 10
57.0685699861
 20
44.895658276
 30
0.0
 10
57.0610485904
 20
44.8829296916
 30
0.0
 10
57.0530139701
 20
44.8705063114
 30
0.0
 10
57.0467135509
 20
44.8613036295
 30
0.0
  0
SPLINE
  5
2BC
100
AcDbEntity
  8
0
100
AcDbSpline
 62
7
  6
BYLAYER
 70
0
 71
3
 72
9
 73
5
 74
0
 42
0.0000001
 43
0.0000001
 44
0.0000000001
 40
0.0
 40
0.0
 40
0.0
 40
0.0
 40
0.254471482
 40
1.0
 40
1.0
 40
1.0
 40
1.0
 10
55.3959184276
 20
44.8613036295
 30
0.0
 10
55.3937931375
 20
44.8644079253
 30
0.0
 10
55.3855499262
 20
44.8766806424
 30
0.0
 10
55.3777557111
 20
44.8892569099
 30
0.0
 10
55.3722471738
 20
44.8988035702
 30
0.0
  0
SPLINE
  5
2BD
100
AcDbEntity
  8
0
100
AcDbSpline
 62
7
  6
BYLAYER
 70
0
 71
3
 72
9
 73
5
 74
0
 42
0.0000001
 43
0.0000001
 44
0.0000000001
 40
0.0
 40
0.0
 40
0.0
 40
0.0
 40
0.2544713825
 40
1.0
 40
1.0
 40
1.0
 40
1.0
 10
57.0467135521
 20
64.1912127819
 30
0.0
 10
57.0488388425
 20
64.188108485
 30
0.0
 10
57.0570820649
 20
64.1758357637
 30
0.0
 10
57.0648763098
 20
64.1632595031
 30
0.0
 10
57.0703848624
 20
64.1537128415
 30
0.0
  0
LINE
  5
2BE
100
AcDbEntity
  8
0
100
AcDbLine
 62
7
  6
BYLAYER
 10
58.1929920428
 20
55.1279405171
 11
58.4213160047
 21
55.3592341797
  0
LINE
  5
2BF
100
AcDbEntity
  8
0
100
AcDbLine
 62
7
  6
BYLAYER
 10
57.9360016875
 20
54.8599032407
 11
58.1929920428
 21
55.1279405171
  0
LINE
  5
2C0
100
AcDbEntity
  8
0
100
AcDbLine
 62
7
  6
BYLAYER
 10
58.1929920428
 20
53.2688606205
 11
57.9650246035
 21
53.5247113159
  0
LINE
  5
2C1
100
AcDbEntity
  8
0
100
AcDbLine
 62
7
  6
BYLAYER
 10
58.1929920428
 20
53.2688606205
 11
58.4213160047
 21
53.0330299829
  0
LINE
  5
2C2
100
AcDbEntity
  8
0
100
AcDbLine
 62
7
  6
BYLAYER
 10
58.1929920428
 20
48.8036524734
 11
58.1389337054
 21
48.8785919757
  0
LINE
  5
2C3
100
AcDbEntity
  8
0
100
AcDbLine
 62
7
  6
BYLAYER
 10
58.2649506768
 20
54.5262582333
 11
57.9213160047
 21
54.8740239076
  0
LINE
  5
2C4
100
AcDbEntity
  8
0
100
AcDbLine
 62
7
  6
BYLAYER
 10
58.4213160047
 20
54.3677796127
 11
58.2649506768
 21
54.5262582333
  0
SPLINE
  5
2C5
100
AcDbEntity
  8
0
100
AcDbSpline
 62
7
  6
BYLAYER
 70
0
 71
3
 72
13
 73
9
 74
0
 42
0.0000001
 43
0.0000001
 44
0.0000000001
 40
0.0
 40
0.0
 40
0.0
 40
0.0
 40
0.1204074337
 40
0.2413786051
 40
0.3634045455
 40
0.4869076083
 40
0.7393475573
 40
1.0
 40
1.0
 40
1.0
 40
1.0
 10
54.7213189224
 20
61.8874741045
 30
0.0
 10
54.7213176656
 20
61.9848371081
 30
0.0
 10
54.7291169795
 20
62.1801055051
 30
0.0
 10
54.7638217
 20
62.4721787901
 30
0.0
 10
54.8208426651
 20
62.7632747695
 30
0.0
 10
54.9259474773
 20
63.152274107
 30
0.0
 10
55.1083557861
 20
63.6349975764
 30
0.0
 10
55.2943077482
 20
64.006556508
 30
0.0
 10
55.3959185634
 20
64.1912127819
 30
0.0
  0
SPLINE
  5
2C6
100
AcDbEntity
  8
0
100
AcDbSpline
 62
7
  6
BYLAYER
 70
0
 71
3
 72
13
 73
9
 74
0
 42
0.0000001
 43
0.0000001
 44
0.0000000001
 40
0.0
 40
0.0
 40
0.0
 40
0.0
 40
0.1204073448
 40
0.2413781958
 40
0.3634046441
 40
0.4869092239
 40
0.7393494659
 40
1.0
 40
1.0
 40
1.0
 40
1.0
 10
57.7213130845
 20
47.1650422809
 30
0.0
 10
57.7213133991
 20
47.0676793573
 30
0.0
 10
57.7135236385
 20
46.8724112497
 30
0.0
 10
57.6788290832
 20
46.5803362807
 30
0.0
 10
57.6217992245
 20
46.2892400922
 30
0.0
 10
57.5166617859
 20
45.900247831
 30
0.0
 10
57.334261881
 20
45.417523655
 30
0.0
 10
57.148323619
 20
45.0459585328
 30
0.0
 10
57.0467135509
 20
44.8613036295
 30
0.0
  0
SPLINE
  5
2C7
100
AcDbEntity
  8
0
100
AcDbSpline
 62
7
  6
BYLAYER
 70
0
 71
3
 72
13
 73
9
 74
0
 42
0.0000001
 43
0.0000001
 44
0.0000000001
 40
0.0
 40
0.0
 40
0.0
 40
0.0
 40
0.2606505638
 40
0.5130908164
 40
0.6365954003
 40
0.7586218401
 40
0.8795926661
 40
1.0
 40
1.0
 40
1.0
 40
1.0
 10
55.3959184585
 20
44.8613036295
 30
0.0
 10
55.294308384
 20
45.0459585569
 30
0.0
 10
55.1083700602
 20
45.4175236874
 30
0.0
 10
54.9259702165
 20
45.900247925
 30
0.0
 10
54.8208327593
 20
46.2892401871
 30
0.0
 10
54.7638029482
 20
46.5803363593
 30
0.0
 10
54.7291083202
 20
46.8724112842
 30
0.0
 10
54.7213186101
 20
47.0676793661
 30
0.0
 10
54.7213189249
 20
47.1650422809
 30
0.0
  0
SPLINE
  5
2C8
100
AcDbEntity
  8
0
100
AcDbSpline
 62
7
  6
BYLAYER
 70
0
 71
3
 72
13
 73
9
 74
0
 42
0.0000001
 43
0.0000001
 44
0.0000000001
 40
0.0
 40
0.0
 40
0.0
 40
0.0
 40
0.2606505647
 40
0.5130908169
 40
0.6365954003
 40
0.7586218399
 40
0.8795926661
 40
1.0
 40
1.0
 40
1.0
 40
1.0
 10
57.0467135521
 20
64.1912127819
 30
0.0
 10
57.1483236316
 20
64.0065578579
 30
0.0
 10
57.3342619546
 20
63.6349927292
 30
0.0
 10
57.5166617986
 20
63.1522684947
 30
0.0
 10
57.6217992439
 20
62.7632762328
 30
0.0
 10
57.6788290528
 20
62.4721800627
 30
0.0
 10
57.7135236849
 20
62.1801051402
 30
0.0
 10
57.7213133989
 20
61.9848370595
 30
0.0
 10
57.7213130845
 20
61.8874741452
 30
0.0
  0
SPLINE
  5
2C9
100
AcDbEntity
  8
0
100
AcDbSpline
 62
7
  6
BYLAYER
 70
0
 71
3
 72
13
 73
9
 74
0
 42
0.0000001
 43
0.0000001
 44
0.0000000001
 40
0.0
 40
0.0
 40
0.0
 40
0.0
 40
0.1204073448
 40
0.2413781958
 40
0.3634046441
 40
0.4869092239
 40
0.7393494659
 40
1.0
 40
1.0
 40
1.0
 40
1.0
 10
57.7213130845
 20
61.8874741452
 30
0.0
 10
57.7213133991
 20
61.7901112216
 30
0.0
 10
57.7135236385
 20
61.5948431141
 30
0.0
 10
57.6788290832
 20
61.302768145
 30
0.0
 10
57.6217992245
 20
61.0116719565
 30
0.0
 10
57.5166617859
 20
60.6226796954
 30
0.0
 10
57.334261881
 20
60.1399555193
 30
0.0
 10
57.148323619
 20
59.7683903972
 30
0.0
 10
57.0467135509
 20
59.5837354938
 30
0.0
  0
SPLINE
  5
2CA
100
AcDbEntity
  8
0
100
AcDbSpline
 62
7
  6
BYLAYER
 70
0
 71
3
 72
11
 73
7
 74
0
 42
0.0000001
 43
0.0000001
 44
0.0000000001
 40
0.0
 40
0.0
 40
0.0
 40
0.0
 40
0.2500022938
 40
0.5000026912
 40
0.7500024826
 40
1.0
 40
1.0
 40
1.0
 40
1.0
 10
57.1008083684
 20
58.9337354938
 30
0.0
 10
57.1963358883
 20
58.5742953875
 30
0.0
 10
57.3702483151
 20
57.8506773626
 30
0.0
 10
57.5683897748
 20
56.7519440036
 30
0.0
 10
57.6929434093
 20
55.6422886975
 30
0.0
 10
57.7213160047
 20
54.8981686944
 30
0.0
 10
57.7213160047
 20
54.5262582057
 30
0.0
  0
SPLINE
  5
2CB
100
AcDbEntity
  8
0
100
AcDbSpline
 62
7
  6
BYLAYER
 70
0
 71
3
 72
13
 73
9
 74
0
 42
0.0000001
 43
0.0000001
 44
0.0000000001
 40
0.0
 40
0.0
 40
0.0
 40
0.0
 40
0.2606524703
 40
0.5130924323
 40
0.6365954993
 40
0.7586214316
 40
0.8795925774
 40
1.0
 40
1.0
 40
1.0
 40
1.0
 10
55.3959185642
 20
59.5837354938
 30
0.0
 10
55.2943077409
 20
59.7683917824
 30
0.0
 10
55.1083557564
 20
60.1399507288
 30
0.0
 10
54.9259474653
 20
60.6226742285
 30
0.0
 10
54.8208426435
 20
61.0116735612
 30
0.0
 10
54.763821709
 20
61.3027695127
 30
0.0
 10
54.7291169242
 20
61.5948427471
 30
0.0
 10
54.7213176666
 20
61.7901111124
 30
0.0
 10
54.7213189224
 20
61.8874741045
 30
0.0
  0
SPLINE
  5
2CC
100
AcDbEntity
  8
0
100
AcDbSpline
 62
7
  6
BYLAYER
 70
0
 71
3
 72
11
 73
7
 74
0
 42
0.0000001
 43
0.0000001
 44
0.0000000001
 40
0.0
 40
0.0
 40
0.0
 40
0.0
 40
0.2499942108
 40
0.4999900508
 40
0.7499919184
 40
1.0
 40
1.0
 40
1.0
 40
1.0
 10
54.7213160047
 20
54.5262582057
 30
0.0
 10
54.7213160047
 20
54.8981635669
 30
0.0
 10
54.749720119
 20
55.6422699986
 30
0.0
 10
54.8742139339
 20
56.7519235067
 30
0.0
 10
55.0724331178
 20
57.8506472863
 30
0.0
 10
55.2462940519
 20
58.5742872663
 30
0.0
 10
55.3418237247
 20
58.9337354938
 30
0.0
  0
SPLINE
  5
2CD
100
AcDbEntity
  8
0
100
AcDbSpline
 62
7
  6
BYLAYER
 70
0
 71
3
 72
11
 73
7
 74
0
 42
0.0000001
 43
0.0000001
 44
0.0000000001
 40
0.0
 40
0.0
 40
0.0
 40
0.0
 40
0.2500022721
 40
0.5000027068
 40
0.7500024686
 40
1.0
 40
1.0
 40
1.0
 40
1.0
 10
55.3418237227
 20
50.1187809176
 30
0.0
 10
55.2462962539
 20
50.4782208524
 30
0.0
 10
55.0724173621
 20
51.2018459859
 30
0.0
 10
54.8742287826
 20
52.3005704002
 30
0.0
 10
54.7497098437
 20
53.4102296286
 30
0.0
 10
54.7213160047
 20
54.1543478426
 30
0.0
 10
54.7213160047
 20
54.5262582057
 30
0.0
  0
SPLINE
  5
2CE
100
AcDbEntity
  8
0
100
AcDbSpline
 62
7
  6
BYLAYER
 70
0
 71
3
 72
13
 73
9
 74
0
 42
0.0000001
 43
0.0000001
 44
0.0000000001
 40
0.0
 40
0.0
 40
0.0
 40
0.0
 40
0.1204073448
 40
0.241378196
 40
0.3634046441
 40
0.4869092234
 40
0.7393494649
 40
1.0
 40
1.0
 40
1.0
 40
1.0
 10
54.7213189249
 20
47.1650422809
 30
0.0
 10
54.7213186107
 20
47.2624052039
 30
0.0
 10
54.7291083752
 20
47.4576733103
 30
0.0
 10
54.7638029346
 20
47.749748277
 30
0.0
 10
54.8208327907
 20
48.0408444635
 30
0.0
 10
54.9259702193
 20
48.4298367236
 30
0.0
 10
55.1083701157
 20
48.9125609008
 30
0.0
 10
55.2943083947
 20
49.2841260117
 30
0.0
 10
55.3959184573
 20
49.4687809176
 30
0.0
  0
SPLINE
  5
2CF
100
AcDbEntity
  8
0
100
AcDbSpline
 62
7
  6
BYLAYER
 70
0
 71
3
 72
11
 73
7
 74
0
 42
0.0000001
 43
0.0000001
 44
0.0000000001
 40
0.0
 40
0.0
 40
0.0
 40
0.0
 40
0.2499941513
 40
0.4999900944
 40
0.7499919193
 40
1.0
 40
1.0
 40
1.0
 40
1.0
 10
57.7213160047
 20
54.5262582057
 30
0.0
 10
57.7213160047
 20
54.1543528127
 30
0.0
 10
57.6929256536
 20
53.410245116
 30
0.0
 10
57.5684104992
 20
52.3005940321
 30
0.0
 10
57.3702258726
 20
51.2018634289
 30
0.0
 10
57.1963380768
 20
50.4782292587
 30
0.0
 10
57.1008083684
 20
50.1187809176
 30
0.0
  0
SPLINE
  5
2D0
100
AcDbEntity
  8
0
100
AcDbSpline
 62
7
  6
BYLAYER
 70
0
 71
3
 72
13
 73
9
 74
0
 42
0.0000001
 43
0.0000001
 44
0.0000000001
 40
0.0
 40
0.0
 40
0.0
 40
0.0
 40
0.2606505647
 40
0.5130908169
 40
0.6365954003
 40
0.7586218399
 40
0.8795926661
 40
1.0
 40
1.0
 40
1.0
 40
1.0
 10
57.0467135521
 20
49.4687809176
 30
0.0
 10
57.1483236316
 20
49.2841259935
 30
0.0
 10
57.3342619546
 20
48.9125608649
 30
0.0
 10
57.5166617986
 20
48.4298366303
 30
0.0
 10
57.6217992439
 20
48.0408443685
 30
0.0
 10
57.6788290528
 20
47.7497481983
 30
0.0
 10
57.7135236849
 20
47.4576732758
 30
0.0
 10
57.7213133989
 20
47.2624051951
 30
0.0
 10
57.7213130845
 20
47.1650422809
 30
0.0
  0
SPLINE
  5
2D1
100
AcDbEntity
  8
0
100
AcDbSpline
 62
7
  6
BYLAYER
 70
0
 71
3
 72
9
 73
5
 74
0
 42
0.0000001
 43
0.0000001
 44
0.0000000001
 40
0.0
 40
0.0
 40
0.0
 40
0.0
 40
0.2456458236
 40
1.0
 40
1.0
 40
1.0
 40
1.0
 10
64.0703811991
 20
64.1537127984
 30
0.0
 10
64.0685656446
 20
64.1568578779
 30
0.0
 10
64.0610438466
 20
64.1695854018
 30
0.0
 10
64.0530135407
 20
64.1820107761
 30
0.0
 10
64.046713583
 20
64.1912127819
 30
0.0
  0
SPLINE
  5
2D2
100
AcDbEntity
  8
0
100
AcDbSpline
 62
7
  6
BYLAYER
 70
0
 71
3
 72
9
 73
5
 74
0
 42
0.0000001
 43
0.0000001
 44
0.0000000001
 40
0.0
 40
0.0
 40
0.0
 40
0.0
 40
0.2456456716
 40
1.0
 40
1.0
 40
1.0
 40
1.0
 10
62.3722510063
 20
44.8988036153
 30
0.0
 10
62.3740665428
 20
44.895658536
 30
0.0
 10
62.3815882677
 20
44.8829310021
 30
0.0
 10
62.3896185125
 20
44.8705056201
 30
0.0
 10
62.3959184585
 20
44.8613036295
 30
0.0
  0
LINE
  5
2D3
100
AcDbEntity
  8
0
100
AcDbLine
 62
7
  6
BYLAYER
 10
61.2496399666
 20
53.2688606205
 11
61.4776068825
 21
53.5247104839
  0
LINE
  5
2D4
100
AcDbEntity
  8
0
100
AcDbLine
 62
7
  6
BYLAYER
 10
61.2496399666
 20
48.8036524734
 11
61.303696984
 21
48.8785919609
  0
LINE
  5
2D5
100
AcDbEntity
  8
0
100
AcDbLine
 62
7
  6
BYLAYER
 10
61.2496399666
 20
53.2688606205
 11
61.0213160047
 21
53.0330299829
  0
LINE
  5
2D6
100
AcDbEntity
  8
0
100
AcDbLine
 62
7
  6
BYLAYER
 10
61.5066300203
 20
54.859903568
 11
61.2496399666
 21
55.1279405171
  0
SPLINE
  5
2D7
100
AcDbEntity
  8
0
100
AcDbSpline
 62
7
  6
BYLAYER
 70
0
 71
3
 72
9
 73
5
 74
0
 42
0.0000001
 43
0.0000001
 44
0.0000000001
 40
0.0
 40
0.0
 40
0.0
 40
0.0
 40
0.2544694054
 40
1.0
 40
1.0
 40
1.0
 40
1.0
 10
62.3959184573
 20
64.1912127819
 30
0.0
 10
62.3937932805
 20
64.1881086509
 30
0.0
 10
62.3855516673
 20
64.175835615
 30
0.0
 10
62.3777611055
 20
64.1632580179
 30
0.0
 10
62.3722510065
 20
64.1537127961
 30
0.0
  0
LINE
  5
2D8
100
AcDbEntity
  8
0
100
AcDbLine
 62
7
  6
BYLAYER
 10
61.2496399666
 20
55.1279405171
 11
61.0213160047
 21
55.3592341797
  0
LINE
  5
2D9
100
AcDbEntity
  8
0
100
AcDbLine
 62
7
  6
BYLAYER
 10
61.0213160047
 20
54.3677796127
 11
61.1776813326
 21
54.5262582333
  0
LINE
  5
2DA
100
AcDbEntity
  8
0
100
AcDbLine
 62
7
  6
BYLAYER
 10
61.1776813326
 20
54.5262582333
 11
61.5213160047
 21
54.8740239076
  0
SPLINE
  5
2DB
100
AcDbEntity
  8
0
100
AcDbSpline
 62
7
  6
BYLAYER
 70
0
 71
3
 72
9
 73
5
 74
0
 42
0.0000001
 43
0.0000001
 44
0.0000000001
 40
0.0
 40
0.0
 40
0.0
 40
0.0
 40
0.2544691143
 40
1.0
 40
1.0
 40
1.0
 40
1.0
 10
64.0467135818
 20
44.8613036295
 30
0.0
 10
64.0488387607
 20
44.8644077628
 30
0.0
 10
64.0570804061
 20
44.8766808114
 30
0.0
 10
64.0648710468
 20
44.8892583925
 30
0.0
 10
64.0703811999
 20
44.898803613
 30
0.0
  0
SPLINE
  5
2DC
100
AcDbEntity
  8
0
100
AcDbSpline
 62
7
  6
BYLAYER
 70
0
 71
3
 72
11
 73
7
 74
0
 42
0.0000001
 43
0.0000001
 44
0.0000000001
 40
0.0
 40
0.0
 40
0.0
 40
0.0
 40
0.2499941513
 40
0.4999900944
 40
0.7499919193
 40
1.0
 40
1.0
 40
1.0
 40
1.0
 10
61.7213160047
 20
54.5262582057
 30
0.0
 10
61.7213160047
 20
54.8981635987
 30
0.0
 10
61.7497063557
 20
55.6422712954
 30
0.0
 10
61.8742215102
 20
56.7519223793
 30
0.0
 10
62.0724061368
 20
57.8506529825
 30
0.0
 10
62.2462939326
 20
58.5742871527
 30
0.0
 10
62.341823641
 20
58.9337354938
 30
0.0
  0
SPLINE
  5
2DD
100
AcDbEntity
  8
0
100
AcDbSpline
 62
7
  6
BYLAYER
 70
0
 71
3
 72
13
 73
9
 74
0
 42
0.0000001
 43
0.0000001
 44
0.0000000001
 40
0.0
 40
0.0
 40
0.0
 40
0.0
 40
0.2606505638
 40
0.5130908164
 40
0.6365954003
 40
0.7586218401
 40
0.8795926661
 40
1.0
 40
1.0
 40
1.0
 40
1.0
 10
62.3959184585
 20
59.5837354938
 30
0.0
 10
62.2943083787
 20
59.7683904183
 30
0.0
 10
62.1083700638
 20
60.1399555535
 30
0.0
 10
61.9259702157
 20
60.622679789
 30
0.0
 10
61.8208327594
 20
61.0116720515
 30
0.0
 10
61.7638029482
 20
61.3027682236
 30
0.0
 10
61.7291083202
 20
61.5948431486
 30
0.0
 10
61.7213186101
 20
61.7901112304
 30
0.0
 10
61.7213189249
 20
61.8874741452
 30
0.0
  0
SPLINE
  5
2DE
100
AcDbEntity
  8
0
100
AcDbSpline
 62
7
  6
BYLAYER
 70
0
 71
3
 72
11
 73
7
 74
0
 42
0.0000001
 43
0.0000001
 44
0.0000000001
 40
0.0
 40
0.0
 40
0.0
 40
0.0
 40
0.2500022721
 40
0.5000027068
 40
0.7500024686
 40
1.0
 40
1.0
 40
1.0
 40
1.0
 10
64.1008082867
 20
58.9337354938
 30
0.0
 10
64.1963357554
 20
58.574295559
 30
0.0
 10
64.3702146472
 20
57.8506704255
 30
0.0
 10
64.5684032268
 20
56.7519460112
 30
0.0
 10
64.6929221657
 20
55.6422867828
 30
0.0
 10
64.7213160047
 20
54.8981685688
 30
0.0
 10
64.7213160047
 20
54.5262582057
 30
0.0
  0
SPLINE
  5
2DF
100
AcDbEntity
  8
0
100
AcDbSpline
 62
7
  6
BYLAYER
 70
0
 71
3
 72
13
 73
9
 74
0
 42
0.0000001
 43
0.0000001
 44
0.0000000001
 40
0.0
 40
0.0
 40
0.0
 40
0.0
 40
0.1204074335
 40
0.2413786046
 40
0.3634045453
 40
0.4869076091
 40
0.7393475591
 40
1.0
 40
1.0
 40
1.0
 40
1.0
 10
64.721313087
 20
61.8874741045
 30
0.0
 10
64.721314342
 20
61.7901111037
 30
0.0
 10
64.7135150343
 20
61.5948427124
 30
0.0
 10
64.6788103194
 20
61.3027694344
 30
0.0
 10
64.6217893447
 20
61.0116734639
 30
0.0
 10
64.5166845146
 20
60.6226741405
 30
0.0
 10
64.3342761987
 20
60.13995069
 30
0.0
 10
64.148324257
 20
59.7683917614
 30
0.0
 10
64.0467134452
 20
59.5837354938
 30
0.0
  0
SPLINE
  5
2E0
100
AcDbEntity
  8
0
100
AcDbSpline
 62
7
  6
BYLAYER
 70
0
 71
3
 72
13
 73
9
 74
0
 42
0.0000001
 43
0.0000001
 44
0.0000000001
 40
0.0
 40
0.0
 40
0.0
 40
0.0
 40
0.1204073448
 40
0.241378196
 40
0.3634046441
 40
0.4869092234
 40
0.7393494649
 40
1.0
 40
1.0
 40
1.0
 40
1.0
 10
61.7213189249
 20
61.8874741452
 30
0.0
 10
61.7213186107
 20
61.9848370683
 30
0.0
 10
61.7291083752
 20
62.1801051747
 30
0.0
 10
61.7638029346
 20
62.4721801413
 30
0.0
 10
61.8208327909
 20
62.7632763278
 30
0.0
 10
61.9259702185
 20
63.1522685883
 30
0.0
 10
62.1083701193
 20
63.6349927634
 30
0.0
 10
62.2943083895
 20
64.006557879
 30
0.0
 10
62.3959184573
 20
64.1912127819
 30
0.0
  0
SPLINE
  5
2E1
100
AcDbEntity
  8
0
100
AcDbSpline
 62
7
  6
BYLAYER
 70
0
 71
3
 72
13
 73
9
 74
0
 42
0.0000001
 43
0.0000001
 44
0.0000000001
 40
0.0
 40
0.0
 40
0.0
 40
0.0
 40
0.2606524721
 40
0.5130924331
 40
0.6365954991
 40
0.7586214311
 40
0.8795925772
 40
1.0
 40
1.0
 40
1.0
 40
1.0
 10
64.046713446
 20
64.1912127819
 30
0.0
 10
64.1483242727
 20
64.006556487
 30
0.0
 10
64.3342762775
 20
63.6349975376
 30
0.0
 10
64.5166845615
 20
63.152274019
 30
0.0
 10
64.6217893653
 20
62.7632746723
 30
0.0
 10
64.6788102904
 20
62.4721787118
 30
0.0
 10
64.7135150808
 20
62.1801054704
 30
0.0
 10
64.7213143445
 20
61.9848370994
 30
0.0
 10
64.721313087
 20
61.8874741045
 30
0.0
  0
SPLINE
  5
2E2
100
AcDbEntity
  8
0
100
AcDbSpline
 62
7
  6
BYLAYER
 70
0
 71
3
 72
13
 73
9
 74
0
 42
0.0000001
 43
0.0000001
 44
0.0000000001
 40
0.0
 40
0.0
 40
0.0
 40
0.0
 40
0.2606505638
 40
0.5130908164
 40
0.6365954003
 40
0.7586218401
 40
0.8795926661
 40
1.0
 40
1.0
 40
1.0
 40
1.0
 10
62.3959184585
 20
44.8613036295
 30
0.0
 10
62.2943083787
 20
45.045958554
 30
0.0
 10
62.1083700638
 20
45.4175236891
 30
0.0
 10
61.9259702157
 20
45.9002479247
 30
0.0
 10
61.8208327594
 20
46.2892401872
 30
0.0
 10
61.7638029482
 20
46.5803363593
 30
0.0
 10
61.7291083202
 20
46.8724112842
 30
0.0
 10
61.7213186101
 20
47.0676793661
 30
0.0
 10
61.7213189249
 20
47.1650422809
 30
0.0
  0
SPLINE
  5
2E3
100
AcDbEntity
  8
0
100
AcDbSpline
 62
7
  6
BYLAYER
 70
0
 71
3
 72
13
 73
9
 74
0
 42
0.0000001
 43
0.0000001
 44
0.0000000001
 40
0.0
 40
0.0
 40
0.0
 40
0.0
 40
0.1204073448
 40
0.2413781958
 40
0.3634046441
 40
0.4869092239
 40
0.7393494659
 40
1.0
 40
1.0
 40
1.0
 40
1.0
 10
64.7213130845
 20
47.1650422809
 30
0.0
 10
64.7213133991
 20
47.0676793573
 30
0.0
 10
64.7135236384
 20
46.8724112497
 30
0.0
 10
64.6788290832
 20
46.5803362807
 30
0.0
 10
64.6217992247
 20
46.2892400921
 30
0.0
 10
64.5166617852
 20
45.9002478314
 30
0.0
 10
64.3342618846
 20
45.4175236532
 30
0.0
 10
64.1483236138
 20
45.0459585358
 30
0.0
 10
64.0467135509
 20
44.8613036295
 30
0.0
  0
SPLINE
  5
2E4
100
AcDbEntity
  8
0
100
AcDbSpline
 62
7
  6
BYLAYER
 70
0
 71
3
 72
11
 73
7
 74
0
 42
0.0000001
 43
0.0000001
 44
0.0000000001
 40
0.0
 40
0.0
 40
0.0
 40
0.0
 40
0.2500022938
 40
0.5000026912
 40
0.7500024826
 40
1.0
 40
1.0
 40
1.0
 40
1.0
 10
62.341823641
 20
50.1187809176
 30
0.0
 10
62.2462961211
 20
50.4782210239
 30
0.0
 10
62.0723836943
 20
51.2018390488
 30
0.0
 10
61.8742422346
 20
52.3005724078
 30
0.0
 10
61.7496886001
 20
53.4102277139
 30
0.0
 10
61.7213160047
 20
54.154347717
 30
0.0
 10
61.7213160047
 20
54.5262582057
 30
0.0
  0
SPLINE
  5
2E5
100
AcDbEntity
  8
0
100
AcDbSpline
 62
7
  6
BYLAYER
 70
0
 71
3
 72
13
 73
9
 74
0
 42
0.0000001
 43
0.0000001
 44
0.0000000001
 40
0.0
 40
0.0
 40
0.0
 40
0.0
 40
0.1204073448
 40
0.241378196
 40
0.3634046441
 40
0.4869092234
 40
0.7393494649
 40
1.0
 40
1.0
 40
1.0
 40
1.0
 10
61.7213189249
 20
47.1650422809
 30
0.0
 10
61.7213186107
 20
47.2624052039
 30
0.0
 10
61.7291083752
 20
47.4576733103
 30
0.0
 10
61.7638029346
 20
47.749748277
 30
0.0
 10
61.8208327909
 20
48.0408444634
 30
0.0
 10
61.9259702185
 20
48.429836724
 30
0.0
 10
62.1083701193
 20
48.9125608991
 30
0.0
 10
62.2943083895
 20
49.2841260147
 30
0.0
 10
62.3959184573
 20
49.4687809176
 30
0.0
  0
SPLINE
  5
2E6
100
AcDbEntity
  8
0
100
AcDbSpline
 62
7
  6
BYLAYER
 70
0
 71
3
 72
11
 73
7
 74
0
 42
0.0000001
 43
0.0000001
 44
0.0000000001
 40
0.0
 40
0.0
 40
0.0
 40
0.0
 40
0.2499942108
 40
0.4999900508
 40
0.7499919184
 40
1.0
 40
1.0
 40
1.0
 40
1.0
 10
64.7213160047
 20
54.5262582057
 30
0.0
 10
64.7213160047
 20
54.1543528445
 30
0.0
 10
64.6929118904
 20
53.4102464128
 30
0.0
 10
64.5684180755
 20
52.3005929047
 30
0.0
 10
64.3701988916
 20
51.2018691251
 30
0.0
 10
64.1963379574
 20
50.4782291451
 30
0.0
 10
64.1008082847
 20
50.1187809176
 30
0.0
  0
SPLINE
  5
2E7
100
AcDbEntity
  8
0
100
AcDbSpline
 62
7
  6
BYLAYER
 70
0
 71
3
 72
13
 73
9
 74
0
 42
0.0000001
 43
0.0000001
 44
0.0000000001
 40
0.0
 40
0.0
 40
0.0
 40
0.0
 40
0.2606505648
 40
0.5130908169
 40
0.6365954003
 40
0.7586218399
 40
0.8795926661
 40
1.0
 40
1.0
 40
1.0
 40
1.0
 10
64.046713552
 20
49.4687809176
 30
0.0
 10
64.1483236263
 20
49.2841259905
 30
0.0
 10
64.3342619582
 20
48.9125608667
 30
0.0
 10
64.5166617979
 20
48.42983663
 30
0.0
 10
64.621799244
 20
48.0408443685
 30
0.0
 10
64.6788290528
 20
47.7497481983
 30
0.0
 10
64.7135236849
 20
47.4576732758
 30
0.0
 10
64.7213133989
 20
47.2624051951
 30
0.0
 10
64.7213130845
 20
47.1650422809
 30
0.0
  0
ELLIPSE
  5
2E8
100
AcDbEntity
  8
0
100
AcDbEllipse
 62
7
  6
BYLAYER
 10
55.683676633
 20
52.3088700034
 30
0.0
 11
8.333433108
 21
8.3279952762
 31
0.0
 40
0.0649774206
 41
-1.3643765566
 42
-1.3016426579
  0
ELLIPSE
  5
2E9
100
AcDbEntity
  8
0
100
AcDbEllipse
 62
7
  6
BYLAYER
 10
55.683676633
 20
52.3981367001
 30
0.0
 11
8.2557716223
 21
8.2260681246
 31
0.0
 40
0.1528608948
 41
-1.450681815
 42
-1.3879479163
  0
ELLIPSE
  5
2EA
100
AcDbEntity
  8
0
100
AcDbEllipse
 62
7
  6
BYLAYER
 10
55.683676633
 20
52.5558029731
 30
0.0
 11
8.117466273
 21
8.0434984904
 31
0.0
 40
0.2438041777
 41
-1.536573414
 42
-1.4738395153
  0
ELLIPSE
  5
2EB
100
AcDbEntity
  8
0
100
AcDbEllipse
 62
7
  6
BYLAYER
 10
55.683676633
 20
52.7768012985
 30
0.0
 11
7.9214559825
 21
7.7813255478
 31
0.0
 40
0.3397569986
 41
-1.6216551135
 42
-1.5589212148
  0
ELLIPSE
  5
2EC
100
AcDbEntity
  8
0
100
AcDbEllipse
 62
7
  6
BYLAYER
 10
55.683676633
 20
53.0540286084
 30
0.0
 11
7.6732594207
 21
7.439498634
 31
0.0
 40
0.4429672902
 41
-1.7051854317
 42
-1.642451533
  0
ELLIPSE
  5
2ED
100
AcDbEntity
  8
0
100
AcDbEllipse
 62
7
  6
BYLAYER
 10
55.683676633
 20
53.3785745889
 30
0.0
 11
7.3841983811
 21
7.0131458112
 31
0.0
 40
0.5561450433
 41
-1.7854840708
 42
-1.7227501721
  0
ELLIPSE
  5
2EE
100
AcDbEntity
  8
0
100
AcDbEllipse
 62
7
  6
BYLAYER
 10
55.683676633
 20
53.7400080651
 30
0.0
 11
7.084000063
 21
6.4779641088
 31
0.0
 40
0.6826531162
 41
-1.8575939396
 42
-1.7948600409
  0
ELLIPSE
  5
2EF
100
AcDbEntity
  8
0
100
AcDbEllipse
 62
7
  6
BYLAYER
 10
55.683676633
 20
54.1267122678
 30
0.0
 11
6.9023799451
 21
5.6884471334
 31
0.0
 40
0.8263497679
 41
-1.8974052139
 42
-1.8346713152
  0
ELLIPSE
  5
2F0
100
AcDbEntity
  8
0
100
AcDbEllipse
 62
7
  6
BYLAYER
 10
55.683676633
 20
56.7077952865
 30
0.0
 11
8.3023008481
 21
-8.2871775495
 31
0.0
 40
0.108650535
 41
1.344829064
 42
1.4075629627
  0
ELLIPSE
  5
2F1
100
AcDbEntity
  8
0
100
AcDbEllipse
 62
7
  6
BYLAYER
 10
55.683676633
 20
56.5838297529
 30
0.0
 11
8.1940587861
 21
-8.1447938309
 31
0.0
 40
0.1978335621
 41
1.4309653653
 42
1.493699264
  0
ELLIPSE
  5
2F2
100
AcDbEntity
  8
0
100
AcDbEllipse
 62
7
  6
BYLAYER
 10
55.683676633
 20
56.3937321768
 30
0.0
 11
8.0264104398
 21
-7.9223157113
 31
0.0
 40
0.2910225948
 41
1.5165160115
 42
1.5792499103
  0
ELLIPSE
  5
2F3
100
AcDbEntity
  8
0
100
AcDbEllipse
 62
7
  6
BYLAYER
 10
55.683676633
 20
56.1436124506
 30
0.0
 11
7.8033763488
 21
-7.6204835111
 31
0.0
 40
0.3902986392
 41
1.6009510273
 42
1.663684926
  0
ELLIPSE
  5
2F4
100
AcDbEntity
  8
0
100
AcDbEllipse
 62
7
  6
BYLAYER
 10
55.683676633
 20
55.8415096283
 30
0.0
 11
7.5327025616
 21
-7.2376102948
 31
0.0
 40
0.4981174544
 41
1.6831832728
 42
1.7459171715
  0
ELLIPSE
  5
2F5
100
AcDbEntity
  8
0
100
AcDbEllipse
 62
7
  6
BYLAYER
 10
55.683676633
 20
54.5262582057
 30
0.0
 11
8.3509838241
 21
-0.0
 31
0.0
 40
0.963433044
 41
-1.2995325731
 42
-1.2367986744
  0
ELLIPSE
  5
2F6
100
AcDbEntity
  8
0
100
AcDbEllipse
 62
7
  6
BYLAYER
 10
55.683676633
 20
55.4971335431
 30
0.0
 11
7.2319691818
 21
-6.7625506865
 31
0.0
 40
0.6174932746
 41
1.7604441387
 42
1.8231780374
  0
ELLIPSE
  5
2F7
100
AcDbEntity
  8
0
100
AcDbEllipse
 62
7
  6
BYLAYER
 10
55.683676633
 20
55.1215527256
 30
0.0
 11
6.9578857343
 21
-6.1399374695
 31
0.0
 40
0.7521396115
 41
1.8227587284
 42
1.8854926271
  0
ELLIPSE
  5
2F8
100
AcDbEntity
  8
0
100
AcDbEllipse
 62
7
  6
BYLAYER
 10
55.683676633
 20
54.7268386525
 30
0.0
 11
7.1167322142
 21
-4.8305503843
 31
0.0
 40
0.9045203251
 41
1.7874137859
 42
1.8501476846
  0
ELLIPSE
  5
2F9
100
AcDbEntity
  8
0
100
AcDbEllipse
 62
7
  6
BYLAYER
 10
55.683676633
 20
52.6587842346
 30
0.0
 11
8.0264104398
 21
7.9223157113
 31
0.0
 40
0.2910225948
 41
0.9570813372
 42
1.0198152359
  0
ELLIPSE
  5
2FA
100
AcDbEntity
  8
0
100
AcDbEllipse
 62
7
  6
BYLAYER
 10
55.683676633
 20
52.4686866585
 30
0.0
 11
8.1940587861
 21
8.1447938309
 31
0.0
 40
0.1978335621
 41
1.0426319834
 42
1.1053658821
  0
ELLIPSE
  5
2FB
100
AcDbEntity
  8
0
100
AcDbEllipse
 62
7
  6
BYLAYER
 10
55.683676633
 20
52.3447211248
 30
0.0
 11
8.3023008481
 21
8.2871775495
 31
0.0
 40
0.108650535
 41
1.1287682847
 42
1.1915021834
  0
ELLIPSE
  5
2FC
100
AcDbEntity
  8
0
100
AcDbEllipse
 62
7
  6
BYLAYER
 10
55.683676633
 20
52.290871988
 30
0.0
 11
8.3490323781
 21
8.3484285061
 31
0.0
 40
0.0216237981
 41
1.2151798089
 42
1.2779137076
  0
ELLIPSE
  5
2FD
100
AcDbEntity
  8
0
100
AcDbEllipse
 62
7
  6
BYLAYER
 10
55.683676633
 20
54.3256777588
 30
0.0
 11
7.1167322142
 21
4.8305503843
 31
0.0
 40
0.9045203251
 41
0.6861835629
 42
0.7489174616
  0
ELLIPSE
  5
2FE
100
AcDbEntity
  8
0
100
AcDbEllipse
 62
7
  6
BYLAYER
 10
55.683676633
 20
53.9309636857
 30
0.0
 11
6.9578857343
 21
6.1399374695
 31
0.0
 40
0.7521396115
 41
0.6508386203
 42
0.713572519
  0
ELLIPSE
  5
2FF
100
AcDbEntity
  8
0
100
AcDbEllipse
 62
7
  6
BYLAYER
 10
55.683676633
 20
56.743646408
 30
0.0
 11
8.333433108
 21
-8.3279952762
 31
0.0
 40
0.0649774206
 41
-1.2346885895
 42
-1.1719546908
  0
ELLIPSE
  5
300
100
AcDbEntity
  8
0
100
AcDbEllipse
 62
7
  6
BYLAYER
 10
55.683676633
 20
56.6543797112
 30
0.0
 11
8.2557716223
 21
-8.2260681246
 31
0.0
 40
0.1528608948
 41
-1.1483833311
 42
-1.0856494324
  0
ELLIPSE
  5
301
100
AcDbEntity
  8
0
100
AcDbEllipse
 62
7
  6
BYLAYER
 10
55.683676633
 20
56.4967134383
 30
0.0
 11
8.117466273
 21
-8.0434984904
 31
0.0
 40
0.2438041777
 41
-1.0624917322
 42
-0.9997578335
  0
ELLIPSE
  5
302
100
AcDbEntity
  8
0
100
AcDbEllipse
 62
7
  6
BYLAYER
 10
55.683676633
 20
56.2757151129
 30
0.0
 11
7.9214559825
 21
-7.7813255478
 31
0.0
 40
0.3397569986
 41
-0.9774100326
 42
-0.9146761339
  0
ELLIPSE
  5
303
100
AcDbEntity
  8
0
100
AcDbEllipse
 62
7
  6
BYLAYER
 10
55.683676633
 20
55.998487803
 30
0.0
 11
7.6732594207
 21
-7.439498634
 31
0.0
 40
0.4429672902
 41
-0.8938797144
 42
-0.8311458157
  0
ELLIPSE
  5
304
100
AcDbEntity
  8
0
100
AcDbEllipse
 62
7
  6
BYLAYER
 10
55.683676633
 20
55.6739418225
 30
0.0
 11
7.3841983811
 21
-7.0131458112
 31
0.0
 40
0.5561450433
 41
-0.8135810753
 42
-0.7508471766
  0
ELLIPSE
  5
305
100
AcDbEntity
  8
0
100
AcDbEllipse
 62
7
  6
BYLAYER
 10
55.683676633
 20
55.3125083463
 30
0.0
 11
7.084000063
 21
-6.4779641088
 31
0.0
 40
0.6826531162
 41
-0.7414712065
 42
-0.6787373078
  0
ELLIPSE
  5
306
100
AcDbEntity
  8
0
100
AcDbEllipse
 62
7
  6
BYLAYER
 10
55.683676633
 20
54.9258041436
 30
0.0
 11
6.9023799451
 21
-5.6884471334
 31
0.0
 40
0.8263497679
 41
-0.7016599322
 42
-0.6389260335
  0
ELLIPSE
  5
307
100
AcDbEntity
  8
0
100
AcDbEllipse
 62
7
  6
BYLAYER
 10
55.683676633
 20
53.5553828683
 30
0.0
 11
7.2319691818
 21
6.7625506865
 31
0.0
 40
0.6174932746
 41
0.71315321
 42
0.7758871087
  0
ELLIPSE
  5
308
100
AcDbEntity
  8
0
100
AcDbEllipse
 62
7
  6
BYLAYER
 10
55.683676633
 20
53.2110067831
 30
0.0
 11
7.5327025616
 21
7.2376102948
 31
0.0
 40
0.4981174544
 41
0.7904140759
 42
0.8531479746
  0
ELLIPSE
  5
309
100
AcDbEntity
  8
0
100
AcDbEllipse
 62
7
  6
BYLAYER
 10
55.683676633
 20
52.9089039607
 30
0.0
 11
7.8033763488
 21
7.6204835111
 31
0.0
 40
0.3902986392
 41
0.8726463214
 42
0.9353802201
  0
ELLIPSE
  5
30A
100
AcDbEntity
  8
0
100
AcDbEllipse
 62
7
  6
BYLAYER
 10
63.7589553764
 20
54.1267122678
 30
0.0
 11
6.9023799451
 21
-5.6884471334
 31
0.0
 40
0.8263497679
 41
-1.3069213383
 42
-1.2441874396
  0
ELLIPSE
  5
30B
100
AcDbEntity
  8
0
100
AcDbEllipse
 62
7
  6
BYLAYER
 10
63.7589553764
 20
53.7400080651
 30
0.0
 11
7.084000063
 21
-6.4779641088
 31
0.0
 40
0.6826531162
 41
-1.3467326127
 42
-1.283998714
  0
ELLIPSE
  5
30C
100
AcDbEntity
  8
0
100
AcDbEllipse
 62
7
  6
BYLAYER
 10
63.7589553764
 20
53.3785745889
 30
0.0
 11
7.3841983811
 21
-7.0131458112
 31
0.0
 40
0.5561450433
 41
-1.4188424815
 42
-1.3561085828
  0
ELLIPSE
  5
30D
100
AcDbEntity
  8
0
100
AcDbEllipse
 62
7
  6
BYLAYER
 10
63.7589553764
 20
53.0540286084
 30
0.0
 11
7.6732594207
 21
-7.439498634
 31
0.0
 40
0.4429672902
 41
-1.4991411205
 42
-1.4364072218
  0
ELLIPSE
  5
30E
100
AcDbEntity
  8
0
100
AcDbEllipse
 62
7
  6
BYLAYER
 10
63.7589553764
 20
52.7768012985
 30
0.0
 11
7.9214559825
 21
-7.7813255478
 31
0.0
 40
0.3397569986
 41
-1.5826714388
 42
-1.5199375401
  0
ELLIPSE
  5
30F
100
AcDbEntity
  8
0
100
AcDbEllipse
 62
7
  6
BYLAYER
 10
63.7589553764
 20
52.5558029731
 30
0.0
 11
8.117466273
 21
-8.0434984904
 31
0.0
 40
0.2438041777
 41
-1.6677531383
 42
-1.6050192396
  0
ELLIPSE
  5
310
100
AcDbEntity
  8
0
100
AcDbEllipse
 62
7
  6
BYLAYER
 10
63.7589553764
 20
52.3981367001
 30
0.0
 11
8.2557716223
 21
-8.2260681246
 31
0.0
 40
0.1528608948
 41
-1.7536447373
 42
-1.6909108386
  0
ELLIPSE
  5
311
100
AcDbEntity
  8
0
100
AcDbEllipse
 62
7
  6
BYLAYER
 10
63.7589553764
 20
52.3088700034
 30
0.0
 11
8.333433108
 21
-8.3279952762
 31
0.0
 40
0.0649774206
 41
-1.8399499957
 42
-1.777216097
  0
ELLIPSE
  5
312
100
AcDbEntity
  8
0
100
AcDbEllipse
 62
7
  6
BYLAYER
 10
63.7589553764
 20
54.5262582057
 30
0.0
 11
8.3509838241
 21
-0.0
 31
0.0
 40
0.963433044
 41
4.378391328
 42
4.4411252267
  0
ELLIPSE
  5
313
100
AcDbEntity
  8
0
100
AcDbEllipse
 62
7
  6
BYLAYER
 10
63.7589553764
 20
54.7268386525
 30
0.0
 11
7.1167322142
 21
4.8305503843
 31
0.0
 40
0.9045203251
 41
1.291444969
 42
1.3541788677
  0
ELLIPSE
  5
314
100
AcDbEntity
  8
0
100
AcDbEllipse
 62
7
  6
BYLAYER
 10
63.7589553764
 20
55.1215527256
 30
0.0
 11
6.9578857343
 21
6.1399374695
 31
0.0
 40
0.7521396115
 41
1.2561000265
 42
1.3188339252
  0
ELLIPSE
  5
315
100
AcDbEntity
  8
0
100
AcDbEllipse
 62
7
  6
BYLAYER
 10
63.7589553764
 20
55.4971335431
 30
0.0
 11
7.2319691818
 21
6.7625506865
 31
0.0
 40
0.6174932746
 41
1.3184146161
 42
1.3811485149
  0
ELLIPSE
  5
316
100
AcDbEntity
  8
0
100
AcDbEllipse
 62
7
  6
BYLAYER
 10
63.7589553764
 20
55.8415096283
 30
0.0
 11
7.5327025616
 21
7.2376102948
 31
0.0
 40
0.4981174544
 41
1.3956754821
 42
1.4584093808
  0
ELLIPSE
  5
317
100
AcDbEntity
  8
0
100
AcDbEllipse
 62
7
  6
BYLAYER
 10
63.7589553764
 20
56.1436124506
 30
0.0
 11
7.8033763488
 21
7.6204835111
 31
0.0
 40
0.3902986392
 41
1.4779077276
 42
1.5406416263
  0
ELLIPSE
  5
318
100
AcDbEntity
  8
0
100
AcDbEllipse
 62
7
  6
BYLAYER
 10
63.7589553764
 20
56.3937321768
 30
0.0
 11
8.0264104398
 21
7.9223157113
 31
0.0
 40
0.2910225948
 41
1.5623427433
 42
1.625076642
  0
ELLIPSE
  5
319
100
AcDbEntity
  8
0
100
AcDbEllipse
 62
7
  6
BYLAYER
 10
63.7589553764
 20
56.5838297529
 30
0.0
 11
8.1940587861
 21
8.1447938309
 31
0.0
 40
0.1978335621
 41
1.6478933896
 42
1.7106272883
  0
ELLIPSE
  5
31A
100
AcDbEntity
  8
0
100
AcDbEllipse
 62
7
  6
BYLAYER
 10
63.7589553764
 20
56.7077952865
 30
0.0
 11
8.3023008481
 21
8.2871775495
 31
0.0
 40
0.108650535
 41
1.7340296909
 42
1.7967635896
  0
ELLIPSE
  5
31B
100
AcDbEntity
  8
0
100
AcDbEllipse
 62
7
  6
BYLAYER
 10
63.7589553764
 20
54.9258041436
 30
0.0
 11
6.9023799451
 21
5.6884471334
 31
0.0
 40
0.8263497679
 41
-2.5026666201
 42
-2.4399327214
  0
ELLIPSE
  5
31C
100
AcDbEntity
  8
0
100
AcDbEllipse
 62
7
  6
BYLAYER
 10
63.7589553764
 20
55.3125083463
 30
0.0
 11
7.084000063
 21
6.4779641088
 31
0.0
 40
0.6826531162
 41
-2.4628553458
 42
-2.4001214471
  0
ELLIPSE
  5
31D
100
AcDbEntity
  8
0
100
AcDbEllipse
 62
7
  6
BYLAYER
 10
63.7589553764
 20
55.6739418225
 30
0.0
 11
7.3841983811
 21
7.0131458112
 31
0.0
 40
0.5561450433
 41
-2.390745477
 42
-2.3280115783
  0
ELLIPSE
  5
31E
100
AcDbEntity
  8
0
100
AcDbEllipse
 62
7
  6
BYLAYER
 10
63.7589553764
 20
55.998487803
 30
0.0
 11
7.6732594207
 21
7.439498634
 31
0.0
 40
0.4429672902
 41
-2.3104468379
 42
-2.2477129392
  0
ELLIPSE
  5
31F
100
AcDbEntity
  8
0
100
AcDbEllipse
 62
7
  6
BYLAYER
 10
63.7589553764
 20
56.2757151129
 30
0.0
 11
7.9214559825
 21
7.7813255478
 31
0.0
 40
0.3397569986
 41
-2.2269165197
 42
-2.164182621
  0
ELLIPSE
  5
320
100
AcDbEntity
  8
0
100
AcDbEllipse
 62
7
  6
BYLAYER
 10
63.7589553764
 20
56.4967134383
 30
0.0
 11
8.117466273
 21
8.0434984904
 31
0.0
 40
0.2438041777
 41
-2.1418348201
 42
-2.0791009214
  0
ELLIPSE
  5
321
100
AcDbEntity
  8
0
100
AcDbEllipse
 62
7
  6
BYLAYER
 10
63.7589553764
 20
56.6543797112
 30
0.0
 11
8.2557716223
 21
8.2260681246
 31
0.0
 40
0.1528608948
 41
-2.0559432212
 42
-1.9932093225
  0
ELLIPSE
  5
322
100
AcDbEntity
  8
0
100
AcDbEllipse
 62
7
  6
BYLAYER
 10
63.7589553764
 20
56.743646408
 30
0.0
 11
8.333433108
 21
8.3279952762
 31
0.0
 40
0.0649774206
 41
-1.9696379628
 42
-1.9069040641
  0
ELLIPSE
  5
323
100
AcDbEntity
  8
0
100
AcDbEllipse
 62
7
  6
BYLAYER
 10
63.7589553764
 20
52.290871988
 30
0.0
 11
8.3490323781
 21
-8.3484285061
 31
0.0
 40
0.0216237981
 41
1.863678946
 42
1.9264128447
  0
ELLIPSE
  5
324
100
AcDbEntity
  8
0
100
AcDbEllipse
 62
7
  6
BYLAYER
 10
63.7589553764
 20
52.3447211248
 30
0.0
 11
8.3023008481
 21
-8.2871775495
 31
0.0
 40
0.108650535
 41
1.9500904702
 42
2.0128243689
  0
ELLIPSE
  5
325
100
AcDbEntity
  8
0
100
AcDbEllipse
 62
7
  6
BYLAYER
 10
63.7589553764
 20
52.4686866585
 30
0.0
 11
8.1940587861
 21
-8.1447938309
 31
0.0
 40
0.1978335621
 41
2.0362267715
 42
2.0989606702
  0
ELLIPSE
  5
326
100
AcDbEntity
  8
0
100
AcDbEllipse
 62
7
  6
BYLAYER
 10
63.7589553764
 20
52.6587842346
 30
0.0
 11
8.0264104398
 21
-7.9223157113
 31
0.0
 40
0.2910225948
 41
2.1217774177
 42
2.1845113164
  0
ELLIPSE
  5
327
100
AcDbEntity
  8
0
100
AcDbEllipse
 62
7
  6
BYLAYER
 10
63.7589553764
 20
52.9089039607
 30
0.0
 11
7.8033763488
 21
-7.6204835111
 31
0.0
 40
0.3902986392
 41
2.2062124334
 42
2.2689463321
  0
ELLIPSE
  5
328
100
AcDbEntity
  8
0
100
AcDbEllipse
 62
7
  6
BYLAYER
 10
63.7589553764
 20
53.2110067831
 30
0.0
 11
7.5327025616
 21
-7.2376102948
 31
0.0
 40
0.4981174544
 41
2.288444679
 42
2.3511785777
  0
ELLIPSE
  5
329
100
AcDbEntity
  8
0
100
AcDbEllipse
 62
7
  6
BYLAYER
 10
63.7589553764
 20
53.5553828683
 30
0.0
 11
7.2319691818
 21
-6.7625506865
 31
0.0
 40
0.6174932746
 41
2.3657055449
 42
2.4284394436
  0
ELLIPSE
  5
32A
100
AcDbEntity
  8
0
100
AcDbEllipse
 62
7
  6
BYLAYER
 10
63.7589553764
 20
53.9309636857
 30
0.0
 11
6.9578857343
 21
-6.1399374695
 31
0.0
 40
0.7521396115
 41
2.4280201346
 42
2.4907540333
  0
ELLIPSE
  5
32B
100
AcDbEntity
  8
0
100
AcDbEllipse
 62
7
  6
BYLAYER
 10
63.7589553764
 20
54.3256777588
 30
0.0
 11
7.1167322142
 21
-4.8305503843
 31
0.0
 40
0.9045203251
 41
2.392675192
 42
2.4554090907
  0
ENDSEC
  0
SECTION
  2
OBJECTS
  0
DICTIONARY
  5
C
100
AcDbDictionary
280
0
281
1
  3
ACAD_GROUP
350
D
  3
ACAD_MLINESTYLE
350
17
  3
ACAD_LAYOUT
350
1A
  3
ACAD_PLOTSETTINGS
350
19
  3
ACAD_PLOTSTYLENAME
350
E
  0
DICTIONARY
  5
D
102
{ACAD_REACTORS
330
C
102
}
100
AcDbDictionary
280
0
281
1
  0
ACDBDICTIONARYWDFLT
  5
E
102
{ACAD_REACTORS
330
C
102
}
100
AcDbDictionary
281
1
  3
Normal
350
F
100
AcDbDictionaryWithDefault
340
F
  0
DICTIONARY
  5
17
102
{ACAD_REACTORS
330
C
102
}
100
AcDbDictionary
280
0
281
1
  3
Standard
350
18
  0
DICTIONARY
  5
19
102
{ACAD_REACTORS
330
C
102
}
100
AcDbDictionary
281
1
  0
DICTIONARY
  5
1A
102
{ACAD_REACTORS
330
C
102
}
100
AcDbDictionary
281
1
  3
Model
350
32C
  3
Layout1
350
32D
  0
ACDBPLACEHOLDER
  5
F
102
{ACAD_REACTORS
330
E
102
}
  0
MLINESTYLE
  5
18
102
{ACAD_REACTORS
330
17
102
}
100
AcDbMlineStyle
  2
STANDARD
 70
0
  3

 62
256
 51
90.0
 52
90.0
 71
2
 49
0.5
 62
256
  6
BYLAYER
 49
-0.5
 62
256
  6
BYLAYER
  0
LAYOUT
  5
32C
102
{ACAD_REACTORS
330
1A
102
}
100
AcDbPlotSettings
  1

  2
none_device
  4

  6

 40
0.0
 41
0.0
 42
0.0
 43
0.0
 44
210.0
 45
297.0
 46
0.0
 47
0.0
 48
0.0
 49
0.0
140
0.0
141
0.0
142
1.0
143
1.0
 70
1024
 72
1
 73
0
 74
0
  7

 75
0
147
1.0
148
0.0
149
0.0
100
AcDbLayout
  1
Model
 70
0
 71
0
 10
0.0
 20
0.0
 11
210.0
 21
297.0
 12
0.0
 22
0.0
 32
0.0
 14
0.0
 24
0.0
 34
0.0
 15
0.0
 25
0.0
 35
0.0
146
0.0
 13
0.0
 23
0.0
 33
0.0
 16
1.0
 26
0.0
 36
0.0
 17
0.0
 27
1.0
 37
0.0
 76
0
330
210
345
0
346
0
  0
LAYOUT
  5
32D
102
{ACAD_REACTORS
330
1A
102
}
100
AcDbPlotSettings
  1

  2
none_device
  4

  6

 40
0.0
 41
0.0
 42
0.0
 43
0.0
 44
210.0
 45
297.0
 46
0.0
 47
0.0
 48
0.0
 49
0.0
140
0.0
141
0.0
142
1.0
143
1.0
 70
0
 72
1
 73
0
 74
0
  7

 75
0
147
1.0
148
0.0
149
0.0
100
AcDbLayout
  1
Layout1
 70
0
 71
1
 10
0.0
 20
0.0
 11
210.0
 21
297.0
 12
0.0
 22
0.0
 32
0.0
 14
0.0
 24
0.0
 34
0.0
 15
0.0
 25
0.0
 35
0.0
146
0.0
 13
0.0
 23
0.0
 33
0.0
 16
1.0
 26
0.0
 36
0.0
 17
0.0
 27
1.0
 37
0.0
 76
0
330
211
345
0
346
0
  0
ENDSEC
  0
EOF
