999
DXF file: C:\Users\sesa63760\Dev\_Creo\CAD\MCADID0004114_3D-CAD\drw0001_2.dxf
999
Pro/ENGINEER 2019471 by Parametric Technology Corporation
  0
SECTION
  2
HEADER
  9
$ACADVER
  1
AC1024
  9
$DWGCODEPAGE
  3
ANSI_1252
  9
$EXTMAX
 10
69.2205277173
 20
97.8976034858
 30
0.0
  9
$EXTMIN
 10
0.0
 20
0.0
 30
0.0
  9
$LIMMIN
 10
0.0
 20
0.0
  9
$LIMMAX
 10
69.2205277173
 20
97.8976034858
  9
$VIEWCTR
 10
34.6102638586
 20
48.9488017429
  9
$VIEWSIZE
 40
97.8976034858
  9
$CLAYER
  8
0
  9
$LTSCALE
 40
6.3814734124
  9
$CELTYPE
  6
BYLAYER
  9
$DIMSCALE
 40
1.0
  9
$DIMASZ
 40
0.8240539014
  9
$DIMEXO
 40
1.0
  9
$DIMDLI
 40
4.409017994
  9
$DIMEXE
 40
1.0
  9
$DIMCEN
 40
1.0442411038
  9
$DIMLFAC
 40
1.0
  9
$DIMBLK
  1
_FILLED
  9
$DIMALT
 70
0
  9
$DIMALTF
 40
0.0393700787
  9
$DIMTXT
 40
1.153675462
  9
$DIMTOL
 70
1
  9
$DIMLIM
 70
0
  9
$DIMTFAC
 40
1.0
  9
$DIMTP
 40
0.01
  9
$DIMTM
 40
0.01
  9
$DIMGAP
 40
0.625
  9
$DIMDSEP
 70
46
  9
$AUNITS
 70
0
  9
$PDMODE
 70
3
  9
$PDSIZE
 40
0.3125
  9
$HANDSEED
  5
253
  9
$TILEMODE
 70
1
  9
$MEASUREMENT
 70
1
  9
$INSUNITS
 70
4
  0
ENDSEC
  0
SECTION
  2
CLASSES
  0
CLASS
  1
ACDBDICTIONARYWDFLT
  2
AcDbDictionaryWithDefault
  3
AutoCAD 2000
 90
0
 91
1
280
0
281
0
  0
CLASS
  1
ACDBPLACEHOLDER
  2
AcDbPlaceHolder
  3
AutoCAD 2000
 90
0
 91
1
280
0
281
0
  0
CLASS
  1
LAYOUT
  2
AcDbLayout
  3
AutoCAD 2000
 90
0
 91
0
280
0
281
0
  0
ENDSEC
  0
SECTION
  2
TABLES
  0
TABLE
  2
VPORT
  5
8
100
AcDbSymbolTable
 70
2
  0
VPORT
  5
1F4
100
AcDbSymbolTableRecord
100
AcDbViewportTableRecord
  2
*ACTIVE
 70
0
 10
0.0
 20
0.0
 11
1.0
 21
1.0
 12
34.6102638586
 22
48.9488017429
 13
0.0
 23
0.0
 14
1.0
 24
1.0
 15
0.0
 25
0.0
 16
0.0
 26
0.0
 36
1.0
 17
0.0
 27
0.0
 37
0.0
 40
97.8976034858
 41
0.7070707071
 42
50.0
 43
0.0
 44
0.0
 50
0.0
 51
0.0
 71
0
 72
100
 73
1
 74
1
 75
0
 76
0
 77
0
 78
0
  0
ENDTAB
  0
TABLE
  2
LTYPE
  5
5
100
AcDbSymbolTable
 70
6
  0
LTYPE
  5
14
100
AcDbSymbolTableRecord
100
AcDbLinetypeTableRecord
  2
BYBLOCK
 70
0
  3

 72
65
 73
0
 40
0.0
  0
LTYPE
  5
15
100
AcDbSymbolTableRecord
100
AcDbLinetypeTableRecord
  2
BYLAYER
 70
0
  3

 72
65
 73
0
 40
0.0
  0
LTYPE
  5
16
100
AcDbSymbolTableRecord
100
AcDbLinetypeTableRecord
  2
CONTINUOUS
 70
64
  3
Solid line
 72
65
 73
0
 40
0.0
  0
LTYPE
  5
1F5
100
AcDbSymbolTableRecord
100
AcDbLinetypeTableRecord
  2
CENTER
 70
64
  3
____ _ ____ _ ____ _ ____ _ ____ _ ____ _ ____
 72
65
 73
4
 40
0.6
 49
0.375
 74
0
 49
-0.075
 74
0
 49
0.075
 74
0
 49
-0.075
 74
0
  0
LTYPE
  5
1F6
100
AcDbSymbolTableRecord
100
AcDbLinetypeTableRecord
  2
HIDDEN
 70
64
  3
- - - - - - - - - - - - - - - - - - - -
 72
65
 73
2
 40
0.2
 49
0.1
 74
0
 49
-0.1
 74
0
  0
LTYPE
  5
1F7
100
AcDbSymbolTableRecord
100
AcDbLinetypeTableRecord
  2
PHANTOM
 70
64
  3
_____ _ _ _____ _ _ _____ _ _ _____
 72
65
 73
6
 40
0.8
 49
0.45
 74
0
 49
-0.05
 74
0
 49
0.1
 74
0
 49
-0.05
 74
0
 49
0.1
 74
0
 49
-0.05
 74
0
  0
LTYPE
  5
1F8
100
AcDbSymbolTableRecord
100
AcDbLinetypeTableRecord
  2
DOT
 70
64
  3
. . . . . . . . . . . . . . . . . . . .
 72
65
 73
2
 40
0.2
 49
0.1
 74
0
 49
-0.1
 74
0
  0
LTYPE
  5
1F9
100
AcDbSymbolTableRecord
100
AcDbLinetypeTableRecord
  2
DASHED
 70
64
  3
- - - - - - - - - - - - - - - - - - - -
 72
65
 73
2
 40
0.2
 49
0.1
 74
0
 49
-0.1
 74
0
  0
ENDTAB
  0
TABLE
  2
LAYER
  5
2
100
AcDbSymbolTable
 70
36
  0
LAYER
  5
10
100
AcDbSymbolTableRecord
100
AcDbLayerTableRecord
  2
0
 70
0
 62
7
  6
CONTINUOUS
370
-3
390
F
  0
LAYER
  5
1FA
100
AcDbSymbolTableRecord
100
AcDbLayerTableRecord
  2
DEFAULT_1
 70
0
 62
7
  6
CENTER
370
-3
390
F
  0
LAYER
  5
1FB
100
AcDbSymbolTableRecord
100
AcDbLayerTableRecord
  2
DEFAULT_2
 70
0
 62
7
  6
HIDDEN
370
-3
390
F
  0
LAYER
  5
1FC
100
AcDbSymbolTableRecord
100
AcDbLayerTableRecord
  2
DEFAULT_3
 70
0
 62
7
  6
PHANTOM
370
-3
390
F
  0
LAYER
  5
1FD
100
AcDbSymbolTableRecord
100
AcDbLayerTableRecord
  2
00_COMPONENTS
 70
0
 62
7
  6
CONTINUOUS
370
-3
390
F
  0
LAYER
  5
1FE
100
AcDbSymbolTableRecord
100
AcDbLayerTableRecord
  2
01_1_DEFAULT_DATUMS
 70
0
 62
7
  6
CONTINUOUS
370
-3
390
F
  0
LAYER
  5
1FF
100
AcDbSymbolTableRecord
100
AcDbLayerTableRecord
  2
01_PLANES
 70
0
 62
7
  6
CONTINUOUS
370
-3
390
F
  0
LAYER
  5
200
100
AcDbSymbolTableRecord
100
AcDbLayerTableRecord
  2
02_COORD_SYS
 70
0
 62
7
  6
CONTINUOUS
370
-3
390
F
  0
LAYER
  5
201
100
AcDbSymbolTableRecord
100
AcDbLayerTableRecord
  2
03_AXES
 70
0
 62
7
  6
CONTINUOUS
370
-3
390
F
  0
LAYER
  5
202
100
AcDbSymbolTableRecord
100
AcDbLayerTableRecord
  2
04_POINTS
 70
0
 62
7
  6
CONTINUOUS
370
-3
390
F
  0
LAYER
  5
203
100
AcDbSymbolTableRecord
100
AcDbLayerTableRecord
  2
05_CURVES
 70
0
 62
7
  6
CONTINUOUS
370
-3
390
F
  0
LAYER
  5
204
100
AcDbSymbolTableRecord
100
AcDbLayerTableRecord
  2
06_SURFS
 70
0
 62
7
  6
CONTINUOUS
370
-3
390
F
  0
LAYER
  5
205
100
AcDbSymbolTableRecord
100
AcDbLayerTableRecord
  2
07_COSMETICS
 70
0
 62
7
  6
CONTINUOUS
370
-3
390
F
  0
LAYER
  5
206
100
AcDbSymbolTableRecord
100
AcDbLayerTableRecord
  2
10_NOTES
 70
0
 62
7
  6
CONTINUOUS
370
-3
390
F
  0
LAYER
  5
207
100
AcDbSymbolTableRecord
100
AcDbLayerTableRecord
  2
11_NOTES_PUB
 70
0
 62
7
  6
CONTINUOUS
370
-3
390
F
  0
LAYER
  5
208
100
AcDbSymbolTableRecord
100
AcDbLayerTableRecord
  2
13_REF_GTOL
 70
0
 62
7
  6
CONTINUOUS
370
-3
390
F
  0
LAYER
  5
209
100
AcDbSymbolTableRecord
100
AcDbLayerTableRecord
  2
16_MISC
 70
0
 62
7
  6
CONTINUOUS
370
-3
390
F
  0
LAYER
  5
20A
100
AcDbSymbolTableRecord
100
AcDbLayerTableRecord
  2
17_NO_PRINT
 70
0
 62
7
  6
CONTINUOUS
370
-3
390
F
  0
LAYER
  5
20B
100
AcDbSymbolTableRecord
100
AcDbLayerTableRecord
  2
18_DATUM_CAMS_JOINTS
 70
0
 62
7
  6
CONTINUOUS
370
-3
390
F
  0
LAYER
  5
20C
100
AcDbSymbolTableRecord
100
AcDbLayerTableRecord
  2
19_DATUM_FUNCTIONAL
 70
0
 62
7
  6
CONTINUOUS
370
-3
390
F
  0
LAYER
  5
20D
100
AcDbSymbolTableRecord
100
AcDbLayerTableRecord
  2
20_DATUM_KINEMATIC_SCHEME
 70
0
 62
7
  6
CONTINUOUS
370
-3
390
F
  0
ENDTAB
  0
TABLE
  2
STYLE
  5
3
100
AcDbSymbolTable
 70
1
  0
STYLE
  5
11
100
AcDbSymbolTableRecord
100
AcDbTextStyleTableRecord
  2
STANDARD
 70
0
 40
0.0
 41
1.0
 50
0.0
 71
0
 42
0.2
  3
ARIAL.TTF
  4

  0
STYLE
  5
20E
100
AcDbSymbolTableRecord
100
AcDbTextStyleTableRecord
  2
TEXTSTYLE_1
 70
0
 40
0.0
 41
0.8
 50
0.0
 71
0
 42
0.2
  3
gdt
  4

  0
ENDTAB
  0
TABLE
  2
VIEW
  5
6
100
AcDbSymbolTable
 70
0
  0
ENDTAB
  0
TABLE
  2
UCS
  5
7
100
AcDbSymbolTable
 70
0
  0
ENDTAB
  0
TABLE
  2
APPID
  5
9
100
AcDbSymbolTable
 70
1
  0
APPID
  5
20F
100
AcDbSymbolTableRecord
100
AcDbRegAppTableRecord
  2
ACAD
 70
0
  0
ENDTAB
  0
TABLE
  2
BLOCK_RECORD
  5
1
100
AcDbSymbolTable
 70
0
  0
BLOCK_RECORD
  5
210
100
AcDbSymbolTableRecord
100
AcDbBlockTableRecord
  2
*Model_Space
  0
BLOCK_RECORD
  5
211
100
AcDbSymbolTableRecord
100
AcDbBlockTableRecord
  2
*Paper_Space
  0
BLOCK_RECORD
  5
212
100
AcDbSymbolTableRecord
100
AcDbBlockTableRecord
  2
_FILLED
  0
ENDTAB
  0
TABLE
  2
DIMSTYLE
  5
A
100
AcDbSymbolTable
 70
1
100
AcDbDimStyleTable
 71
0
  0
DIMSTYLE
105
213
100
AcDbSymbolTableRecord
100
AcDbDimStyleTableRecord
  2
STANDARD
 70
0
  3

  4

 40
1.0
 41
0.8240539014
 42
1.0
 43
0.38
 44
1.0
 45
0.0
 46
0.0
 47
0.01
 48
0.01
140
1.153675462
141
0.09
142
0.0
143
25.4
144
1.0
145
0.0
146
1.0
147
0.625
 71
1
 72
0
 73
0
 74
0
 75
0
 76
0
 77
1
 78
8
 79
2
170
0
171
1
172
0
173
0
174
0
175
0
176
0
177
0
178
0
270
2
179
2
271
2
272
2
273
2
274
2
275
0
280
0
281
0
282
0
283
1
284
8
285
0
286
0
287
3
288
0
340
11
278
46
341
212
342
212
343
212
344
212
  0
ENDTAB
  0
ENDSEC
  0
SECTION
  2
BLOCKS
  0
BLOCK
  5
20
100
AcDbEntity
  8
0
100
AcDbBlockBegin
  2
*Model_Space
 70
0
 10
0.0
 20
0.0
 30
0.0
  3
*Model_Space
  1

  0
ENDBLK
  5
21
100
AcDbEntity
  8
0
100
AcDbBlockEnd
  0
BLOCK
  5
1C
100
AcDbEntity
  8
0
100
AcDbBlockBegin
  2
*Paper_Space
 70
0
 10
0.0
 20
0.0
 30
0.0
  3
*Paper_Space
  1

  0
ENDBLK
  5
1D
100
AcDbEntity
  8
0
100
AcDbBlockEnd
  0
BLOCK
  5
214
100
AcDbEntity
  8
0
100
AcDbBlockBegin
  2
_FILLED
 70
64
 10
0.0
 20
0.0
  3
_FILLED
  1

  0
SOLID
  5
215
100
AcDbEntity
  8
0
  6
BYBLOCK
 62
0
100
AcDbTrace
 10
0.0
 20
0.0
 11
-1.0
 21
0.25
 12
-1.0
 22
-0.25
 13
-1.0
 23
-0.25
  0
ENDBLK
  5
216
100
AcDbEntity
  8
0
  6
BYBLOCK
 62
0
100
AcDbBlockEnd
  0
ENDSEC
  0
SECTION
  2
ENTITIES
  0
LINE
  5
217
100
AcDbEntity
  8
0
100
AcDbLine
 62
7
  6
BYLAYER
 10
7.5895666909
 20
47.0191494952
 11
7.5895666909
 21
47.5190631808
  0
LINE
  5
218
100
AcDbEntity
  8
0
100
AcDbLine
 62
7
  6
BYLAYER
 10
14.5895666909
 20
45.3103131808
 11
14.5895666909
 21
52.2278131808
  0
LINE
  5
219
100
AcDbEntity
  8
0
100
AcDbLine
 62
7
  6
BYLAYER
 10
55.0090101073
 20
41.2635096814
 11
51.5895666909
 21
41.2635096814
  0
LINE
  5
21A
100
AcDbEntity
  8
0
100
AcDbLine
 62
7
  6
BYLAYER
 10
44.1701232745
 20
41.2635096814
 11
47.5895666909
 21
41.2635096814
  0
LINE
  5
21B
100
AcDbEntity
  8
0
100
AcDbLine
 62
7
  6
BYLAYER
 10
32.5895666909
 20
52.2278131808
 11
33.1308166909
 21
52.7690631808
  0
LINE
  5
21C
100
AcDbEntity
  8
0
100
AcDbLine
 62
7
  6
BYLAYER
 10
62.0483166909
 20
44.7690631808
 11
55.5895666909
 21
44.7690631808
  0
LINE
  5
21D
100
AcDbEntity
  8
0
100
AcDbLine
 62
7
  6
BYLAYER
 10
51.5895666909
 20
44.7690631808
 11
47.5895666909
 21
44.7690631808
  0
LINE
  5
21E
100
AcDbEntity
  8
0
100
AcDbLine
 62
7
  6
BYLAYER
 10
43.5895666909
 20
44.7690631808
 11
33.1308166909
 21
44.7690631808
  0
LINE
  5
21F
100
AcDbEntity
  8
0
100
AcDbLine
 62
7
  6
BYLAYER
 10
55.0090101073
 20
45.0162864311
 11
51.5895666909
 21
45.0162864311
  0
LINE
  5
220
100
AcDbEntity
  8
0
100
AcDbLine
 62
7
  6
BYLAYER
 10
44.1701232745
 20
45.0162864311
 11
47.5895666909
 21
45.0162864311
  0
LINE
  5
221
100
AcDbEntity
  8
0
100
AcDbLine
 62
7
  6
BYLAYER
 10
33.1308166909
 20
44.7690631808
 11
32.5895666909
 21
45.3103131808
  0
LINE
  5
222
100
AcDbEntity
  8
0
100
AcDbLine
 62
7
  6
BYLAYER
 10
32.5895666909
 20
52.2278131808
 11
32.5895666909
 21
45.3103131808
  0
LINE
  5
223
100
AcDbEntity
  8
0
100
AcDbLine
 62
7
  6
BYLAYER
 10
33.1308166909
 20
44.7690631808
 11
33.1308166909
 21
52.7690631808
  0
LINE
  5
224
100
AcDbEntity
  8
0
100
AcDbLine
 62
7
  6
BYLAYER
 10
32.5895666909
 20
45.3103131808
 11
18.3395666909
 21
45.3103131808
  0
LINE
  5
225
100
AcDbEntity
  8
0
100
AcDbLine
 62
7
  6
BYLAYER
 10
16.8395666909
 20
45.3103131808
 11
14.5895666909
 21
45.3103131808
  0
LINE
  5
226
100
AcDbEntity
  8
0
100
AcDbLine
 62
7
  6
BYLAYER
 10
14.5895666909
 20
47.0190631808
 11
7.5895666909
 21
47.0190631808
  0
LINE
  5
227
100
AcDbEntity
  8
0
100
AcDbLine
 62
7
  6
BYLAYER
 10
14.5895666909
 20
50.5190631808
 11
8.8143115623
 21
50.5190631808
  0
LINE
  5
228
100
AcDbEntity
  8
0
100
AcDbLine
 62
7
  6
BYLAYER
 10
14.5895666909
 20
52.2278131808
 11
16.8395666909
 21
52.2278131808
  0
LINE
  5
229
100
AcDbEntity
  8
0
100
AcDbLine
 62
7
  6
BYLAYER
 10
18.3395666909
 20
52.2278131808
 11
32.5895666909
 21
52.2278131808
  0
LINE
  5
22A
100
AcDbEntity
  8
0
100
AcDbLine
 62
7
  6
BYLAYER
 10
55.0090101073
 20
52.5218399306
 11
51.5895666909
 21
52.5218399306
  0
LINE
  5
22B
100
AcDbEntity
  8
0
100
AcDbLine
 62
7
  6
BYLAYER
 10
44.1701232745
 20
52.5218399306
 11
47.5895666909
 21
52.5218399306
  0
LINE
  5
22C
100
AcDbEntity
  8
0
100
AcDbLine
 62
7
  6
BYLAYER
 10
33.1308166909
 20
52.7690631808
 11
43.5895666909
 21
52.7690631808
  0
LINE
  5
22D
100
AcDbEntity
  8
0
100
AcDbLine
 62
7
  6
BYLAYER
 10
47.5895666909
 20
52.7690631808
 11
51.5895666909
 21
52.7690631808
  0
LINE
  5
22E
100
AcDbEntity
  8
0
100
AcDbLine
 62
7
  6
BYLAYER
 10
55.5895666909
 20
52.7690631808
 11
62.0483166909
 21
52.7690631808
  0
LINE
  5
22F
100
AcDbEntity
  8
0
100
AcDbLine
 62
7
  6
BYLAYER
 10
44.1701232745
 20
56.2746166803
 11
43.5895666909
 21
55.2690631808
  0
LINE
  5
230
100
AcDbEntity
  8
0
100
AcDbLine
 62
7
  6
BYLAYER
 10
43.5895666909
 20
42.2690631808
 11
44.1701232745
 21
41.2635096814
  0
LINE
  5
231
100
AcDbEntity
  8
0
100
AcDbLine
 62
7
  6
BYLAYER
 10
55.0090101073
 20
56.2746166803
 11
51.5895666909
 21
56.2746166803
  0
LINE
  5
232
100
AcDbEntity
  8
0
100
AcDbLine
 62
7
  6
BYLAYER
 10
44.1701232745
 20
56.2746166803
 11
47.5895666909
 21
56.2746166803
  0
LINE
  5
233
100
AcDbEntity
  8
0
100
AcDbLine
 62
7
  6
BYLAYER
 10
43.5895666909
 20
42.2690631808
 11
43.5895666909
 21
55.2690631808
  0
LINE
  5
234
100
AcDbEntity
  8
0
100
AcDbLine
 62
7
  6
BYLAYER
 10
47.5895666909
 20
41.2635096814
 11
47.5895666909
 21
56.2746166803
  0
LINE
  5
235
100
AcDbEntity
  8
0
100
AcDbLine
 62
7
  6
BYLAYER
 10
51.5895666909
 20
41.2635096814
 11
51.5895666909
 21
56.2746166803
  0
LINE
  5
236
100
AcDbEntity
  8
0
100
AcDbLine
 62
7
  6
BYLAYER
 10
55.5895666909
 20
55.2690631808
 11
55.5895666909
 21
42.2690631808
  0
LINE
  5
237
100
AcDbEntity
  8
0
100
AcDbLine
 62
7
  6
BYLAYER
 10
55.5895666909
 20
42.2690631808
 11
55.0090101073
 21
41.2635096814
  0
LINE
  5
238
100
AcDbEntity
  8
0
100
AcDbLine
 62
7
  6
BYLAYER
 10
55.0090101073
 20
56.2746166803
 11
55.5895666909
 21
55.2690631808
  0
LINE
  5
239
100
AcDbEntity
  8
0
100
AcDbLine
 62
7
  6
BYLAYER
 10
62.5895666909
 20
45.3103131808
 11
62.0483166909
 21
44.7690631808
  0
LINE
  5
23A
100
AcDbEntity
  8
0
100
AcDbLine
 62
7
  6
BYLAYER
 10
62.0483166909
 20
52.7690631808
 11
62.5895666909
 21
52.2278131808
  0
LINE
  5
23B
100
AcDbEntity
  8
0
100
AcDbLine
 62
7
  6
BYLAYER
 10
62.0483166909
 20
52.7690631808
 11
62.0483166909
 21
44.7690631808
  0
LINE
  5
23C
100
AcDbEntity
  8
0
100
AcDbLine
 62
7
  6
BYLAYER
 10
62.5895666909
 20
52.2278131808
 11
62.5895666909
 21
45.3103131808
  0
ARC
  5
23D
100
AcDbEntity
  8
0
100
AcDbCircle
 62
7
  6
BYLAYER
 10
17.589556996
 20
41.9659517585
 40
3.4265732931
100
AcDbArc
 50
88.2253658589
 51
91.7646517144
  0
ARC
  5
23E
100
AcDbEntity
  8
0
100
AcDbCircle
 62
7
  6
BYLAYER
 10
7.5895666909
 20
49.2690631808
 40
1.75
100
AcDbArc
 50
270.0
 51
45.5867110764
  0
ARC
  5
23F
100
AcDbEntity
  8
0
100
AcDbCircle
 62
7
  6
BYLAYER
 10
14.5895666909
 20
48.7690631808
 40
1.1
100
AcDbArc
 50
90.0
 51
270.0
  0
CIRCLE
  5
240
100
AcDbEntity
  8
0
100
AcDbCircle
 62
7
  6
BYLAYER
 10
17.5895666909
 20
48.7690631808
 40
0.75
  0
SPLINE
  5
241
100
AcDbEntity
  8
0
100
AcDbSpline
 62
7
  6
BYLAYER
 70
0
 71
3
 72
11
 73
7
 74
0
 42
0.0000001
 43
0.0000001
 44
0.0000000001
 40
0.0
 40
0.0
 40
0.0
 40
0.0
 40
0.2499908913
 40
0.4999851166
 40
0.7499878191
 40
1.0
 40
1.0
 40
1.0
 40
1.0
 10
43.5895666909
 20
48.7690631808
 30
0.0
 10
43.5895666909
 20
49.0865072879
 30
0.0
 10
43.6165597989
 20
49.7217164012
 30
0.0
 10
43.7348031888
 20
50.6676125492
 30
0.0
 10
43.9206719338
 20
51.6023818162
 30
0.0
 10
44.0820726224
 20
52.2168235244
 30
0.0
 10
44.1701232745
 20
52.5218399306
 30
0.0
  0
SPLINE
  5
242
100
AcDbEntity
  8
0
100
AcDbSpline
 62
7
  6
BYLAYER
 70
0
 71
3
 72
11
 73
7
 74
0
 42
0.0000001
 43
0.0000001
 44
0.0000000001
 40
0.0
 40
0.0
 40
0.0
 40
0.0
 40
0.2500122644
 40
0.5000150193
 40
0.7500092299
 40
1.0
 40
1.0
 40
1.0
 40
1.0
 10
44.1701232745
 20
45.0162864311
 30
0.0
 10
44.0820725933
 20
45.321302938
 30
0.0
 10
43.9206721615
 20
45.9357448876
 30
0.0
 10
43.7348031558
 20
46.870514247
 30
0.0
 10
43.6165597476
 20
47.8164102904
 30
0.0
 10
43.5895666909
 20
48.451619229
 30
0.0
 10
43.5895666909
 20
48.7690631808
 30
0.0
  0
SPLINE
  5
243
100
AcDbEntity
  8
0
100
AcDbSpline
 62
7
  6
BYLAYER
 70
0
 71
3
 72
13
 73
9
 74
0
 42
0.0000001
 43
0.0000001
 44
0.0000000001
 40
0.0
 40
0.0
 40
0.0
 40
0.0
 40
0.2615521428
 40
0.5143040742
 40
0.6377134237
 40
0.7594801292
 40
0.8800580001
 40
1.0
 40
1.0
 40
1.0
 40
1.0
 10
44.1701232745
 20
52.5218399306
 30
0.0
 10
44.0835203069
 20
52.6718406704
 30
0.0
 10
43.9244098023
 20
52.973530556
 30
0.0
 10
43.7671699189
 20
53.3666738927
 30
0.0
 10
43.6760421552
 20
53.6838338004
 30
0.0
 10
43.6264836489
 20
53.9211733981
 30
0.0
 10
43.5963170784
 20
54.1594412055
 30
0.0
 10
43.5895666909
 20
54.3187999129
 30
0.0
 10
43.5895666909
 20
54.3982283054
 30
0.0
  0
SPLINE
  5
244
100
AcDbEntity
  8
0
100
AcDbSpline
 62
7
  6
BYLAYER
 70
0
 71
3
 72
13
 73
9
 74
0
 42
0.0000001
 43
0.0000001
 44
0.0000000001
 40
0.0
 40
0.0
 40
0.0
 40
0.0
 40
0.1199420365
 40
0.2405199864
 40
0.3622867307
 40
0.4856960444
 40
0.7384479117
 40
1.0
 40
1.0
 40
1.0
 40
1.0
 10
43.5895666909
 20
43.1398980562
 30
0.0
 10
43.5895666909
 20
43.2193264732
 30
0.0
 10
43.5963172195
 20
43.3786852463
 30
0.0
 10
43.626483586
 20
43.6169531903
 30
0.0
 10
43.6760425312
 20
43.8542927506
 30
0.0
 10
43.7671697331
 20
44.1714527635
 30
0.0
 10
43.9244096755
 20
44.5645960158
 30
0.0
 10
44.0835203247
 20
44.866285722
 30
0.0
 10
44.1701232745
 20
45.0162864311
 30
0.0
  0
SPLINE
  5
245
100
AcDbEntity
  8
0
100
AcDbSpline
 62
7
  6
BYLAYER
 70
0
 71
3
 72
13
 73
9
 74
0
 42
0.0000001
 43
0.0000001
 44
0.0000000001
 40
0.0
 40
0.0
 40
0.0
 40
0.0
 40
0.1199420365
 40
0.2405199864
 40
0.3622867307
 40
0.4856960444
 40
0.7384479117
 40
1.0
 40
1.0
 40
1.0
 40
1.0
 10
43.5895666909
 20
54.3982283054
 30
0.0
 10
43.5895666909
 20
54.4776567224
 30
0.0
 10
43.5963172195
 20
54.6370154955
 30
0.0
 10
43.626483586
 20
54.8752834395
 30
0.0
 10
43.6760425312
 20
55.1126229998
 30
0.0
 10
43.7671697331
 20
55.4297830127
 30
0.0
 10
43.9244096755
 20
55.8229262649
 30
0.0
 10
44.0835203247
 20
56.1246159712
 30
0.0
 10
44.1701232745
 20
56.2746166803
 30
0.0
  0
SPLINE
  5
246
100
AcDbEntity
  8
0
100
AcDbSpline
 62
7
  6
BYLAYER
 70
0
 71
3
 72
13
 73
9
 74
0
 42
0.0000001
 43
0.0000001
 44
0.0000000001
 40
0.0
 40
0.0
 40
0.0
 40
0.0
 40
0.2615521428
 40
0.5143040742
 40
0.6377134237
 40
0.7594801292
 40
0.8800580001
 40
1.0
 40
1.0
 40
1.0
 40
1.0
 10
44.1701232745
 20
41.2635096814
 30
0.0
 10
44.0835203069
 20
41.4135104212
 30
0.0
 10
43.9244098023
 20
41.7152003068
 30
0.0
 10
43.7671699189
 20
42.1083436435
 30
0.0
 10
43.6760421552
 20
42.4255035512
 30
0.0
 10
43.6264836489
 20
42.6628431489
 30
0.0
 10
43.5963170784
 20
42.9011109563
 30
0.0
 10
43.5895666909
 20
43.0604696637
 30
0.0
 10
43.5895666909
 20
43.1398980562
 30
0.0
  0
SPLINE
  5
247
100
AcDbEntity
  8
0
100
AcDbSpline
 62
7
  6
BYLAYER
 70
0
 71
3
 72
11
 73
7
 74
0
 42
0.0000001
 43
0.0000001
 44
0.0000000001
 40
0.0
 40
0.0
 40
0.0
 40
0.0
 40
0.2500122644
 40
0.5000150193
 40
0.7500092299
 40
1.0
 40
1.0
 40
1.0
 40
1.0
 10
55.0090101073
 20
52.5218399306
 30
0.0
 10
55.0970607884
 20
52.2168234237
 30
0.0
 10
55.2584612202
 20
51.602381474
 30
0.0
 10
55.4443302259
 20
50.6676121146
 30
0.0
 10
55.5625736341
 20
49.7217160713
 30
0.0
 10
55.5895666909
 20
49.0865071327
 30
0.0
 10
55.5895666909
 20
48.7690631808
 30
0.0
  0
SPLINE
  5
248
100
AcDbEntity
  8
0
100
AcDbSpline
 62
7
  6
BYLAYER
 70
0
 71
3
 72
13
 73
9
 74
0
 42
0.0000001
 43
0.0000001
 44
0.0000000001
 40
0.0
 40
0.0
 40
0.0
 40
0.0
 40
0.1199420365
 40
0.2405199864
 40
0.3622867307
 40
0.4856960444
 40
0.7384479117
 40
1.0
 40
1.0
 40
1.0
 40
1.0
 10
55.5895666909
 20
54.3982283054
 30
0.0
 10
55.5895666909
 20
54.3187998885
 30
0.0
 10
55.5828161622
 20
54.1594411153
 30
0.0
 10
55.5526497957
 20
53.9211731713
 30
0.0
 10
55.5030908506
 20
53.683833611
 30
0.0
 10
55.4119636486
 20
53.3666735982
 30
0.0
 10
55.2547237063
 20
52.9735303459
 30
0.0
 10
55.095613057
 20
52.6718406396
 30
0.0
 10
55.0090101073
 20
52.5218399306
 30
0.0
  0
SPLINE
  5
249
100
AcDbEntity
  8
0
100
AcDbSpline
 62
7
  6
BYLAYER
 70
0
 71
3
 72
13
 73
9
 74
0
 42
0.0000001
 43
0.0000001
 44
0.0000000001
 40
0.0
 40
0.0
 40
0.0
 40
0.0
 40
0.1199420365
 40
0.2405199864
 40
0.3622867307
 40
0.4856960444
 40
0.7384479117
 40
1.0
 40
1.0
 40
1.0
 40
1.0
 10
55.5895666909
 20
43.1398980562
 30
0.0
 10
55.5895666909
 20
43.0604696393
 30
0.0
 10
55.5828161622
 20
42.9011108661
 30
0.0
 10
55.5526497957
 20
42.6628429221
 30
0.0
 10
55.5030908506
 20
42.4255033618
 30
0.0
 10
55.4119636486
 20
42.108343349
 30
0.0
 10
55.2547237063
 20
41.7152000967
 30
0.0
 10
55.095613057
 20
41.4135103904
 30
0.0
 10
55.0090101073
 20
41.2635096814
 30
0.0
  0
SPLINE
  5
24A
100
AcDbEntity
  8
0
100
AcDbSpline
 62
7
  6
BYLAYER
 70
0
 71
3
 72
11
 73
7
 74
0
 42
0.0000001
 43
0.0000001
 44
0.0000000001
 40
0.0
 40
0.0
 40
0.0
 40
0.0
 40
0.2499908913
 40
0.4999851166
 40
0.7499878191
 40
1.0
 40
1.0
 40
1.0
 40
1.0
 10
55.5895666909
 20
48.7690631808
 30
0.0
 10
55.5895666909
 20
48.4516190737
 30
0.0
 10
55.5625735829
 20
47.8164099604
 30
0.0
 10
55.444330193
 20
46.8705138125
 30
0.0
 10
55.258461448
 20
45.9357445455
 30
0.0
 10
55.0970607594
 20
45.3213028373
 30
0.0
 10
55.0090101073
 20
45.0162864311
 30
0.0
  0
SPLINE
  5
24B
100
AcDbEntity
  8
0
100
AcDbSpline
 62
7
  6
BYLAYER
 70
0
 71
3
 72
13
 73
9
 74
0
 42
0.0000001
 43
0.0000001
 44
0.0000000001
 40
0.0
 40
0.0
 40
0.0
 40
0.0
 40
0.2615521428
 40
0.5143040742
 40
0.6377134237
 40
0.7594801292
 40
0.8800580001
 40
1.0
 40
1.0
 40
1.0
 40
1.0
 10
55.0090101073
 20
56.2746166803
 30
0.0
 10
55.0956130748
 20
56.1246159404
 30
0.0
 10
55.2547235795
 20
55.8229260549
 30
0.0
 10
55.4119634628
 20
55.4297827181
 30
0.0
 10
55.5030912265
 20
55.1126228105
 30
0.0
 10
55.5526497329
 20
54.8752832127
 30
0.0
 10
55.5828163033
 20
54.6370154054
 30
0.0
 10
55.5895666909
 20
54.4776566979
 30
0.0
 10
55.5895666909
 20
54.3982283054
 30
0.0
  0
SPLINE
  5
24C
100
AcDbEntity
  8
0
100
AcDbSpline
 62
7
  6
BYLAYER
 70
0
 71
3
 72
13
 73
9
 74
0
 42
0.0000001
 43
0.0000001
 44
0.0000000001
 40
0.0
 40
0.0
 40
0.0
 40
0.0
 40
0.2615521428
 40
0.5143040742
 40
0.6377134237
 40
0.7594801292
 40
0.8800580001
 40
1.0
 40
1.0
 40
1.0
 40
1.0
 10
55.0090101073
 20
45.0162864311
 30
0.0
 10
55.0956130748
 20
44.8662856912
 30
0.0
 10
55.2547235795
 20
44.5645958057
 30
0.0
 10
55.4119634628
 20
44.1714524689
 30
0.0
 10
55.5030912265
 20
43.8542925613
 30
0.0
 10
55.5526497329
 20
43.6169529635
 30
0.0
 10
55.5828163033
 20
43.3786851562
 30
0.0
 10
55.5895666909
 20
43.2193264487
 30
0.0
 10
55.5895666909
 20
43.1398980562
 30
0.0
  0
SPLINE
  5
24D
100
AcDbEntity
  8
0
100
AcDbSpline
 62
7
  6
BYLAYER
 70
0
 71
3
 72
9
 73
5
 74
0
 42
0.0000001
 43
0.0000001
 44
0.0000000001
 40
0.0
 40
0.0
 40
0.0
 40
0.0
 40
0.2878557418
 40
1.0
 40
1.0
 40
1.0
 40
1.0
 10
18.3395666909
 20
45.3103131808
 30
0.0
 10
18.2787141329
 20
45.3235408191
 30
0.0
 10
18.0659578142
 20
45.3642900898
 30
0.0
 10
17.8497673009
 20
45.3860824686
 30
0.0
 10
17.6956719974
 20
45.3908815592
 30
0.0
  0
SPLINE
  5
24E
100
AcDbEntity
  8
0
100
AcDbSpline
 62
7
  6
BYLAYER
 70
0
 71
3
 72
9
 73
5
 74
0
 42
0.0000001
 43
0.0000001
 44
0.0000000001
 40
0.0
 40
0.0
 40
0.0
 40
0.0
 40
0.7121009174
 40
1.0
 40
1.0
 40
1.0
 40
1.0
 10
17.4840387088
 20
45.3908999953
 30
0.0
 10
17.3298151194
 20
45.3861240381
 30
0.0
 10
17.1134289421
 20
45.3643345984
 30
0.0
 10
16.9004823659
 20
45.3235544374
 30
0.0
 10
16.8395666909
 20
45.3103131808
 30
0.0
  0
SPLINE
  5
24F
100
AcDbEntity
  8
0
100
AcDbSpline
 62
7
  6
BYLAYER
 70
0
 71
3
 72
9
 73
5
 74
0
 42
0.0000001
 43
0.0000001
 44
0.0000000001
 40
0.0
 40
0.0
 40
0.0
 40
0.0
 40
0.7041887161
 40
1.0
 40
1.0
 40
1.0
 40
1.0
 10
17.5895666909
 20
52.145518654
 30
0.0
 10
17.7668786259
 20
52.145518654
 30
0.0
 10
18.0191042974
 20
52.1657725408
 30
0.0
 10
18.2668569259
 20
52.2119776599
 30
0.0
 10
18.3395666909
 20
52.2278131808
 30
0.0
  0
SPLINE
  5
250
100
AcDbEntity
  8
0
100
AcDbSpline
 62
7
  6
BYLAYER
 70
0
 71
3
 72
9
 73
5
 74
0
 42
0.0000001
 43
0.0000001
 44
0.0000000001
 40
0.0
 40
0.0
 40
0.0
 40
0.0
 40
0.2958258289
 40
1.0
 40
1.0
 40
1.0
 40
1.0
 10
16.8395666909
 20
52.2278131808
 30
0.0
 10
16.9122799614
 20
52.2119763904
 30
0.0
 10
17.1600325796
 20
52.1657709539
 30
0.0
 10
17.4122583937
 20
52.145518654
 30
0.0
 10
17.5895666909
 20
52.145518654
 30
0.0
  0
ENDSEC
  0
SECTION
  2
OBJECTS
  0
DICTIONARY
  5
C
100
AcDbDictionary
280
0
281
1
  3
ACAD_GROUP
350
D
  3
ACAD_MLINESTYLE
350
17
  3
ACAD_LAYOUT
350
1A
  3
ACAD_PLOTSETTINGS
350
19
  3
ACAD_PLOTSTYLENAME
350
E
  0
DICTIONARY
  5
D
102
{ACAD_REACTORS
330
C
102
}
100
AcDbDictionary
280
0
281
1
  0
ACDBDICTIONARYWDFLT
  5
E
102
{ACAD_REACTORS
330
C
102
}
100
AcDbDictionary
281
1
  3
Normal
350
F
100
AcDbDictionaryWithDefault
340
F
  0
DICTIONARY
  5
17
102
{ACAD_REACTORS
330
C
102
}
100
AcDbDictionary
280
0
281
1
  3
Standard
350
18
  0
DICTIONARY
  5
19
102
{ACAD_REACTORS
330
C
102
}
100
AcDbDictionary
281
1
  0
DICTIONARY
  5
1A
102
{ACAD_REACTORS
330
C
102
}
100
AcDbDictionary
281
1
  3
Model
350
251
  3
Layout1
350
252
  0
ACDBPLACEHOLDER
  5
F
102
{ACAD_REACTORS
330
E
102
}
  0
MLINESTYLE
  5
18
102
{ACAD_REACTORS
330
17
102
}
100
AcDbMlineStyle
  2
STANDARD
 70
0
  3

 62
256
 51
90.0
 52
90.0
 71
2
 49
0.5
 62
256
  6
BYLAYER
 49
-0.5
 62
256
  6
BYLAYER
  0
LAYOUT
  5
251
102
{ACAD_REACTORS
330
1A
102
}
100
AcDbPlotSettings
  1

  2
none_device
  4

  6

 40
0.0
 41
0.0
 42
0.0
 43
0.0
 44
210.0
 45
297.0
 46
0.0
 47
0.0
 48
0.0
 49
0.0
140
0.0
141
0.0
142
1.0
143
1.0
 70
1024
 72
1
 73
0
 74
0
  7

 75
0
147
1.0
148
0.0
149
0.0
100
AcDbLayout
  1
Model
 70
0
 71
0
 10
0.0
 20
0.0
 11
210.0
 21
297.0
 12
0.0
 22
0.0
 32
0.0
 14
0.0
 24
0.0
 34
0.0
 15
0.0
 25
0.0
 35
0.0
146
0.0
 13
0.0
 23
0.0
 33
0.0
 16
1.0
 26
0.0
 36
0.0
 17
0.0
 27
1.0
 37
0.0
 76
0
330
210
345
0
346
0
  0
LAYOUT
  5
252
102
{ACAD_REACTORS
330
1A
102
}
100
AcDbPlotSettings
  1

  2
none_device
  4

  6

 40
0.0
 41
0.0
 42
0.0
 43
0.0
 44
210.0
 45
297.0
 46
0.0
 47
0.0
 48
0.0
 49
0.0
140
0.0
141
0.0
142
1.0
143
1.0
 70
0
 72
1
 73
0
 74
0
  7

 75
0
147
1.0
148
0.0
149
0.0
100
AcDbLayout
  1
Layout1
 70
0
 71
1
 10
0.0
 20
0.0
 11
210.0
 21
297.0
 12
0.0
 22
0.0
 32
0.0
 14
0.0
 24
0.0
 34
0.0
 15
0.0
 25
0.0
 35
0.0
146
0.0
 13
0.0
 23
0.0
 33
0.0
 16
1.0
 26
0.0
 36
0.0
 17
0.0
 27
1.0
 37
0.0
 76
0
330
211
345
0
346
0
  0
ENDSEC
  0
EOF
