999
DXF file: C:\Users\sesa63760\Dev\_Creo\CAD\MCADID0005488_3D-CAD\drw0001_7.dxf
999
Pro/ENGINEER 2019471 by Parametric Technology Corporation
  0
SECTION
  2
HEADER
  9
$ACADVER
  1
AC1024
  9
$DWGCODEPAGE
  3
ANSI_1252
  9
$EXTMAX
 10
37.9218884689
 20
53.6323851204
 30
0.0
  9
$EXTMIN
 10
0.0
 20
0.0
 30
0.0
  9
$LIMMIN
 10
0.0
 20
0.0
  9
$LIMMAX
 10
37.9218884689
 20
53.6323851204
  9
$VIEWCTR
 10
18.9609442345
 20
26.8161925602
  9
$VIEWSIZE
 40
53.6323851204
  9
$CLAYER
  8
0
  9
$LTSCALE
 40
3.496036956
  9
$CELTYPE
  6
BYLAYER
  9
$DIMSCALE
 40
1.0
  9
$DIMASZ
 40
0.4514510532
  9
$DIMEXO
 40
1.0
  9
$DIMDLI
 40
2.415443715
  9
$DIMEXE
 40
1.0
  9
$DIMCEN
 40
0.5720787746
  9
$DIMLFAC
 40
1.0
  9
$DIMBLK
  1
_FILLED
  9
$DIMALT
 70
0
  9
$DIMALTF
 40
0.0393700787
  9
$DIMTXT
 40
0.6320314745
  9
$DIMTOL
 70
1
  9
$DIMLIM
 70
0
  9
$DIMTFAC
 40
1.0
  9
$DIMTP
 40
0.01
  9
$DIMTM
 40
0.01
  9
$DIMGAP
 40
0.625
  9
$DIMDSEP
 70
46
  9
$AUNITS
 70
0
  9
$PDMODE
 70
3
  9
$PDSIZE
 40
0.3125
  9
$HANDSEED
  5
28E
  9
$TILEMODE
 70
1
  9
$MEASUREMENT
 70
1
  9
$INSUNITS
 70
4
  0
ENDSEC
  0
SECTION
  2
CLASSES
  0
CLASS
  1
ACDBDICTIONARYWDFLT
  2
AcDbDictionaryWithDefault
  3
AutoCAD 2000
 90
0
 91
1
280
0
281
0
  0
CLASS
  1
ACDBPLACEHOLDER
  2
AcDbPlaceHolder
  3
AutoCAD 2000
 90
0
 91
1
280
0
281
0
  0
CLASS
  1
LAYOUT
  2
AcDbLayout
  3
AutoCAD 2000
 90
0
 91
0
280
0
281
0
  0
ENDSEC
  0
SECTION
  2
TABLES
  0
TABLE
  2
VPORT
  5
8
100
AcDbSymbolTable
 70
2
  0
VPORT
  5
1F4
100
AcDbSymbolTableRecord
100
AcDbViewportTableRecord
  2
*ACTIVE
 70
0
 10
0.0
 20
0.0
 11
1.0
 21
1.0
 12
18.9609442345
 22
26.8161925602
 13
0.0
 23
0.0
 14
1.0
 24
1.0
 15
0.0
 25
0.0
 16
0.0
 26
0.0
 36
1.0
 17
0.0
 27
0.0
 37
0.0
 40
53.6323851204
 41
0.7070707071
 42
50.0
 43
0.0
 44
0.0
 50
0.0
 51
0.0
 71
0
 72
100
 73
1
 74
1
 75
0
 76
0
 77
0
 78
0
  0
ENDTAB
  0
TABLE
  2
LTYPE
  5
5
100
AcDbSymbolTable
 70
6
  0
LTYPE
  5
14
100
AcDbSymbolTableRecord
100
AcDbLinetypeTableRecord
  2
BYBLOCK
 70
0
  3

 72
65
 73
0
 40
0.0
  0
LTYPE
  5
15
100
AcDbSymbolTableRecord
100
AcDbLinetypeTableRecord
  2
BYLAYER
 70
0
  3

 72
65
 73
0
 40
0.0
  0
LTYPE
  5
16
100
AcDbSymbolTableRecord
100
AcDbLinetypeTableRecord
  2
CONTINUOUS
 70
64
  3
Solid line
 72
65
 73
0
 40
0.0
  0
LTYPE
  5
1F5
100
AcDbSymbolTableRecord
100
AcDbLinetypeTableRecord
  2
CENTER
 70
64
  3
____ _ ____ _ ____ _ ____ _ ____ _ ____ _ ____
 72
65
 73
4
 40
0.6
 49
0.375
 74
0
 49
-0.075
 74
0
 49
0.075
 74
0
 49
-0.075
 74
0
  0
LTYPE
  5
1F6
100
AcDbSymbolTableRecord
100
AcDbLinetypeTableRecord
  2
HIDDEN
 70
64
  3
- - - - - - - - - - - - - - - - - - - -
 72
65
 73
2
 40
0.2
 49
0.1
 74
0
 49
-0.1
 74
0
  0
LTYPE
  5
1F7
100
AcDbSymbolTableRecord
100
AcDbLinetypeTableRecord
  2
PHANTOM
 70
64
  3
_____ _ _ _____ _ _ _____ _ _ _____
 72
65
 73
6
 40
0.8
 49
0.45
 74
0
 49
-0.05
 74
0
 49
0.1
 74
0
 49
-0.05
 74
0
 49
0.1
 74
0
 49
-0.05
 74
0
  0
LTYPE
  5
1F8
100
AcDbSymbolTableRecord
100
AcDbLinetypeTableRecord
  2
DOT
 70
64
  3
. . . . . . . . . . . . . . . . . . . .
 72
65
 73
2
 40
0.2
 49
0.1
 74
0
 49
-0.1
 74
0
  0
LTYPE
  5
1F9
100
AcDbSymbolTableRecord
100
AcDbLinetypeTableRecord
  2
DASHED
 70
64
  3
- - - - - - - - - - - - - - - - - - - -
 72
65
 73
2
 40
0.2
 49
0.1
 74
0
 49
-0.1
 74
0
  0
ENDTAB
  0
TABLE
  2
LAYER
  5
2
100
AcDbSymbolTable
 70
36
  0
LAYER
  5
10
100
AcDbSymbolTableRecord
100
AcDbLayerTableRecord
  2
0
 70
0
 62
7
  6
CONTINUOUS
370
-3
390
F
  0
LAYER
  5
1FA
100
AcDbSymbolTableRecord
100
AcDbLayerTableRecord
  2
DEFAULT_1
 70
0
 62
7
  6
CENTER
370
-3
390
F
  0
LAYER
  5
1FB
100
AcDbSymbolTableRecord
100
AcDbLayerTableRecord
  2
DEFAULT_2
 70
0
 62
7
  6
HIDDEN
370
-3
390
F
  0
LAYER
  5
1FC
100
AcDbSymbolTableRecord
100
AcDbLayerTableRecord
  2
DEFAULT_3
 70
0
 62
7
  6
PHANTOM
370
-3
390
F
  0
LAYER
  5
1FD
100
AcDbSymbolTableRecord
100
AcDbLayerTableRecord
  2
00_COMPONENTS
 70
0
 62
7
  6
CONTINUOUS
370
-3
390
F
  0
LAYER
  5
1FE
100
AcDbSymbolTableRecord
100
AcDbLayerTableRecord
  2
01_1_DEFAULT_DATUMS
 70
0
 62
7
  6
CONTINUOUS
370
-3
390
F
  0
LAYER
  5
1FF
100
AcDbSymbolTableRecord
100
AcDbLayerTableRecord
  2
01_PLANES
 70
0
 62
7
  6
CONTINUOUS
370
-3
390
F
  0
LAYER
  5
200
100
AcDbSymbolTableRecord
100
AcDbLayerTableRecord
  2
02_COORD_SYS
 70
0
 62
7
  6
CONTINUOUS
370
-3
390
F
  0
LAYER
  5
201
100
AcDbSymbolTableRecord
100
AcDbLayerTableRecord
  2
03_AXES
 70
0
 62
7
  6
CONTINUOUS
370
-3
390
F
  0
LAYER
  5
202
100
AcDbSymbolTableRecord
100
AcDbLayerTableRecord
  2
04_POINTS
 70
0
 62
7
  6
CONTINUOUS
370
-3
390
F
  0
LAYER
  5
203
100
AcDbSymbolTableRecord
100
AcDbLayerTableRecord
  2
05_CURVES
 70
0
 62
7
  6
CONTINUOUS
370
-3
390
F
  0
LAYER
  5
204
100
AcDbSymbolTableRecord
100
AcDbLayerTableRecord
  2
06_SURFS
 70
0
 62
7
  6
CONTINUOUS
370
-3
390
F
  0
LAYER
  5
205
100
AcDbSymbolTableRecord
100
AcDbLayerTableRecord
  2
07_COSMETICS
 70
0
 62
7
  6
CONTINUOUS
370
-3
390
F
  0
LAYER
  5
206
100
AcDbSymbolTableRecord
100
AcDbLayerTableRecord
  2
10_NOTES
 70
0
 62
7
  6
CONTINUOUS
370
-3
390
F
  0
LAYER
  5
207
100
AcDbSymbolTableRecord
100
AcDbLayerTableRecord
  2
11_NOTES_PUB
 70
0
 62
7
  6
CONTINUOUS
370
-3
390
F
  0
LAYER
  5
208
100
AcDbSymbolTableRecord
100
AcDbLayerTableRecord
  2
13_REF_GTOL
 70
0
 62
7
  6
CONTINUOUS
370
-3
390
F
  0
LAYER
  5
209
100
AcDbSymbolTableRecord
100
AcDbLayerTableRecord
  2
16_MISC
 70
0
 62
7
  6
CONTINUOUS
370
-3
390
F
  0
LAYER
  5
20A
100
AcDbSymbolTableRecord
100
AcDbLayerTableRecord
  2
17_NO_PRINT
 70
0
 62
7
  6
CONTINUOUS
370
-3
390
F
  0
LAYER
  5
20B
100
AcDbSymbolTableRecord
100
AcDbLayerTableRecord
  2
18_DATUM_CAMS_JOINTS
 70
0
 62
7
  6
CONTINUOUS
370
-3
390
F
  0
LAYER
  5
20C
100
AcDbSymbolTableRecord
100
AcDbLayerTableRecord
  2
19_DATUM_FUNCTIONAL
 70
0
 62
7
  6
CONTINUOUS
370
-3
390
F
  0
LAYER
  5
20D
100
AcDbSymbolTableRecord
100
AcDbLayerTableRecord
  2
20_DATUM_KINEMATIC_SCHEME
 70
0
 62
7
  6
CONTINUOUS
370
-3
390
F
  0
ENDTAB
  0
TABLE
  2
STYLE
  5
3
100
AcDbSymbolTable
 70
1
  0
STYLE
  5
11
100
AcDbSymbolTableRecord
100
AcDbTextStyleTableRecord
  2
STANDARD
 70
0
 40
0.0
 41
1.0
 50
0.0
 71
0
 42
0.2
  3
ARIAL.TTF
  4

  0
STYLE
  5
20E
100
AcDbSymbolTableRecord
100
AcDbTextStyleTableRecord
  2
TEXTSTYLE_1
 70
0
 40
0.0
 41
0.8
 50
0.0
 71
0
 42
0.2
  3
gdt
  4

  0
ENDTAB
  0
TABLE
  2
VIEW
  5
6
100
AcDbSymbolTable
 70
0
  0
ENDTAB
  0
TABLE
  2
UCS
  5
7
100
AcDbSymbolTable
 70
0
  0
ENDTAB
  0
TABLE
  2
APPID
  5
9
100
AcDbSymbolTable
 70
1
  0
APPID
  5
20F
100
AcDbSymbolTableRecord
100
AcDbRegAppTableRecord
  2
ACAD
 70
0
  0
ENDTAB
  0
TABLE
  2
BLOCK_RECORD
  5
1
100
AcDbSymbolTable
 70
0
  0
BLOCK_RECORD
  5
210
100
AcDbSymbolTableRecord
100
AcDbBlockTableRecord
  2
*Model_Space
  0
BLOCK_RECORD
  5
211
100
AcDbSymbolTableRecord
100
AcDbBlockTableRecord
  2
*Paper_Space
  0
BLOCK_RECORD
  5
212
100
AcDbSymbolTableRecord
100
AcDbBlockTableRecord
  2
_FILLED
  0
ENDTAB
  0
TABLE
  2
DIMSTYLE
  5
A
100
AcDbSymbolTable
 70
1
100
AcDbDimStyleTable
 71
0
  0
DIMSTYLE
105
213
100
AcDbSymbolTableRecord
100
AcDbDimStyleTableRecord
  2
STANDARD
 70
0
  3

  4

 40
1.0
 41
0.4514510532
 42
1.0
 43
0.38
 44
1.0
 45
0.0
 46
0.0
 47
0.01
 48
0.01
140
0.6320314745
141
0.09
142
0.0
143
25.4
144
1.0
145
0.0
146
1.0
147
0.625
 71
1
 72
0
 73
0
 74
0
 75
0
 76
0
 77
1
 78
8
 79
2
170
0
171
1
172
0
173
0
174
0
175
0
176
0
177
0
178
0
270
2
179
2
271
2
272
2
273
2
274
2
275
0
280
0
281
0
282
0
283
1
284
8
285
0
286
0
287
3
288
0
340
11
278
46
341
212
342
212
343
212
344
212
  0
ENDTAB
  0
ENDSEC
  0
SECTION
  2
BLOCKS
  0
BLOCK
  5
20
100
AcDbEntity
  8
0
100
AcDbBlockBegin
  2
*Model_Space
 70
0
 10
0.0
 20
0.0
 30
0.0
  3
*Model_Space
  1

  0
ENDBLK
  5
21
100
AcDbEntity
  8
0
100
AcDbBlockEnd
  0
BLOCK
  5
1C
100
AcDbEntity
  8
0
100
AcDbBlockBegin
  2
*Paper_Space
 70
0
 10
0.0
 20
0.0
 30
0.0
  3
*Paper_Space
  1

  0
ENDBLK
  5
1D
100
AcDbEntity
  8
0
100
AcDbBlockEnd
  0
BLOCK
  5
214
100
AcDbEntity
  8
0
100
AcDbBlockBegin
  2
_FILLED
 70
64
 10
0.0
 20
0.0
  3
_FILLED
  1

  0
SOLID
  5
215
100
AcDbEntity
  8
0
  6
BYBLOCK
 62
0
100
AcDbTrace
 10
0.0
 20
0.0
 11
-1.0
 21
0.25
 12
-1.0
 22
-0.25
 13
-1.0
 23
-0.25
  0
ENDBLK
  5
216
100
AcDbEntity
  8
0
  6
BYBLOCK
 62
0
100
AcDbBlockEnd
  0
ENDSEC
  0
SECTION
  2
ENTITIES
  0
LINE
  5
217
100
AcDbEntity
  8
0
100
AcDbLine
 62
7
  6
BYLAYER
 10
4.0265897487
 20
42.815093813
 11
4.5265897487
 21
43.315093813
  0
LINE
  5
218
100
AcDbEntity
  8
0
100
AcDbLine
 62
7
  6
BYLAYER
 10
4.0265897487
 20
42.815093813
 11
4.0265897487
 21
27.815093813
  0
LINE
  5
219
100
AcDbEntity
  8
0
100
AcDbLine
 62
7
  6
BYLAYER
 10
19.5160856002
 20
10.8862311223
 11
18.5370938972
 21
10.8862311223
  0
LINE
  5
21A
100
AcDbEntity
  8
0
100
AcDbLine
 62
7
  6
BYLAYER
 10
15.2636242582
 20
11.715093813
 11
15.3117546245
 21
11.715093813
  0
LINE
  5
21B
100
AcDbEntity
  8
0
100
AcDbLine
 62
7
  6
BYLAYER
 10
22.7414248729
 20
11.715093813
 11
22.7895552104
 21
11.715093813
  0
LINE
  5
21C
100
AcDbEntity
  8
0
100
AcDbLine
 62
7
  6
BYLAYER
 10
15.0265897487
 20
11.89161843
 11
23.0265897266
 21
11.89161843
  0
LINE
  5
21D
100
AcDbEntity
  8
0
100
AcDbLine
 62
7
  6
BYLAYER
 10
4.5265897487
 20
43.315093813
 11
4.5265897487
 21
27.315093813
  0
LINE
  5
21E
100
AcDbEntity
  8
0
100
AcDbLine
 62
7
  6
BYLAYER
 10
23.0264845903
 20
13.615093813
 11
15.0266949071
 21
13.615093813
  0
LINE
  5
21F
100
AcDbEntity
  8
0
100
AcDbLine
 62
7
  6
BYLAYER
 10
17.2865897487
 20
13.765093813
 11
20.7665897487
 21
13.765093813
  0
LINE
  5
220
100
AcDbEntity
  8
0
100
AcDbLine
 62
7
  6
BYLAYER
 10
15.0265897605
 20
11.89161843
 11
15.2636122043
 21
11.715093813
  0
LINE
  5
221
100
AcDbEntity
  8
0
100
AcDbLine
 62
7
  6
BYLAYER
 10
20.7665897487
 20
14.465093813
 11
17.2865897487
 21
14.465093813
  0
LINE
  5
222
100
AcDbEntity
  8
0
100
AcDbLine
 62
7
  6
BYLAYER
 10
17.026595816
 20
14.615093813
 11
21.0265836814
 21
14.615093813
  0
LINE
  5
223
100
AcDbEntity
  8
0
100
AcDbLine
 62
7
  6
BYLAYER
 10
11.0265897487
 20
14.815093813
 11
27.0265897487
 21
14.815093813
  0
LINE
  5
224
100
AcDbEntity
  8
0
100
AcDbLine
 62
7
  6
BYLAYER
 10
23.1515897487
 20
15.705093813
 11
20.0265898163
 21
15.4650938147
  0
LINE
  5
225
100
AcDbEntity
  8
0
100
AcDbLine
 62
7
  6
BYLAYER
 10
18.026595478
 20
15.465093813
 11
20.0265840194
 21
15.465093813
  0
LINE
  5
226
100
AcDbEntity
  8
0
100
AcDbLine
 62
7
  6
BYLAYER
 10
14.9015897487
 20
15.705093813
 11
23.1515897487
 21
15.705093813
  0
LINE
  5
227
100
AcDbEntity
  8
0
100
AcDbLine
 62
7
  6
BYLAYER
 10
23.2765897487
 20
15.7947771643
 11
14.7765897487
 21
15.7947771643
  0
LINE
  5
228
100
AcDbEntity
  8
0
100
AcDbLine
 62
7
  6
BYLAYER
 10
11.0265897487
 20
16.565093813
 11
27.0265897487
 21
16.565093813
  0
LINE
  5
229
100
AcDbEntity
  8
0
100
AcDbLine
 62
7
  6
BYLAYER
 10
14.9015897487
 20
15.705093813
 11
18.0265896811
 21
15.4650938147
  0
LINE
  5
22A
100
AcDbEntity
  8
0
100
AcDbLine
 62
7
  6
BYLAYER
 10
4.5265897487
 20
27.315093813
 11
4.0265897487
 21
27.815093813
  0
LINE
  5
22B
100
AcDbEntity
  8
0
100
AcDbLine
 62
7
  6
BYLAYER
 10
11.0265897487
 20
14.815093813
 11
11.0265897487
 21
35.315093813
  0
LINE
  5
22C
100
AcDbEntity
  8
0
100
AcDbLine
 62
7
  6
BYLAYER
 10
11.0747902267
 20
14.815093813
 11
11.0747902267
 21
16.5530699269
  0
LINE
  5
22D
100
AcDbEntity
  8
0
100
AcDbLine
 62
7
  6
BYLAYER
 10
12.4749441731
 20
15.2066151985
 11
12.4749441731
 21
16.2130182553
  0
LINE
  5
22E
100
AcDbEntity
  8
0
100
AcDbLine
 62
7
  6
BYLAYER
 10
12.6225493447
 20
22.065093813
 11
12.6225493447
 21
35.315093813
  0
LINE
  5
22F
100
AcDbEntity
  8
0
100
AcDbLine
 62
7
  6
BYLAYER
 10
13.3935650941
 20
23.2103303365
 11
13.3935650941
 21
22.365093813
  0
LINE
  5
230
100
AcDbEntity
  8
0
100
AcDbLine
 62
7
  6
BYLAYER
 10
13.4732059537
 20
24.365093813
 11
13.4732059537
 21
22.365093813
  0
LINE
  5
231
100
AcDbEntity
  8
0
100
AcDbLine
 62
7
  6
BYLAYER
 10
14.2765897487
 20
22.065093813
 11
14.2765897487
 21
22.315093813
  0
LINE
  5
232
100
AcDbEntity
  8
0
100
AcDbLine
 62
7
  6
BYLAYER
 10
14.5537025176
 20
22.365093813
 11
14.5537025176
 21
24.365093813
  0
LINE
  5
233
100
AcDbEntity
  8
0
100
AcDbLine
 62
7
  6
BYLAYER
 10
13.4732059537
 20
22.365093813
 11
13.4583612789
 21
22.0764029439
  0
LINE
  5
234
100
AcDbEntity
  8
0
100
AcDbLine
 62
7
  6
BYLAYER
 10
13.3570636006
 20
22.065093813
 11
13.3935650941
 21
22.365093813
  0
LINE
  5
235
100
AcDbEntity
  8
0
100
AcDbLine
 62
7
  6
BYLAYER
 10
13.3935650941
 20
23.2103303365
 11
13.2290616819
 21
22.065093813
  0
LINE
  5
236
100
AcDbEntity
  8
0
100
AcDbLine
 62
7
  6
BYLAYER
 10
27.0265220979
 20
22.065093813
 11
11.0266573995
 21
22.065093813
  0
LINE
  5
237
100
AcDbEntity
  8
0
100
AcDbLine
 62
7
  6
BYLAYER
 10
24.5948182184
 20
22.0764029439
 11
23.7765897487
 21
22.0764029439
  0
LINE
  5
238
100
AcDbEntity
  8
0
100
AcDbLine
 62
7
  6
BYLAYER
 10
14.2765897487
 20
22.0764029439
 11
13.4583612789
 21
22.0764029439
  0
LINE
  5
239
100
AcDbEntity
  8
0
100
AcDbLine
 62
7
  6
BYLAYER
 10
23.7765845608
 20
22.315093813
 11
14.2765949366
 21
22.315093813
  0
LINE
  5
23A
100
AcDbEntity
  8
0
100
AcDbLine
 62
7
  6
BYLAYER
 10
24.6596144033
 20
22.365093813
 11
24.5799735436
 21
22.365093813
  0
LINE
  5
23B
100
AcDbEntity
  8
0
100
AcDbLine
 62
7
  6
BYLAYER
 10
13.4732059537
 20
22.365093813
 11
13.3935650941
 21
22.365093813
  0
LINE
  5
23C
100
AcDbEntity
  8
0
100
AcDbLine
 62
7
  6
BYLAYER
 10
13.5083314467
 20
22.365093813
 11
24.5448480507
 21
22.365093813
  0
LINE
  5
23D
100
AcDbEntity
  8
0
100
AcDbLine
 62
7
  6
BYLAYER
 10
14.9015897487
 20
15.705093813
 11
14.9015897487
 21
15.7947771643
  0
LINE
  5
23E
100
AcDbEntity
  8
0
100
AcDbLine
 62
7
  6
BYLAYER
 10
15.0265897487
 20
11.89161843
 11
15.0265897487
 21
13.615093813
  0
LINE
  5
23F
100
AcDbEntity
  8
0
100
AcDbLine
 62
7
  6
BYLAYER
 10
16.0515897487
 20
22.365093813
 11
16.0515897487
 21
22.315093813
  0
LINE
  5
240
100
AcDbEntity
  8
0
100
AcDbLine
 62
7
  6
BYLAYER
 10
16.9765897487
 20
25.865093813
 11
16.9765897487
 21
24.365093813
  0
LINE
  5
241
100
AcDbEntity
  8
0
100
AcDbLine
 62
7
  6
BYLAYER
 10
17.0265897487
 20
14.615093813
 11
17.0265897487
 21
14.815093813
  0
LINE
  5
242
100
AcDbEntity
  8
0
100
AcDbLine
 62
7
  6
BYLAYER
 10
17.2865897487
 20
13.765093813
 11
17.2865897487
 21
14.465093813
  0
LINE
  5
243
100
AcDbEntity
  8
0
100
AcDbLine
 62
7
  6
BYLAYER
 10
24.5799735436
 20
24.365093813
 11
13.4732059537
 21
24.365093813
  0
LINE
  5
244
100
AcDbEntity
  8
0
100
AcDbLine
 62
7
  6
BYLAYER
 10
18.5370938972
 20
10.8862311223
 11
18.5370938972
 21
10.5897437248
  0
LINE
  5
245
100
AcDbEntity
  8
0
100
AcDbLine
 62
7
  6
BYLAYER
 10
21.0765897487
 20
25.865093813
 11
16.9765897487
 21
25.865093813
  0
LINE
  5
246
100
AcDbEntity
  8
0
100
AcDbLine
 62
7
  6
BYLAYER
 10
19.5160856002
 20
10.5897437248
 11
19.5160856002
 21
10.8862311223
  0
LINE
  5
247
100
AcDbEntity
  8
0
100
AcDbLine
 62
7
  6
BYLAYER
 10
4.5265897487
 20
27.315093813
 11
11.0265897487
 21
27.315093813
  0
LINE
  5
248
100
AcDbEntity
  8
0
100
AcDbLine
 62
7
  6
BYLAYER
 10
27.0265897487
 20
27.315093813
 11
33.5265897487
 21
27.315093813
  0
LINE
  5
249
100
AcDbEntity
  8
0
100
AcDbLine
 62
7
  6
BYLAYER
 10
4.0265897487
 20
27.815093813
 11
11.0265897487
 21
27.815093813
  0
LINE
  5
24A
100
AcDbEntity
  8
0
100
AcDbLine
 62
7
  6
BYLAYER
 10
27.0265897487
 20
27.815093813
 11
34.0265897487
 21
27.815093813
  0
LINE
  5
24B
100
AcDbEntity
  8
0
100
AcDbLine
 62
7
  6
BYLAYER
 10
20.7665897487
 20
13.765093813
 11
20.7665897487
 21
14.465093813
  0
LINE
  5
24C
100
AcDbEntity
  8
0
100
AcDbLine
 62
7
  6
BYLAYER
 10
21.0265897487
 20
14.615093813
 11
21.0265897487
 21
14.815093813
  0
LINE
  5
24D
100
AcDbEntity
  8
0
100
AcDbLine
 62
7
  6
BYLAYER
 10
21.0765897487
 20
25.865093813
 11
21.0765897487
 21
24.365093813
  0
LINE
  5
24E
100
AcDbEntity
  8
0
100
AcDbLine
 62
7
  6
BYLAYER
 10
22.0015897487
 20
22.365093813
 11
22.0015897487
 21
22.315093813
  0
LINE
  5
24F
100
AcDbEntity
  8
0
100
AcDbLine
 62
7
  6
BYLAYER
 10
23.0265897487
 20
11.89161843
 11
23.0265897487
 21
13.615093813
  0
LINE
  5
250
100
AcDbEntity
  8
0
100
AcDbLine
 62
7
  6
BYLAYER
 10
23.1515897487
 20
15.705093813
 11
23.1515897487
 21
15.7947771643
  0
LINE
  5
251
100
AcDbEntity
  8
0
100
AcDbLine
 62
7
  6
BYLAYER
 10
23.4994769798
 20
24.365093813
 11
23.4994769798
 21
22.365093813
  0
LINE
  5
252
100
AcDbEntity
  8
0
100
AcDbLine
 62
7
  6
BYLAYER
 10
24.5799735436
 20
22.365093813
 11
24.5948182184
 21
22.0764029439
  0
LINE
  5
253
100
AcDbEntity
  8
0
100
AcDbLine
 62
7
  6
BYLAYER
 10
23.7765897487
 20
22.065093813
 11
23.7765897487
 21
22.315093813
  0
LINE
  5
254
100
AcDbEntity
  8
0
100
AcDbLine
 62
7
  6
BYLAYER
 10
24.5799735436
 20
22.365093813
 11
24.5799735436
 21
24.365093813
  0
LINE
  5
255
100
AcDbEntity
  8
0
100
AcDbLine
 62
7
  6
BYLAYER
 10
24.6596144033
 20
23.2103303365
 11
24.6596144033
 21
22.365093813
  0
LINE
  5
256
100
AcDbEntity
  8
0
100
AcDbLine
 62
7
  6
BYLAYER
 10
24.8241178155
 20
22.065093813
 11
24.6596144033
 21
23.2103303365
  0
LINE
  5
257
100
AcDbEntity
  8
0
100
AcDbLine
 62
7
  6
BYLAYER
 10
24.6596144033
 20
22.365093813
 11
24.6961158968
 21
22.065093813
  0
LINE
  5
258
100
AcDbEntity
  8
0
100
AcDbLine
 62
7
  6
BYLAYER
 10
25.4306301527
 20
35.315093813
 11
25.4306301527
 21
22.065093813
  0
LINE
  5
259
100
AcDbEntity
  8
0
100
AcDbLine
 62
7
  6
BYLAYER
 10
25.5782353243
 20
15.2066151985
 11
25.5782353243
 21
16.2130182553
  0
LINE
  5
25A
100
AcDbEntity
  8
0
100
AcDbLine
 62
7
  6
BYLAYER
 10
26.9783892707
 20
16.5530699269
 11
26.9783892707
 21
14.815093813
  0
LINE
  5
25B
100
AcDbEntity
  8
0
100
AcDbLine
 62
7
  6
BYLAYER
 10
27.0265897487
 20
14.815093813
 11
27.0265897487
 21
35.315093813
  0
LINE
  5
25C
100
AcDbEntity
  8
0
100
AcDbLine
 62
7
  6
BYLAYER
 10
27.0265897487
 20
35.3150938572
 11
25.4306301527
 21
35.3150938572
  0
LINE
  5
25D
100
AcDbEntity
  8
0
100
AcDbLine
 62
7
  6
BYLAYER
 10
12.6225493446
 20
35.315093813
 11
11.0265897487
 21
35.315093813
  0
LINE
  5
25E
100
AcDbEntity
  8
0
100
AcDbLine
 62
7
  6
BYLAYER
 10
34.0265897487
 20
27.815093813
 11
33.5265897487
 21
27.315093813
  0
LINE
  5
25F
100
AcDbEntity
  8
0
100
AcDbLine
 62
7
  6
BYLAYER
 10
33.5265897487
 20
27.315093813
 11
33.5265897487
 21
43.315093813
  0
LINE
  5
260
100
AcDbEntity
  8
0
100
AcDbLine
 62
7
  6
BYLAYER
 10
22.7895672642
 20
11.715093813
 11
23.0265897266
 21
11.89161843
  0
LINE
  5
261
100
AcDbEntity
  8
0
100
AcDbLine
 62
7
  6
BYLAYER
 10
34.0265897487
 20
27.815093813
 11
34.0265897487
 21
42.815093813
  0
LINE
  5
262
100
AcDbEntity
  8
0
100
AcDbLine
 62
7
  6
BYLAYER
 10
14.8181564527
 20
42.815093813
 11
4.0265897487
 21
42.815093813
  0
LINE
  5
263
100
AcDbEntity
  8
0
100
AcDbLine
 62
7
  6
BYLAYER
 10
23.2348611968
 20
42.815093813
 11
34.0265897487
 21
42.815093813
  0
LINE
  5
264
100
AcDbEntity
  8
0
100
AcDbLine
 62
7
  6
BYLAYER
 10
18.0265897487
 20
43.2523477462
 11
20.0265528611
 21
43.2523477462
  0
LINE
  5
265
100
AcDbEntity
  8
0
100
AcDbLine
 62
7
  6
BYLAYER
 10
33.5265897487
 20
43.315093813
 11
4.5265897487
 21
43.315093813
  0
LINE
  5
266
100
AcDbEntity
  8
0
100
AcDbLine
 62
7
  6
BYLAYER
 10
33.5265897487
 20
43.315093813
 11
34.0265897487
 21
42.815093813
  0
ARC
  5
267
100
AcDbEntity
  8
0
100
AcDbCircle
 62
7
  6
BYLAYER
 10
-45.4065680788
 20
60.7502457434
 40
70.9458630771
100
AcDbArc
 50
345.3567046587
 51
345.7736675867
  0
ARC
  5
268
100
AcDbEntity
  8
0
100
AcDbCircle
 62
7
  6
BYLAYER
 10
83.4566479934
 20
60.7502735871
 40
70.9430278076
100
AcDbArc
 50
194.2269361543
 51
194.6439168941
  0
ARC
  5
269
100
AcDbEntity
  8
0
100
AcDbCircle
 62
7
  6
BYLAYER
 10
19.0265897487
 20
45.9972191185
 40
30.5
100
AcDbArc
 50
254.7937121239
 51
261.9900966803
  0
ARC
  5
26A
100
AcDbEntity
  8
0
100
AcDbCircle
 62
7
  6
BYLAYER
 10
19.0265897487
 20
45.9972191185
 40
30.5
100
AcDbArc
 50
278.0099033197
 51
285.2062878761
  0
ARC
  5
26B
100
AcDbEntity
  8
0
100
AcDbCircle
 62
7
  6
BYLAYER
 10
5.8489581889
 20
29.9705268519
 40
22.992185784
100
AcDbArc
 50
302.5742434912
 51
302.7309712333
  0
ARC
  5
26C
100
AcDbEntity
  8
0
100
AcDbCircle
 62
7
  6
BYLAYER
 10
32.1733292161
 20
29.9232710094
 40
22.9357309497
100
AcDbArc
 50
237.2702497019
 51
237.4272336614
  0
ARC
  5
26D
100
AcDbEntity
  8
0
100
AcDbCircle
 62
7
  6
BYLAYER
 10
19.0265676758
 20
35.3151434194
 40
8.5999991041
100
AcDbArc
 50
119.2978839274
 51
199.0208015885
  0
ARC
  5
26E
100
AcDbEntity
  8
0
100
AcDbCircle
 62
7
  6
BYLAYER
 10
19.0266216005
 20
35.3150641873
 40
8.599983188
100
AcDbArc
 50
340.979306882
 51
60.7033837858
  0
ARC
  5
26F
100
AcDbEntity
  8
0
100
AcDbCircle
 62
7
  6
BYLAYER
 10
19.0265676758
 20
35.3151434194
 40
8.1000079871
100
AcDbArc
 50
99.0134410131
 51
190.3757781697
  0
ARC
  5
270
100
AcDbEntity
  8
0
100
AcDbCircle
 62
7
  6
BYLAYER
 10
19.0266216005
 20
35.3150641873
 40
8.0999920077
100
AcDbArc
 50
349.6866956599
 51
80.9885551733
  0
ARC
  5
271
100
AcDbEntity
  8
0
100
AcDbCircle
 62
7
  6
BYLAYER
 10
19.0265897487
 20
35.315093813
 40
8.0
100
AcDbArc
 50
97.1806014287
 51
180.0
  0
ARC
  5
272
100
AcDbEntity
  8
0
100
AcDbCircle
 62
7
  6
BYLAYER
 10
19.0265897487
 20
35.315093813
 40
8.0
100
AcDbArc
 50
0.0
 51
82.8193752775
  0
ARC
  5
273
100
AcDbEntity
  8
0
100
AcDbCircle
 62
7
  6
BYLAYER
 10
19.0262724117
 20
17.0304269093
 40
6.4846202684
100
AcDbArc
 50
235.0529694016
 51
262.9267653674
  0
ARC
  5
274
100
AcDbEntity
  8
0
100
AcDbCircle
 62
7
  6
BYLAYER
 10
19.0269943612
 20
17.0294407426
 40
6.4836502556
100
AcDbArc
 50
277.0735423956
 51
304.9470278386
  0
ARC
  5
275
100
AcDbEntity
  8
0
100
AcDbCircle
 62
7
  6
BYLAYER
 10
18.8793992412
 20
14.3896331277
 40
3.873122688
100
AcDbArc
 50
280.3744078923
 51
283.3461911101
  0
ARC
  5
276
100
AcDbEntity
  8
0
100
AcDbCircle
 62
7
  6
BYLAYER
 10
19.1702493234
 20
14.3720506298
 40
3.8552030463
100
AcDbArc
 50
256.6454436409
 51
259.6293623811
  0
ARC
  5
277
100
AcDbEntity
  8
0
100
AcDbCircle
 62
7
  6
BYLAYER
 10
24.8265897487
 20
41.5287883662
 40
0.8
100
AcDbArc
 50
190.956269022
 51
226.97221509
  0
ARC
  5
278
100
AcDbEntity
  8
0
100
AcDbCircle
 62
7
  6
BYLAYER
 10
13.2265897487
 20
41.5287883662
 40
0.8
100
AcDbArc
 50
313.02778491
 51
348.9819303371
  0
ARC
  5
279
100
AcDbEntity
  8
0
100
AcDbCircle
 62
7
  6
BYLAYER
 10
20.9165897487
 20
14.465093813
 40
0.15
100
AcDbArc
 50
90.0
 51
180.0
  0
ARC
  5
27A
100
AcDbEntity
  8
0
100
AcDbCircle
 62
7
  6
BYLAYER
 10
17.1365897487
 20
14.465093813
 40
0.15
100
AcDbArc
 50
0.0
 51
90.0
  0
ARC
  5
27B
100
AcDbEntity
  8
0
100
AcDbCircle
 62
7
  6
BYLAYER
 10
20.9165897487
 20
13.765093813
 40
0.15
100
AcDbArc
 50
180.0
 51
270.0
  0
ARC
  5
27C
100
AcDbEntity
  8
0
100
AcDbCircle
 62
7
  6
BYLAYER
 10
17.1365897487
 20
13.765093813
 40
0.15
100
AcDbArc
 50
270.0
 51
360.0
  0
SPLINE
  5
27D
100
AcDbEntity
  8
0
100
AcDbSpline
 62
7
  6
BYLAYER
 70
0
 71
3
 72
10
 73
6
 74
0
 42
0.0000001
 43
0.0000001
 44
0.0000000001
 40
0.0
 40
0.0
 40
0.0
 40
0.0
 40
0.2543586342
 40
0.5056521903
 40
1.0
 40
1.0
 40
1.0
 40
1.0
 10
20.7946193375
 20
11.0152883452
 30
0.0
 10
20.7128779786
 20
10.9708556289
 30
0.0
 10
20.5475739778
 20
10.8875280521
 30
0.0
 10
20.2107745499
 20
10.7444635507
 30
0.0
 10
19.9493851201
 20
10.6628441111
 30
0.0
 10
19.7734485209
 20
10.6211115022
 30
0.0
  0
SPLINE
  5
27E
100
AcDbEntity
  8
0
100
AcDbSpline
 62
7
  6
BYLAYER
 70
0
 71
3
 72
9
 73
5
 74
0
 42
0.0000001
 43
0.0000001
 44
0.0000000001
 40
0.0
 40
0.0
 40
0.0
 40
0.0
 40
0.4944517747
 40
1.0
 40
1.0
 40
1.0
 40
1.0
 10
18.279788857
 20
10.6210946601
 30
0.0
 10
18.1038605899
 20
10.6628343205
 30
0.0
 10
17.7535565121
 20
10.7721394369
 30
0.0
 10
17.4210051918
 20
10.9269528975
 30
0.0
 10
17.2585796788
 20
11.0152408266
 30
0.0
  0
SPLINE
  5
27F
100
AcDbEntity
  8
0
100
AcDbSpline
 62
7
  6
BYLAYER
 70
0
 71
3
 72
14
 73
10
 74
0
 42
0.0000001
 43
0.0000001
 44
0.0000000001
 40
0.0
 40
0.0
 40
0.0
 40
0.0
 40
0.213147159
 40
0.4047664804
 40
0.5717768792
 40
0.7118744978
 40
0.8240347301
 40
0.9079020476
 40
1.0
 40
1.0
 40
1.0
 40
1.0
 10
18.4763496027
 20
10.5798282365
 30
0.0
 10
18.4808303186
 20
10.5798219243
 30
0.0
 10
18.4893412254
 20
10.5799068644
 30
0.0
 10
18.501348817
 20
10.5803605783
 30
0.0
 10
18.511823148
 20
10.581145696
 30
0.0
 10
18.5205292053
 20
10.5822022124
 30
0.0
 10
18.5275931973
 20
10.5836396731
 30
0.0
 10
18.5330497987
 20
10.5852625257
 30
0.0
 10
18.5370938972
 20
10.5878076673
 30
0.0
 10
18.5370938972
 20
10.5897437249
 30
0.0
  0
SPLINE
  5
280
100
AcDbEntity
  8
0
100
AcDbSpline
 62
7
  6
BYLAYER
 70
0
 71
3
 72
14
 73
10
 74
0
 42
0.0000001
 43
0.0000001
 44
0.0000000001
 40
0.0
 40
0.0
 40
0.0
 40
0.0
 40
0.0920978724
 40
0.1759652048
 40
0.2881254289
 40
0.428223021
 40
0.5952334357
 40
0.7868527941
 40
1.0
 40
1.0
 40
1.0
 40
1.0
 10
19.5160856002
 20
10.5897437249
 30
0.0
 10
19.5160856002
 20
10.5878076693
 30
0.0
 10
19.5201296997
 20
10.5852625339
 30
0.0
 10
19.525586293
 20
10.5836396687
 30
0.0
 10
19.5326502801
 20
10.5822021864
 30
0.0
 10
19.5413563376
 20
10.5811456758
 30
0.0
 10
19.5518306738
 20
10.5803606335
 30
0.0
 10
19.5638382672
 20
10.5799069795
 30
0.0
 10
19.5723491729
 20
10.5798219858
 30
0.0
 10
19.5768298892
 20
10.5798282323
 30
0.0
  0
SPLINE
  5
281
100
AcDbEntity
  8
0
100
AcDbSpline
 62
7
  6
BYLAYER
 70
0
 71
3
 72
25
 73
21
 74
0
 42
0.0000001
 43
0.0000001
 44
0.0000000001
 40
0.0
 40
0.0
 40
0.0
 40
0.0
 40
0.0024008269
 40
0.004129083
 40
0.0063076597
 40
0.0121278933
 40
0.0199862341
 40
0.0299207985
 40
0.0419452806
 40
0.0560627316
 40
0.0722625302
 40
0.1108259554
 40
0.1574578961
 40
0.2119629878
 40
0.2740683985
 40
0.3434426503
 40
0.41975036
 40
0.5916577436
 40
0.7864983468
 40
1.0
 40
1.0
 40
1.0
 40
1.0
 10
13.4732059537
 20
24.365093813
 30
0.0
 10
13.4722771867
 20
24.365093813
 30
0.0
 10
13.470773364
 20
24.3640857429
 30
0.0
 10
13.4693470508
 20
24.3621463701
 30
0.0
 10
13.4675163231
 20
24.3588299424
 30
0.0
 10
13.4653962689
 20
24.353059919
 30
0.0
 10
13.4629684076
 20
24.3442477125
 30
0.0
 10
13.4605327855
 20
24.3329685483
 30
0.0
 10
13.4580765981
 20
24.3192282536
 30
0.0
 10
13.4556142937
 20
24.3030329051
 30
0.0
 10
13.4521170827
 20
24.2766155318
 30
0.0
 10
13.447856702
 20
24.2376182107
 30
0.0
 10
13.4429575837
 20
24.1837957185
 30
0.0
 10
13.4380426609
 20
24.1208350245
 30
0.0
 10
13.4331127761
 20
24.0490546624
 30
0.0
 10
13.4281720807
 20
23.9688229437
 30
0.0
 10
13.4213017006
 20
23.8461543371
 30
0.0
 10
13.4128671375
 20
23.6749628793
 30
0.0
 10
13.4030653432
 20
23.4507051155
 30
0.0
 10
13.3967614948
 20
23.2928622107
 30
0.0
 10
13.3935650941
 20
23.2103303365
 30
0.0
  0
SPLINE
  5
282
100
AcDbEntity
  8
0
100
AcDbSpline
 62
7
  6
BYLAYER
 70
0
 71
3
 72
25
 73
21
 74
0
 42
0.0000001
 43
0.0000001
 44
0.0000000001
 40
0.0
 40
0.0
 40
0.0
 40
0.0
 40
0.2135017154
 40
0.4083424651
 40
0.5802498716
 40
0.6565575699
 40
0.7259317893
 40
0.7880371684
 40
0.8425422477
 40
0.889174156
 40
0.9277375406
 40
0.9439373243
 40
0.9580547675
 40
0.9700792407
 40
0.9800137943
 40
0.987872124
 40
0.993692348
 40
0.995870921
 40
0.9975991745
 40
1.0
 40
1.0
 40
1.0
 40
1.0
 10
24.6596144033
 20
23.2103303365
 30
0.0
 10
24.6564180016
 20
23.292862235
 30
0.0
 10
24.6501141489
 20
23.4507052208
 30
0.0
 10
24.6403123517
 20
23.6749630747
 30
0.0
 10
24.631877783
 20
23.8461545939
 30
0.0
 10
24.6250074033
 20
23.9688231928
 30
0.0
 10
24.6200667073
 20
24.0490548825
 30
0.0
 10
24.6151368213
 20
24.1208352151
 30
0.0
 10
24.6102219003
 20
24.1837958798
 30
0.0
 10
24.6053227825
 20
24.237618339
 30
0.0
 10
24.6010624024
 20
24.276615626
 30
0.0
 10
24.5975651934
 20
24.303032975
 30
0.0
 10
24.5951028921
 20
24.3192283115
 30
0.0
 10
24.5926467068
 20
24.3329685959
 30
0.0
 10
24.5902110865
 20
24.3442477484
 30
0.0
 10
24.5877832266
 20
24.3530599426
 30
0.0
 10
24.5856631731
 20
24.3588299564
 30
0.0
 10
24.5838324459
 20
24.3621463773
 30
0.0
 10
24.5824061324
 20
24.3640857465
 30
0.0
 10
24.5809023101
 20
24.365093813
 30
0.0
 10
24.5799735436
 20
24.365093813
 30
0.0
  0
SPLINE
  5
283
100
AcDbEntity
  8
0
100
AcDbSpline
 62
7
  6
BYLAYER
 70
0
 71
3
 72
11
 73
7
 74
0
 42
0.0000001
 43
0.0000001
 44
0.0000000001
 40
0.0
 40
0.0
 40
0.0
 40
0.0
 40
0.2439092066
 40
0.491243546
 40
0.7430093789
 40
1.0
 40
1.0
 40
1.0
 40
1.0
 10
19.825338905
 20
10.5951301748
 30
0.0
 10
19.9092554177
 20
10.6151693372
 30
0.0
 10
20.0765427934
 20
10.6631529427
 30
0.0
 10
20.3221424762
 20
10.7575920159
 30
0.0
 10
20.5630321644
 20
10.8744681857
 30
0.0
 10
20.7181804487
 20
10.9660899133
 30
0.0
 10
20.7946193375
 20
11.0152883452
 30
0.0
  0
SPLINE
  5
284
100
AcDbEntity
  8
0
100
AcDbSpline
 62
7
  6
BYLAYER
 70
0
 71
3
 72
10
 73
6
 74
0
 42
0.0000001
 43
0.0000001
 44
0.0000000001
 40
0.0
 40
0.0
 40
0.0
 40
0.0
 40
0.5085956621
 40
0.7560339464
 40
1.0
 40
1.0
 40
1.0
 40
1.0
 10
17.2585796788
 20
11.0152408266
 30
0.0
 10
17.4097784496
 20
10.9179324972
 30
0.0
 10
17.6463309947
 20
10.7901323565
 30
0.0
 10
17.9766072718
 20
10.6631757292
 30
0.0
 10
18.1438706956
 20
10.6151728203
 30
0.0
 10
18.2277617752
 20
10.5951388103
 30
0.0
  0
SPLINE
  5
285
100
AcDbEntity
  8
0
100
AcDbSpline
 62
7
  6
BYLAYER
 70
0
 71
3
 72
11
 73
7
 74
0
 42
0.0000001
 43
0.0000001
 44
0.0000000001
 40
0.0
 40
0.0
 40
0.0
 40
0.0
 40
0.2918598137
 40
0.5586210337
 40
0.7959572004
 40
1.0
 40
1.0
 40
1.0
 40
1.0
 10
12.640348789
 20
16.176044362
 30
0.0
 10
12.628363852
 20
16.0810747184
 30
0.0
 10
12.603997625
 20
15.8994772563
 30
0.0
 10
12.564020572
 20
15.6414763494
 30
0.0
 10
12.5223399597
 20
15.4129660472
 30
0.0
 10
12.4912270928
 20
15.2715250911
 30
0.0
 10
12.4749441731
 20
15.2066151985
 30
0.0
  0
SPLINE
  5
286
100
AcDbEntity
  8
0
100
AcDbSpline
 62
7
  6
BYLAYER
 70
0
 71
3
 72
16
 73
12
 74
0
 42
0.0000001
 43
0.0000001
 44
0.0000000001
 40
0.0
 40
0.0
 40
0.0
 40
0.0
 40
0.2105573549
 40
0.3970969053
 40
0.5587127233
 40
0.6948322118
 40
0.7533440939
 40
0.8055483891
 40
0.8515548322
 40
0.8915643283
 40
1.0
 40
1.0
 40
1.0
 40
1.0
 10
12.4749441731
 20
15.2066151985
 30
0.0
 10
12.4674982019
 20
15.1766176515
 30
0.0
 10
12.4528263868
 20
15.1201963945
 30
0.0
 10
12.4298464828
 20
15.0414519385
 30
0.0
 10
12.4072800159
 20
14.9740177584
 30
0.0
 10
12.3880600118
 20
14.9253454121
 30
0.0
 10
12.3726622345
 20
14.8925163228
 30
0.0
 10
12.3618809772
 20
14.8722244441
 30
0.0
 10
12.3511315989
 20
14.8548492021
 30
0.0
 10
12.3345659736
 20
14.8323140248
 30
0.0
 10
12.3152340514
 20
14.815093813
 30
0.0
 10
12.2993167081
 20
14.815093813
 30
0.0
  0
SPLINE
  5
287
100
AcDbEntity
  8
0
100
AcDbSpline
 62
7
  6
BYLAYER
 70
0
 71
3
 72
16
 73
12
 74
0
 42
0.0000001
 43
0.0000001
 44
0.0000000001
 40
0.0
 40
0.0
 40
0.0
 40
0.0
 40
0.1084367515
 40
0.1484463167
 40
0.1944525483
 40
0.2466565384
 40
0.305168085
 40
0.4412870283
 40
0.602902724
 40
0.7894424458
 40
1.0
 40
1.0
 40
1.0
 40
1.0
 10
25.7538627892
 20
14.815093813
 30
0.0
 10
25.7379452906
 20
14.815093813
 30
0.0
 10
25.7186134459
 20
14.8323145056
 30
0.0
 10
25.7020476492
 20
14.8548496871
 30
0.0
 10
25.6912982426
 20
14.8722248358
 30
0.0
 10
25.6805170331
 20
14.8925165929
 30
0.0
 10
25.6651193525
 20
14.9253455284
 30
0.0
 10
25.6458994901
 20
14.9740177611
 30
0.0
 10
25.6233330842
 20
15.0414518682
 30
0.0
 10
25.6003531448
 20
15.1201963348
 30
0.0
 10
25.585681301
 20
15.176617629
 30
0.0
 10
25.5782353243
 20
15.2066151985
 30
0.0
  0
SPLINE
  5
288
100
AcDbEntity
  8
0
100
AcDbSpline
 62
7
  6
BYLAYER
 70
0
 71
3
 72
11
 73
7
 74
0
 42
0.0000001
 43
0.0000001
 44
0.0000000001
 40
0.0
 40
0.0
 40
0.0
 40
0.0
 40
0.2040416703
 40
0.4413795354
 40
0.7081422802
 40
1.0
 40
1.0
 40
1.0
 40
1.0
 10
25.5782353243
 20
15.2066151985
 30
0.0
 10
25.5619523252
 20
15.2715254075
 30
0.0
 10
25.5308390218
 20
15.412968004
 30
0.0
 10
25.4891581908
 20
15.6414814241
 30
0.0
 10
25.4491806594
 20
15.8994853792
 30
0.0
 10
25.424814328
 20
16.0810845648
 30
0.0
 10
25.4128294192
 20
16.176054524
 30
0.0
  0
SPLINE
  5
289
100
AcDbEntity
  8
0
100
AcDbSpline
 62
7
  6
BYLAYER
 70
0
 71
3
 72
23
 73
19
 74
0
 42
0.0000001
 43
0.0000001
 44
0.0000000001
 40
0.0
 40
0.0
 40
0.0
 40
0.0
 40
0.0611316087
 40
0.1224508931
 40
0.184083538
 40
0.2462112253
 40
0.3089102515
 40
0.3721913441
 40
0.4359622582
 40
0.5000003619
 40
0.5640384569
 40
0.6278093717
 40
0.6910904952
 40
0.7537894672
 40
0.8159169595
 40
0.8775498401
 40
0.9388699089
 40
1.0
 40
1.0
 40
1.0
 40
1.0
 10
12.6225534956
 20
35.3150938127
 30
0.0
 10
12.6225783326
 20
35.711581193
 30
0.0
 10
12.70854173
 20
36.5081078961
 30
0.0
 10
13.08186346
 20
37.650910148
 30
0.0
 10
13.6875307967
 20
38.6971568207
 30
0.0
 10
14.4942196805
 20
39.6087027568
 30
0.0
 10
15.4718691745
 20
40.3511430591
 30
0.0
 10
16.5806149964
 20
40.9017604366
 30
0.0
 10
17.7806773294
 20
41.2384546599
 30
0.0
 10
19.0265969278
 20
41.3534931379
 30
0.0
 10
20.2725163403
 20
41.2384523784
 30
0.0
 10
21.4725780732
 20
40.9017552104
 30
0.0
 10
22.5813220696
 20
40.3511345178
 30
0.0
 10
23.5589692341
 20
39.6086939018
 30
0.0
 10
24.3656586097
 20
38.6971483146
 30
0.0
 10
24.9713232929
 20
37.650893311
 30
0.0
 10
25.3446378871
 20
36.5080929854
 30
0.0
 10
25.4306058456
 20
35.7115713502
 30
0.0
 10
25.4306273462
 20
35.3150938128
 30
0.0
  0
ELLIPSE
  5
28A
100
AcDbEntity
  8
0
100
AcDbEllipse
 62
7
  6
BYLAYER
 10
13.5083314467
 20
21.865093813
 30
0.0
 11
-0.0
 21
0.5
 31
0.0
 40
0.1102719595
 41
-0.0
 42
1.1344640138
  0
ELLIPSE
  5
28B
100
AcDbEntity
  8
0
100
AcDbEllipse
 62
7
  6
BYLAYER
 10
24.5448480507
 20
21.865093813
 30
0.0
 11
-0.0
 21
0.5
 31
0.0
 40
0.1102719595
 41
-1.1344640138
 42
0.0
  0
ENDSEC
  0
SECTION
  2
OBJECTS
  0
DICTIONARY
  5
C
100
AcDbDictionary
280
0
281
1
  3
ACAD_GROUP
350
D
  3
ACAD_MLINESTYLE
350
17
  3
ACAD_LAYOUT
350
1A
  3
ACAD_PLOTSETTINGS
350
19
  3
ACAD_PLOTSTYLENAME
350
E
  0
DICTIONARY
  5
D
102
{ACAD_REACTORS
330
C
102
}
100
AcDbDictionary
280
0
281
1
  0
ACDBDICTIONARYWDFLT
  5
E
102
{ACAD_REACTORS
330
C
102
}
100
AcDbDictionary
281
1
  3
Normal
350
F
100
AcDbDictionaryWithDefault
340
F
  0
DICTIONARY
  5
17
102
{ACAD_REACTORS
330
C
102
}
100
AcDbDictionary
280
0
281
1
  3
Standard
350
18
  0
DICTIONARY
  5
19
102
{ACAD_REACTORS
330
C
102
}
100
AcDbDictionary
281
1
  0
DICTIONARY
  5
1A
102
{ACAD_REACTORS
330
C
102
}
100
AcDbDictionary
281
1
  3
Model
350
28C
  3
Layout1
350
28D
  0
ACDBPLACEHOLDER
  5
F
102
{ACAD_REACTORS
330
E
102
}
  0
MLINESTYLE
  5
18
102
{ACAD_REACTORS
330
17
102
}
100
AcDbMlineStyle
  2
STANDARD
 70
0
  3

 62
256
 51
90.0
 52
90.0
 71
2
 49
0.5
 62
256
  6
BYLAYER
 49
-0.5
 62
256
  6
BYLAYER
  0
LAYOUT
  5
28C
102
{ACAD_REACTORS
330
1A
102
}
100
AcDbPlotSettings
  1

  2
none_device
  4

  6

 40
0.0
 41
0.0
 42
0.0
 43
0.0
 44
210.0
 45
297.0
 46
0.0
 47
0.0
 48
0.0
 49
0.0
140
0.0
141
0.0
142
1.0
143
1.0
 70
1024
 72
1
 73
0
 74
0
  7

 75
0
147
1.0
148
0.0
149
0.0
100
AcDbLayout
  1
Model
 70
0
 71
0
 10
0.0
 20
0.0
 11
210.0
 21
297.0
 12
0.0
 22
0.0
 32
0.0
 14
0.0
 24
0.0
 34
0.0
 15
0.0
 25
0.0
 35
0.0
146
0.0
 13
0.0
 23
0.0
 33
0.0
 16
1.0
 26
0.0
 36
0.0
 17
0.0
 27
1.0
 37
0.0
 76
0
330
210
345
0
346
0
  0
LAYOUT
  5
28D
102
{ACAD_REACTORS
330
1A
102
}
100
AcDbPlotSettings
  1

  2
none_device
  4

  6

 40
0.0
 41
0.0
 42
0.0
 43
0.0
 44
210.0
 45
297.0
 46
0.0
 47
0.0
 48
0.0
 49
0.0
140
0.0
141
0.0
142
1.0
143
1.0
 70
0
 72
1
 73
0
 74
0
  7

 75
0
147
1.0
148
0.0
149
0.0
100
AcDbLayout
  1
Layout1
 70
0
 71
1
 10
0.0
 20
0.0
 11
210.0
 21
297.0
 12
0.0
 22
0.0
 32
0.0
 14
0.0
 24
0.0
 34
0.0
 15
0.0
 25
0.0
 35
0.0
146
0.0
 13
0.0
 23
0.0
 33
0.0
 16
1.0
 26
0.0
 36
0.0
 17
0.0
 27
1.0
 37
0.0
 76
0
330
211
345
0
346
0
  0
ENDSEC
  0
EOF
