999
DXF file: C:\Users\sesa63760\Dev\_Creo\CAD\MCADID0003041_3D-CAD\drw0001_1.dxf
999
Pro/ENGINEER 2019471 by Parametric Technology Corporation
  0
SECTION
  2
HEADER
  9
$ACADVER
  1
AC1024
  9
$DWGCODEPAGE
  3
ANSI_1252
  9
$EXTMAX
 10
92.6800146848
 20
131.0760207685
 30
0.0
  9
$EXTMIN
 10
0.0
 20
0.0
 30
0.0
  9
$LIMMIN
 10
0.0
 20
0.0
  9
$LIMMAX
 10
92.6800146848
 20
131.0760207685
  9
$VIEWCTR
 10
46.3400073424
 20
65.5380103843
  9
$VIEWSIZE
 40
131.0760207685
  9
$CLAYER
  8
0
  9
$LTSCALE
 40
8.5442146871
  9
$CELTYPE
  6
BYLAYER
  9
$DIMSCALE
 40
1.0
  9
$DIMASZ
 40
1.1033335082
  9
$DIMEXO
 40
1.0
  9
$DIMDLI
 40
5.903275602
  9
$DIMEXE
 40
1.0
  9
$DIMCEN
 40
1.3981442215
  9
$DIMLFAC
 40
1.0
  9
$DIMBLK
  1
_FILLED
  9
$DIMALT
 70
0
  9
$DIMALTF
 40
0.0393700787
  9
$DIMTXT
 40
1.5446669114
  9
$DIMTOL
 70
1
  9
$DIMLIM
 70
0
  9
$DIMTFAC
 40
1.0
  9
$DIMTP
 40
0.01
  9
$DIMTM
 40
0.01
  9
$DIMGAP
 40
0.625
  9
$DIMDSEP
 70
46
  9
$AUNITS
 70
0
  9
$PDMODE
 70
3
  9
$PDSIZE
 40
0.3125
  9
$HANDSEED
  5
28C
  9
$TILEMODE
 70
1
  9
$MEASUREMENT
 70
1
  9
$INSUNITS
 70
4
  0
ENDSEC
  0
SECTION
  2
CLASSES
  0
CLASS
  1
ACDBDICTIONARYWDFLT
  2
AcDbDictionaryWithDefault
  3
AutoCAD 2000
 90
0
 91
1
280
0
281
0
  0
CLASS
  1
ACDBPLACEHOLDER
  2
AcDbPlaceHolder
  3
AutoCAD 2000
 90
0
 91
1
280
0
281
0
  0
CLASS
  1
LAYOUT
  2
AcDbLayout
  3
AutoCAD 2000
 90
0
 91
0
280
0
281
0
  0
ENDSEC
  0
SECTION
  2
TABLES
  0
TABLE
  2
VPORT
  5
8
100
AcDbSymbolTable
 70
2
  0
VPORT
  5
1F4
100
AcDbSymbolTableRecord
100
AcDbViewportTableRecord
  2
*ACTIVE
 70
0
 10
0.0
 20
0.0
 11
1.0
 21
1.0
 12
46.3400073424
 22
65.5380103843
 13
0.0
 23
0.0
 14
1.0
 24
1.0
 15
0.0
 25
0.0
 16
0.0
 26
0.0
 36
1.0
 17
0.0
 27
0.0
 37
0.0
 40
131.0760207685
 41
0.7070707071
 42
50.0
 43
0.0
 44
0.0
 50
0.0
 51
0.0
 71
0
 72
100
 73
1
 74
1
 75
0
 76
0
 77
0
 78
0
  0
ENDTAB
  0
TABLE
  2
LTYPE
  5
5
100
AcDbSymbolTable
 70
6
  0
LTYPE
  5
14
100
AcDbSymbolTableRecord
100
AcDbLinetypeTableRecord
  2
BYBLOCK
 70
0
  3

 72
65
 73
0
 40
0.0
  0
LTYPE
  5
15
100
AcDbSymbolTableRecord
100
AcDbLinetypeTableRecord
  2
BYLAYER
 70
0
  3

 72
65
 73
0
 40
0.0
  0
LTYPE
  5
16
100
AcDbSymbolTableRecord
100
AcDbLinetypeTableRecord
  2
CONTINUOUS
 70
64
  3
Solid line
 72
65
 73
0
 40
0.0
  0
LTYPE
  5
1F5
100
AcDbSymbolTableRecord
100
AcDbLinetypeTableRecord
  2
CENTER
 70
64
  3
____ _ ____ _ ____ _ ____ _ ____ _ ____ _ ____
 72
65
 73
4
 40
0.6
 49
0.375
 74
0
 49
-0.075
 74
0
 49
0.075
 74
0
 49
-0.075
 74
0
  0
LTYPE
  5
1F6
100
AcDbSymbolTableRecord
100
AcDbLinetypeTableRecord
  2
HIDDEN
 70
64
  3
- - - - - - - - - - - - - - - - - - - -
 72
65
 73
2
 40
0.2
 49
0.1
 74
0
 49
-0.1
 74
0
  0
LTYPE
  5
1F7
100
AcDbSymbolTableRecord
100
AcDbLinetypeTableRecord
  2
PHANTOM
 70
64
  3
_____ _ _ _____ _ _ _____ _ _ _____
 72
65
 73
6
 40
0.8
 49
0.45
 74
0
 49
-0.05
 74
0
 49
0.1
 74
0
 49
-0.05
 74
0
 49
0.1
 74
0
 49
-0.05
 74
0
  0
LTYPE
  5
1F8
100
AcDbSymbolTableRecord
100
AcDbLinetypeTableRecord
  2
DOT
 70
64
  3
. . . . . . . . . . . . . . . . . . . .
 72
65
 73
2
 40
0.2
 49
0.1
 74
0
 49
-0.1
 74
0
  0
LTYPE
  5
1F9
100
AcDbSymbolTableRecord
100
AcDbLinetypeTableRecord
  2
DASHED
 70
64
  3
- - - - - - - - - - - - - - - - - - - -
 72
65
 73
2
 40
0.2
 49
0.1
 74
0
 49
-0.1
 74
0
  0
ENDTAB
  0
TABLE
  2
LAYER
  5
2
100
AcDbSymbolTable
 70
36
  0
LAYER
  5
10
100
AcDbSymbolTableRecord
100
AcDbLayerTableRecord
  2
0
 70
0
 62
7
  6
CONTINUOUS
370
-3
390
F
  0
LAYER
  5
1FA
100
AcDbSymbolTableRecord
100
AcDbLayerTableRecord
  2
DEFAULT_1
 70
0
 62
7
  6
CENTER
370
-3
390
F
  0
LAYER
  5
1FB
100
AcDbSymbolTableRecord
100
AcDbLayerTableRecord
  2
DEFAULT_2
 70
0
 62
7
  6
HIDDEN
370
-3
390
F
  0
LAYER
  5
1FC
100
AcDbSymbolTableRecord
100
AcDbLayerTableRecord
  2
DEFAULT_3
 70
0
 62
7
  6
PHANTOM
370
-3
390
F
  0
LAYER
  5
1FD
100
AcDbSymbolTableRecord
100
AcDbLayerTableRecord
  2
00_COMPONENTS
 70
0
 62
7
  6
CONTINUOUS
370
-3
390
F
  0
LAYER
  5
1FE
100
AcDbSymbolTableRecord
100
AcDbLayerTableRecord
  2
01_1_DEFAULT_DATUMS
 70
0
 62
7
  6
CONTINUOUS
370
-3
390
F
  0
LAYER
  5
1FF
100
AcDbSymbolTableRecord
100
AcDbLayerTableRecord
  2
01_PLANES
 70
0
 62
7
  6
CONTINUOUS
370
-3
390
F
  0
LAYER
  5
200
100
AcDbSymbolTableRecord
100
AcDbLayerTableRecord
  2
02_COORD_SYS
 70
0
 62
7
  6
CONTINUOUS
370
-3
390
F
  0
LAYER
  5
201
100
AcDbSymbolTableRecord
100
AcDbLayerTableRecord
  2
03_AXES
 70
0
 62
7
  6
CONTINUOUS
370
-3
390
F
  0
LAYER
  5
202
100
AcDbSymbolTableRecord
100
AcDbLayerTableRecord
  2
04_POINTS
 70
0
 62
7
  6
CONTINUOUS
370
-3
390
F
  0
LAYER
  5
203
100
AcDbSymbolTableRecord
100
AcDbLayerTableRecord
  2
05_CURVES
 70
0
 62
7
  6
CONTINUOUS
370
-3
390
F
  0
LAYER
  5
204
100
AcDbSymbolTableRecord
100
AcDbLayerTableRecord
  2
06_SURFS
 70
0
 62
7
  6
CONTINUOUS
370
-3
390
F
  0
LAYER
  5
205
100
AcDbSymbolTableRecord
100
AcDbLayerTableRecord
  2
07_COSMETICS
 70
0
 62
7
  6
CONTINUOUS
370
-3
390
F
  0
LAYER
  5
206
100
AcDbSymbolTableRecord
100
AcDbLayerTableRecord
  2
10_NOTES
 70
0
 62
7
  6
CONTINUOUS
370
-3
390
F
  0
LAYER
  5
207
100
AcDbSymbolTableRecord
100
AcDbLayerTableRecord
  2
11_NOTES_PUB
 70
0
 62
7
  6
CONTINUOUS
370
-3
390
F
  0
LAYER
  5
208
100
AcDbSymbolTableRecord
100
AcDbLayerTableRecord
  2
13_REF_GTOL
 70
0
 62
7
  6
CONTINUOUS
370
-3
390
F
  0
LAYER
  5
209
100
AcDbSymbolTableRecord
100
AcDbLayerTableRecord
  2
16_MISC
 70
0
 62
7
  6
CONTINUOUS
370
-3
390
F
  0
LAYER
  5
20A
100
AcDbSymbolTableRecord
100
AcDbLayerTableRecord
  2
17_NO_PRINT
 70
0
 62
7
  6
CONTINUOUS
370
-3
390
F
  0
LAYER
  5
20B
100
AcDbSymbolTableRecord
100
AcDbLayerTableRecord
  2
18_DATUM_CAMS_JOINTS
 70
0
 62
7
  6
CONTINUOUS
370
-3
390
F
  0
LAYER
  5
20C
100
AcDbSymbolTableRecord
100
AcDbLayerTableRecord
  2
19_DATUM_FUNCTIONAL
 70
0
 62
7
  6
CONTINUOUS
370
-3
390
F
  0
LAYER
  5
20D
100
AcDbSymbolTableRecord
100
AcDbLayerTableRecord
  2
20_DATUM_KINEMATIC_SCHEME
 70
0
 62
7
  6
CONTINUOUS
370
-3
390
F
  0
ENDTAB
  0
TABLE
  2
STYLE
  5
3
100
AcDbSymbolTable
 70
1
  0
STYLE
  5
11
100
AcDbSymbolTableRecord
100
AcDbTextStyleTableRecord
  2
STANDARD
 70
0
 40
0.0
 41
1.0
 50
0.0
 71
0
 42
0.2
  3
ARIAL.TTF
  4

  0
STYLE
  5
20E
100
AcDbSymbolTableRecord
100
AcDbTextStyleTableRecord
  2
TEXTSTYLE_1
 70
0
 40
0.0
 41
0.8
 50
0.0
 71
0
 42
0.2
  3
gdt
  4

  0
ENDTAB
  0
TABLE
  2
VIEW
  5
6
100
AcDbSymbolTable
 70
0
  0
ENDTAB
  0
TABLE
  2
UCS
  5
7
100
AcDbSymbolTable
 70
0
  0
ENDTAB
  0
TABLE
  2
APPID
  5
9
100
AcDbSymbolTable
 70
1
  0
APPID
  5
20F
100
AcDbSymbolTableRecord
100
AcDbRegAppTableRecord
  2
ACAD
 70
0
  0
ENDTAB
  0
TABLE
  2
BLOCK_RECORD
  5
1
100
AcDbSymbolTable
 70
0
  0
BLOCK_RECORD
  5
210
100
AcDbSymbolTableRecord
100
AcDbBlockTableRecord
  2
*Model_Space
  0
BLOCK_RECORD
  5
211
100
AcDbSymbolTableRecord
100
AcDbBlockTableRecord
  2
*Paper_Space
  0
BLOCK_RECORD
  5
212
100
AcDbSymbolTableRecord
100
AcDbBlockTableRecord
  2
_FILLED
  0
ENDTAB
  0
TABLE
  2
DIMSTYLE
  5
A
100
AcDbSymbolTable
 70
1
100
AcDbDimStyleTable
 71
0
  0
DIMSTYLE
105
213
100
AcDbSymbolTableRecord
100
AcDbDimStyleTableRecord
  2
STANDARD
 70
0
  3

  4

 40
1.0
 41
1.1033335082
 42
1.0
 43
0.38
 44
1.0
 45
0.0
 46
0.0
 47
0.01
 48
0.01
140
1.5446669114
141
0.09
142
0.0
143
25.4
144
1.0
145
0.0
146
1.0
147
0.625
 71
1
 72
0
 73
0
 74
0
 75
0
 76
0
 77
1
 78
8
 79
2
170
0
171
1
172
0
173
0
174
0
175
0
176
0
177
0
178
0
270
2
179
2
271
2
272
2
273
2
274
2
275
0
280
0
281
0
282
0
283
1
284
8
285
0
286
0
287
3
288
0
340
11
278
46
341
212
342
212
343
212
344
212
  0
ENDTAB
  0
ENDSEC
  0
SECTION
  2
BLOCKS
  0
BLOCK
  5
20
100
AcDbEntity
  8
0
100
AcDbBlockBegin
  2
*Model_Space
 70
0
 10
0.0
 20
0.0
 30
0.0
  3
*Model_Space
  1

  0
ENDBLK
  5
21
100
AcDbEntity
  8
0
100
AcDbBlockEnd
  0
BLOCK
  5
1C
100
AcDbEntity
  8
0
100
AcDbBlockBegin
  2
*Paper_Space
 70
0
 10
0.0
 20
0.0
 30
0.0
  3
*Paper_Space
  1

  0
ENDBLK
  5
1D
100
AcDbEntity
  8
0
100
AcDbBlockEnd
  0
BLOCK
  5
214
100
AcDbEntity
  8
0
100
AcDbBlockBegin
  2
_FILLED
 70
64
 10
0.0
 20
0.0
  3
_FILLED
  1

  0
SOLID
  5
215
100
AcDbEntity
  8
0
  6
BYBLOCK
 62
0
100
AcDbTrace
 10
0.0
 20
0.0
 11
-1.0
 21
0.25
 12
-1.0
 22
-0.25
 13
-1.0
 23
-0.25
  0
ENDBLK
  5
216
100
AcDbEntity
  8
0
  6
BYBLOCK
 62
0
100
AcDbBlockEnd
  0
ENDSEC
  0
SECTION
  2
ENTITIES
  0
LINE
  5
217
100
AcDbEntity
  8
0
100
AcDbLine
 62
7
  6
BYLAYER
 10
10.7434527807
 20
47.810760939
 11
10.7434527807
 21
45.1146699576
  0
LINE
  5
218
100
AcDbEntity
  8
0
100
AcDbLine
 62
7
  6
BYLAYER
 10
11.7052991081
 20
47.8107479875
 11
11.7052991081
 21
49.573576706
  0
LINE
  5
219
100
AcDbEntity
  8
0
100
AcDbLine
 62
7
  6
BYLAYER
 10
17.0934752137
 20
40.2410337381
 11
14.0956823976
 21
41.9717710729
  0
LINE
  5
21A
100
AcDbEntity
  8
0
100
AcDbLine
 62
7
  6
BYLAYER
 10
13.6341544625
 20
50.6871952168
 11
13.6290270507
 21
50.847834334
  0
LINE
  5
21B
100
AcDbEntity
  8
0
100
AcDbLine
 62
7
  6
BYLAYER
 10
17.0934752137
 20
44.699953438
 11
11.7052991081
 21
47.8107479875
  0
LINE
  5
21C
100
AcDbEntity
  8
0
100
AcDbLine
 62
7
  6
BYLAYER
 10
15.8234527807
 20
49.594328819
 11
15.8234527807
 21
49.5735896576
  0
LINE
  5
21D
100
AcDbEntity
  8
0
100
AcDbLine
 62
7
  6
BYLAYER
 10
17.0934752137
 20
46.4627821566
 11
17.0934752137
 21
44.699953438
  0
LINE
  5
21E
100
AcDbEntity
  8
0
100
AcDbLine
 62
7
  6
BYLAYER
 10
17.0934752137
 20
41.5233973225
 11
17.0934752137
 21
40.2410337381
  0
LINE
  5
21F
100
AcDbEntity
  8
0
100
AcDbLine
 62
7
  6
BYLAYER
 10
11.7052991081
 20
49.573576706
 11
17.0934752137
 21
46.4627821566
  0
LINE
  5
220
100
AcDbEntity
  8
0
100
AcDbLine
 62
7
  6
BYLAYER
 10
20.5178480949
 20
45.8337301089
 11
19.7875408335
 21
46.2553636643
  0
LINE
  5
221
100
AcDbEntity
  8
0
100
AcDbLine
 62
7
  6
BYLAYER
 10
17.9914821316
 20
49.0551238993
 11
17.9914821316
 21
49.0758630607
  0
LINE
  5
222
100
AcDbEntity
  8
0
100
AcDbLine
 62
7
  6
BYLAYER
 10
19.7875408335
 20
46.2553636643
 11
19.7875408335
 21
48.0181923829
  0
LINE
  5
223
100
AcDbEntity
  8
0
100
AcDbLine
 62
7
  6
BYLAYER
 10
19.7875408335
 20
48.0181923829
 11
17.9914821316
 21
49.0551238993
  0
LINE
  5
224
100
AcDbEntity
  8
0
100
AcDbLine
 62
7
  6
BYLAYER
 10
16.186443211
 20
50.0972400302
 11
14.3993647279
 21
51.1289869323
  0
LINE
  5
225
100
AcDbEntity
  8
0
100
AcDbLine
 62
7
  6
BYLAYER
 10
17.9914821316
 20
49.0758630607
 11
16.1954234297
 21
50.1127945772
  0
LINE
  5
226
100
AcDbEntity
  8
0
100
AcDbLine
 62
7
  6
BYLAYER
 10
24.5091149631
 20
47.0549213563
 11
26.8440316234
 21
45.7068870905
  0
LINE
  5
227
100
AcDbEntity
  8
0
100
AcDbLine
 62
7
  6
BYLAYER
 10
28.8158955043
 20
45.397837286
 11
32.6563182893
 21
43.1806183174
  0
LINE
  5
228
100
AcDbEntity
  8
0
100
AcDbLine
 62
7
  6
BYLAYER
 10
20.9905748205
 20
57.692871605
 11
21.4586045734
 21
56.4865983148
  0
LINE
  5
229
100
AcDbEntity
  8
0
100
AcDbLine
 62
7
  6
BYLAYER
 10
23.4434527807
 20
46.439664681
 11
23.4434527807
 21
45.1146699576
  0
LINE
  5
22A
100
AcDbEntity
  8
0
100
AcDbLine
 62
7
  6
BYLAYER
 10
35.5096393707
 20
45.26624335
 11
35.8891970331
 21
45.0471105889
  0
LINE
  5
22B
100
AcDbEntity
  8
0
100
AcDbLine
 62
7
  6
BYLAYER
 10
23.9183023657
 20
61.8580581238
 11
23.9183023657
 21
73.008427059
  0
LINE
  5
22C
100
AcDbEntity
  8
0
100
AcDbLine
 62
7
  6
BYLAYER
 10
55.3490679299
 20
91.1548796986
 11
23.9183023657
 21
73.008427059
  0
LINE
  5
22D
100
AcDbEntity
  8
0
100
AcDbLine
 62
7
  6
BYLAYER
 10
24.8791559768
 20
63.22503454
 11
20.9905748205
 21
57.692871605
  0
LINE
  5
22E
100
AcDbEntity
  8
0
100
AcDbLine
 62
7
  6
BYLAYER
 10
28.1120347205
 20
65.0915268115
 11
27.5935705096
 21
64.353923975
  0
LINE
  5
22F
100
AcDbEntity
  8
0
100
AcDbLine
 62
7
  6
BYLAYER
 10
51.9368181149
 20
43.9740153369
 11
40.971931481
 21
50.3044523731
  0
LINE
  5
230
100
AcDbEntity
  8
0
100
AcDbLine
 62
7
  6
BYLAYER
 10
36.5448994456
 20
48.7127812524
 11
32.6563182893
 21
58.7349893637
  0
LINE
  5
231
100
AcDbEntity
  8
0
100
AcDbLine
 62
7
  6
BYLAYER
 10
32.6563182893
 20
58.7349893637
 11
24.8791559768
 21
63.22503454
  0
LINE
  5
232
100
AcDbEntity
  8
0
100
AcDbLine
 62
7
  6
BYLAYER
 10
34.9911751598
 20
60.0830115598
 11
38.8797563161
 21
50.0608034485
  0
LINE
  5
233
100
AcDbEntity
  8
0
100
AcDbLine
 62
7
  6
BYLAYER
 10
39.7777781894
 20
50.5792735239
 11
35.8891970331
 21
60.6014816352
  0
LINE
  5
234
100
AcDbEntity
  8
0
100
AcDbLine
 62
7
  6
BYLAYER
 10
24.8791559768
 20
63.22503454
 11
27.2140128473
 21
64.5730567361
  0
LINE
  5
235
100
AcDbEntity
  8
0
100
AcDbLine
 62
7
  6
BYLAYER
 10
28.1120347205
 20
65.0915268115
 11
30.446891591
 21
66.4395490076
  0
LINE
  5
236
100
AcDbEntity
  8
0
100
AcDbLine
 62
7
  6
BYLAYER
 10
27.2140128473
 20
64.5730567361
 11
34.9911751598
 21
60.0830115598
  0
LINE
  5
237
100
AcDbEntity
  8
0
100
AcDbLine
 62
7
  6
BYLAYER
 10
35.8891970331
 20
60.6014816352
 11
28.1120347205
 21
65.0915268115
  0
LINE
  5
238
100
AcDbEntity
  8
0
100
AcDbLine
 62
7
  6
BYLAYER
 10
38.2240539036
 20
61.9495038313
 11
42.1126350598
 21
51.92729572
  0
LINE
  5
239
100
AcDbEntity
  8
0
100
AcDbLine
 62
7
  6
BYLAYER
 10
34.1175772972
 20
65.0903446226
 11
33.4507117031
 21
64.7053318905
  0
LINE
  5
23A
100
AcDbEntity
  8
0
100
AcDbLine
 62
7
  6
BYLAYER
 10
30.446891591
 20
66.4395490076
 11
38.2240539036
 21
61.9495038313
  0
LINE
  5
23B
100
AcDbEntity
  8
0
100
AcDbLine
 62
7
  6
BYLAYER
 10
25.2677528021
 20
59.2650133017
 11
22.4686822625
 21
57.6489788186
  0
LINE
  5
23C
100
AcDbEntity
  8
0
100
AcDbLine
 62
7
  6
BYLAYER
 10
22.3416226851
 20
56.8672136522
 11
14.7982389497
 21
52.5120650187
  0
LINE
  5
23D
100
AcDbEntity
  8
0
100
AcDbLine
 62
7
  6
BYLAYER
 10
14.3993647279
 20
51.1289869323
 11
11.7052991081
 21
49.573576706
  0
LINE
  5
23E
100
AcDbEntity
  8
0
100
AcDbLine
 62
7
  6
BYLAYER
 10
23.9183023657
 20
73.008427059
 11
51.9368181149
 21
56.8322954019
  0
LINE
  5
23F
100
AcDbEntity
  8
0
100
AcDbLine
 62
7
  6
BYLAYER
 10
74.5740096033
 20
84.1949815436
 11
70.9891535863
 21
82.1252763117
  0
LINE
  5
240
100
AcDbEntity
  8
0
100
AcDbLine
 62
7
  6
BYLAYER
 10
32.6563182893
 20
58.7349893637
 11
34.9911751598
 21
60.0830115598
  0
LINE
  5
241
100
AcDbEntity
  8
0
100
AcDbLine
 62
7
  6
BYLAYER
 10
35.8891970331
 20
60.6014816352
 11
38.2240539036
 21
61.9495038313
  0
LINE
  5
242
100
AcDbEntity
  8
0
100
AcDbLine
 62
7
  6
BYLAYER
 10
32.6563182893
 20
43.1806183174
 11
36.5448994456
 21
48.7127812524
  0
LINE
  5
243
100
AcDbEntity
  8
0
100
AcDbLine
 62
7
  6
BYLAYER
 10
38.8797563161
 20
50.0608034485
 11
34.9911751598
 21
44.5286405135
  0
LINE
  5
244
100
AcDbEntity
  8
0
100
AcDbLine
 62
7
  6
BYLAYER
 10
35.8891970331
 20
45.0471105889
 11
39.7777781894
 21
50.5792735239
  0
LINE
  5
245
100
AcDbEntity
  8
0
100
AcDbLine
 62
7
  6
BYLAYER
 10
19.7875408335
 20
48.0181923829
 11
17.0934752137
 21
46.4627821566
  0
LINE
  5
246
100
AcDbEntity
  8
0
100
AcDbLine
 62
7
  6
BYLAYER
 10
19.7875408335
 20
46.2553636643
 11
17.0934752137
 21
44.699953438
  0
LINE
  5
247
100
AcDbEntity
  8
0
100
AcDbLine
 62
7
  6
BYLAYER
 10
51.9368181149
 20
56.8322954019
 11
51.9368181149
 21
43.9740153369
  0
LINE
  5
248
100
AcDbEntity
  8
0
100
AcDbLine
 62
7
  6
BYLAYER
 10
42.1126350598
 20
51.92729572
 11
38.2240539036
 21
46.395132785
  0
LINE
  5
249
100
AcDbEntity
  8
0
100
AcDbLine
 62
7
  6
BYLAYER
 10
22.3539222571
 20
45.8106276948
 11
26.8440316234
 21
48.4029780719
  0
LINE
  5
24A
100
AcDbEntity
  8
0
100
AcDbLine
 62
7
  6
BYLAYER
 10
19.7875408335
 20
41.7964439643
 11
17.0934752137
 21
40.2410337381
  0
LINE
  5
24B
100
AcDbEntity
  8
0
100
AcDbLine
 62
7
  6
BYLAYER
 10
26.8440316234
 20
45.7068870905
 11
22.5191265883
 21
43.2099169092
  0
LINE
  5
24C
100
AcDbEntity
  8
0
100
AcDbLine
 62
7
  6
BYLAYER
 10
28.7280940935
 20
45.8054546623
 11
21.1847103581
 21
41.4503060288
  0
LINE
  5
24D
100
AcDbEntity
  8
0
100
AcDbLine
 62
7
  6
BYLAYER
 10
32.267721464
 20
47.1406395557
 11
29.4686509244
 21
45.5246050726
  0
LINE
  5
24E
100
AcDbEntity
  8
0
100
AcDbLine
 62
7
  6
BYLAYER
 10
36.5448994456
 20
48.7127812524
 11
38.8797563161
 21
50.0608034485
  0
LINE
  5
24F
100
AcDbEntity
  8
0
100
AcDbLine
 62
7
  6
BYLAYER
 10
39.7777781894
 20
50.5792735239
 11
42.1126350598
 21
51.92729572
  0
LINE
  5
250
100
AcDbEntity
  8
0
100
AcDbLine
 62
7
  6
BYLAYER
 10
83.3675836791
 20
74.9787480415
 11
51.9368181149
 21
56.8322954019
  0
LINE
  5
251
100
AcDbEntity
  8
0
100
AcDbLine
 62
7
  6
BYLAYER
 10
32.6563182893
 20
43.1806183174
 11
34.9911751598
 21
44.5286405135
  0
LINE
  5
252
100
AcDbEntity
  8
0
100
AcDbLine
 62
7
  6
BYLAYER
 10
35.8891970331
 20
45.0471105889
 11
38.2240539036
 21
46.395132785
  0
LINE
  5
253
100
AcDbEntity
  8
0
100
AcDbLine
 62
7
  6
BYLAYER
 10
83.3675836791
 20
62.1204679765
 11
51.9368181149
 21
43.9740153369
  0
LINE
  5
254
100
AcDbEntity
  8
0
100
AcDbLine
 62
7
  6
BYLAYER
 10
83.3675836791
 20
74.9787480415
 11
55.3490679299
 21
91.1548796986
  0
LINE
  5
255
100
AcDbEntity
  8
0
100
AcDbLine
 62
7
  6
BYLAYER
 10
83.3675836791
 20
62.1204679765
 11
83.3675836791
 21
74.9787480415
  0
ARC
  5
256
100
AcDbEntity
  8
0
100
AcDbCircle
 62
7
  6
BYLAYER
 10
25.3630280925
 20
357.9335282341
 40
312.1374052544
100
AcDbArc
 50
269.1105855636
 51
269.4476415445
  0
ARC
  5
257
100
AcDbEntity
  8
0
100
AcDbCircle
 62
7
  6
BYLAYER
 10
17.3948993246
 20
50.639585596
 40
9.1626355417
100
AcDbArc
 50
283.8780494711
 51
285.3700330828
  0
ARC
  5
258
100
AcDbEntity
  8
0
100
AcDbCircle
 62
7
  6
BYLAYER
 10
17.4405877168
 20
50.472371977
 40
8.9892926691
100
AcDbArc
 50
285.3717283075
 51
285.8126837081
  0
ARC
  5
259
100
AcDbEntity
  8
0
100
AcDbCircle
 62
7
  6
BYLAYER
 10
16.409443007
 20
43.4856813079
 40
7.9027728788
100
AcDbArc
 50
110.4346745057
 51
110.7029409756
  0
ARC
  5
25A
100
AcDbEntity
  8
0
100
AcDbCircle
 62
7
  6
BYLAYER
 10
14.4780962012
 20
46.7568626903
 40
4.0806144507
100
AcDbArc
 50
131.6225397647
 51
135.1483463983
  0
ARC
  5
25B
100
AcDbEntity
  8
0
100
AcDbCircle
 62
7
  6
BYLAYER
 10
17.350110819
 20
49.8523139883
 40
3.8519508264
100
AcDbArc
 50
164.2498036899
 51
165.022141192
  0
ARC
  5
25C
100
AcDbEntity
  8
0
100
AcDbCircle
 62
7
  6
BYLAYER
 10
17.2204456747
 20
49.8895623555
 40
3.7170432708
100
AcDbArc
 50
162.284008992
 51
164.2598701612
  0
ARC
  5
25D
100
AcDbEntity
  8
0
100
AcDbCircle
 62
7
  6
BYLAYER
 10
16.777838139
 20
49.1039538284
 40
1.164889072
100
AcDbArc
 50
119.9983060144
 51
120.8668499603
  0
SPLINE
  5
25E
100
AcDbEntity
  8
0
100
AcDbSpline
 62
7
  6
BYLAYER
 70
0
 71
3
 72
11
 73
7
 74
0
 42
0.0000001
 43
0.0000001
 44
0.0000000001
 40
0.0
 40
0.0
 40
0.0
 40
0.0
 40
0.283354692
 40
0.5429958963
 40
0.7802423876
 40
1.0
 40
1.0
 40
1.0
 40
1.0
 10
79.3263917785
 20
79.1781905904
 30
0.0
 10
79.3263917785
 20
79.0164967579
 30
0.0
 10
79.3062224236
 20
78.7060215566
 30
0.0
 10
79.206646113
 20
78.2697595867
 30
0.0
 10
79.0400740448
 20
77.8931634552
 30
0.0
 10
78.88092228
 20
77.6826018129
 30
0.0
 10
78.7926081099
 20
77.5935711954
 30
0.0
  0
SPLINE
  5
25F
100
AcDbEntity
  8
0
100
AcDbSpline
 62
7
  6
BYLAYER
 70
0
 71
3
 72
11
 73
7
 74
0
 42
0.0000001
 43
0.0000001
 44
0.0000000001
 40
0.0
 40
0.0
 40
0.0
 40
0.0
 40
0.2177827477
 40
0.4509152641
 40
0.7103063952
 40
1.0
 40
1.0
 40
1.0
 40
1.0
 10
37.2345965369
 20
73.2158401578
 30
0.0
 10
37.2345833182
 20
73.1190962349
 30
0.0
 10
37.1988527719
 20
72.9174489641
 30
0.0
 10
37.0459760709
 20
72.6364882331
 30
0.0
 10
36.8043141283
 20
72.382520721
 30
0.0
 10
36.6021144383
 20
72.2432524845
 30
0.0
 10
36.4906669173
 20
72.1789086123
 30
0.0
  0
SPLINE
  5
260
100
AcDbEntity
  8
0
100
AcDbSpline
 62
7
  6
BYLAYER
 70
0
 71
3
 72
11
 73
7
 74
0
 42
0.0000001
 43
0.0000001
 44
0.0000000001
 40
0.0
 40
0.0
 40
0.0
 40
0.0
 40
0.2177827477
 40
0.4509152641
 40
0.7103063952
 40
1.0
 40
1.0
 40
1.0
 40
1.0
 10
54.8359718152
 20
63.0539112963
 30
0.0
 10
54.8359585966
 20
62.9571673733
 30
0.0
 10
54.8002280502
 20
62.7555201026
 30
0.0
 10
54.6473513493
 20
62.4745593715
 30
0.0
 10
54.4056894067
 20
62.2205918595
 30
0.0
 10
54.2034897167
 20
62.081323623
 30
0.0
 10
54.0920421956
 20
62.0169797508
 30
0.0
  0
SPLINE
  5
261
100
AcDbEntity
  8
0
100
AcDbSpline
 62
7
  6
BYLAYER
 70
0
 71
3
 72
18
 73
14
 74
0
 42
0.0000001
 43
0.0000001
 44
0.0000000001
 40
0.0
 40
0.0
 40
0.0
 40
0.0
 40
0.1286585538
 40
0.2702079607
 40
0.4173278027
 40
0.5616316029
 40
0.6952660325
 40
0.7562716512
 40
0.8127630549
 40
0.864711743
 40
0.9125345558
 40
0.9571501792
 40
1.0
 40
1.0
 40
1.0
 40
1.0
 10
54.0920421956
 20
62.0169797508
 30
0.0
 10
53.9040167181
 20
61.9084238388
 30
0.0
 10
53.4783028739
 20
61.7327715785
 30
0.0
 10
52.7845027395
 20
61.5939734911
 30
0.0
 10
52.0505519251
 20
61.5736867532
 30
0.0
 10
51.3369909352
 20
61.673888587
 30
0.0
 10
50.7901472823
 20
61.8565387483
 30
0.0
 10
50.4169332893
 20
62.0594071007
 30
0.0
 10
50.1852579507
 20
62.2287077606
 30
0.0
 10
49.99831932
 20
62.4164670924
 30
0.0
 10
49.8603307476
 20
62.6193341967
 30
0.0
 10
49.7753789365
 20
62.833382476
 30
0.0
 10
49.7559852922
 20
62.9816016713
 30
0.0
 10
49.7559951723
 20
63.0539112383
 30
0.0
  0
SPLINE
  5
262
100
AcDbEntity
  8
0
100
AcDbSpline
 62
7
  6
BYLAYER
 70
0
 71
3
 72
18
 73
14
 74
0
 42
0.0000001
 43
0.0000001
 44
0.0000000001
 40
0.0
 40
0.0
 40
0.0
 40
0.0
 40
0.1286585538
 40
0.2702079607
 40
0.4173278027
 40
0.5616316029
 40
0.6952660325
 40
0.7562716512
 40
0.8127630549
 40
0.864711743
 40
0.9125345558
 40
0.9571501792
 40
1.0
 40
1.0
 40
1.0
 40
1.0
 10
36.4906669173
 20
72.1789086123
 30
0.0
 10
36.3026414398
 20
72.0703527003
 30
0.0
 10
35.8769275955
 20
71.8947004401
 30
0.0
 10
35.1831274611
 20
71.7559023526
 30
0.0
 10
34.4491766467
 20
71.7356156147
 30
0.0
 10
33.7356156568
 20
71.8358174485
 30
0.0
 10
33.1887720039
 20
72.0184676099
 30
0.0
 10
32.8155580109
 20
72.2213359622
 30
0.0
 10
32.5838826723
 20
72.3906366221
 30
0.0
 10
32.3969440416
 20
72.5783959539
 30
0.0
 10
32.2589554693
 20
72.7812630582
 30
0.0
 10
32.1740036581
 20
72.9953113375
 30
0.0
 10
32.1546100139
 20
73.1435305329
 30
0.0
 10
32.1546198939
 20
73.2158400998
 30
0.0
  0
SPLINE
  5
263
100
AcDbEntity
  8
0
100
AcDbSpline
 62
7
  6
BYLAYER
 70
0
 71
3
 72
11
 73
7
 74
0
 42
0.0000001
 43
0.0000001
 44
0.0000000001
 40
0.0
 40
0.0
 40
0.0
 40
0.0
 40
0.2738707856
 40
0.5283689098
 40
0.7681727816
 40
1.0
 40
1.0
 40
1.0
 40
1.0
 10
19.1073070917
 20
41.2840815524
 30
0.0
 10
19.2951228722
 20
41.2309348986
 30
0.0
 10
19.665896322
 20
41.1547138745
 30
0.0
 10
20.2164743929
 20
41.1407178696
 30
0.0
 10
20.729540823
 20
41.2335479533
 30
0.0
 10
21.0416094804
 20
41.3677127638
 30
0.0
 10
21.1846924199
 20
41.4503370969
 30
0.0
  0
SPLINE
  5
264
100
AcDbEntity
  8
0
100
AcDbSpline
 62
7
  6
BYLAYER
 70
0
 71
3
 72
11
 73
7
 74
0
 42
0.0000001
 43
0.0000001
 44
0.0000000001
 40
0.0
 40
0.0
 40
0.0
 40
0.0
 40
0.2346310668
 40
0.475870466
 40
0.7296039088
 40
1.0
 40
1.0
 40
1.0
 40
1.0
 10
14.7982568879
 20
52.5120339506
 30
0.0
 10
14.6692042653
 20
52.4375115309
 30
0.0
 10
14.4227418469
 20
52.2581040984
 30
0.0
 10
14.1098642284
 20
51.9123384346
 30
0.0
 10
13.8557983011
 20
51.4949324739
 30
0.0
 10
13.7319483808
 20
51.1842466339
 30
0.0
 10
13.6796772715
 20
51.0206546562
 30
0.0
  0
SPLINE
  5
265
100
AcDbEntity
  8
0
100
AcDbSpline
 62
7
  6
BYLAYER
 70
0
 71
3
 72
11
 73
7
 74
0
 42
0.0000001
 43
0.0000001
 44
0.0000000001
 40
0.0
 40
0.0
 40
0.0
 40
0.0
 40
0.2657352958
 40
0.5184324511
 40
0.7616947109
 40
1.0
 40
1.0
 40
1.0
 40
1.0
 10
27.7690590116
 20
45.2233385014
 30
0.0
 10
27.923322657
 20
45.2038222975
 30
0.0
 10
28.2273309316
 20
45.1855603407
 30
0.0
 10
28.6730213153
 20
45.226160832
 30
0.0
 10
29.0905319685
 20
45.3358423809
 30
0.0
 10
29.3478890531
 20
45.4548852216
 30
0.0
 10
29.4686509242
 20
45.5246050729
 30
0.0
  0
SPLINE
  5
266
100
AcDbEntity
  8
0
100
AcDbSpline
 62
7
  6
BYLAYER
 70
0
 71
3
 72
11
 73
7
 74
0
 42
0.0000001
 43
0.0000001
 44
0.0000000001
 40
0.0
 40
0.0
 40
0.0
 40
0.0
 40
0.2383054031
 40
0.4815723189
 40
0.7342808539
 40
1.0
 40
1.0
 40
1.0
 40
1.0
 10
22.4686822627
 20
57.6489788183
 30
0.0
 10
22.3479188812
 20
57.579258095
 30
0.0
 10
22.1161368773
 20
57.4159034186
 30
0.0
 10
21.8123891426
 20
57.109152263
 30
0.0
 10
21.5543971702
 20
56.7434575002
 30
0.0
 10
21.4181976709
 20
56.4710537948
 30
0.0
 10
21.3579609939
 20
56.3277103604
 30
0.0
  0
SPLINE
  5
267
100
AcDbEntity
  8
0
100
AcDbSpline
 62
7
  6
BYLAYER
 70
0
 71
3
 72
20
 73
16
 74
0
 42
0.0000001
 43
0.0000001
 44
0.0000000001
 40
0.0
 40
0.0
 40
0.0
 40
0.0
 40
0.0428302983
 40
0.0874308779
 40
0.1352345378
 40
0.1871647265
 40
0.2436360323
 40
0.3046197238
 40
0.3697439547
 40
0.4383814633
 40
0.5826323738
 40
0.7296930927
 40
0.8711897139
 40
0.9375998444
 40
1.0
 40
1.0
 40
1.0
 40
1.0
 10
74.5740229592
 20
84.1949584119
 30
0.0
 10
74.6710804487
 20
84.2509932389
 30
0.0
 10
74.8850243772
 20
84.3399325006
 30
0.0
 10
75.2382063952
 20
84.3916987055
 30
0.0
 10
75.6174637581
 20
84.3637540196
 30
0.0
 10
76.0143959824
 20
84.2583338016
 30
0.0
 10
76.4211860137
 20
84.078541332
 30
0.0
 10
76.8297259004
 20
83.8285785867
 30
0.0
 10
77.2318009433
 20
83.5138597332
 30
0.0
 10
77.7564354817
 20
83.0084565527
 30
0.0
 10
78.3394934837
 20
82.261803009
 30
0.0
 10
78.8806998117
 20
81.2616263736
 30
0.0
 10
79.1802280989
 20
80.3761789715
 30
0.0
 10
79.3042128531
 20
79.6787600467
 30
0.0
 10
79.3263917785
 20
79.3414696151
 30
0.0
 10
79.3263917785
 20
79.1781905904
 30
0.0
  0
SPLINE
  5
268
100
AcDbEntity
  8
0
100
AcDbSpline
 62
7
  6
BYLAYER
 70
0
 71
3
 72
9
 73
5
 74
0
 42
0.0000001
 43
0.0000001
 44
0.0000000001
 40
0.0
 40
0.0
 40
0.0
 40
0.0
 40
0.4831642826
 40
1.0
 40
1.0
 40
1.0
 40
1.0
 10
21.5835995353
 20
42.5223411664
 30
0.0
 10
21.3275777145
 20
42.3745277815
 30
0.0
 10
20.774815735
 20
42.1074193563
 30
0.0
 10
20.1943720701
 20
41.9094274908
 30
0.0
 10
19.8901092819
 20
41.8232548664
 30
0.0
  0
SPLINE
  5
269
100
AcDbEntity
  8
0
100
AcDbSpline
 62
7
  6
BYLAYER
 70
0
 71
3
 72
9
 73
5
 74
0
 42
0.0000001
 43
0.0000001
 44
0.0000000001
 40
0.0
 40
0.0
 40
0.0
 40
0.0
 40
0.2454211033
 40
1.0
 40
1.0
 40
1.0
 40
1.0
 10
19.5926136687
 20
41.7444216441
 30
0.0
 10
19.4710634096
 20
41.7143769412
 30
0.0
 10
18.9733554694
 20
41.6019549387
 30
0.0
 10
18.4670236601
 20
41.5283463287
 30
0.0
 10
18.0836437191
 20
41.4933988954
 30
0.0
  0
SPLINE
  5
26A
100
AcDbEntity
  8
0
100
AcDbSpline
 62
7
  6
BYLAYER
 70
0
 71
3
 72
14
 73
10
 74
0
 42
0.0000001
 43
0.0000001
 44
0.0000000001
 40
0.0
 40
0.0
 40
0.0
 40
0.0
 40
0.2754015467
 40
0.4112626069
 40
0.5431184135
 40
0.6691700805
 40
0.7879329847
 40
0.8983609282
 40
1.0
 40
1.0
 40
1.0
 40
1.0
 10
18.0836437191
 20
41.4933988954
 30
0.0
 10
17.4485862341
 20
41.4355095102
 30
0.0
 10
16.4898589606
 20
41.4325294232
 30
0.0
 10
15.2414699963
 20
41.5934554837
 30
0.0
 10
14.3502687739
 20
41.7929371407
 30
0.0
 10
13.5207095392
 20
42.0671464343
 30
0.0
 10
12.7709645982
 20
42.4101776735
 30
0.0
 10
12.1178188147
 20
42.8144934119
 30
0.0
 10
11.7407225461
 20
43.1329804477
 30
0.0
 10
11.5754430202
 20
43.3005207937
 30
0.0
  0
SPLINE
  5
26B
100
AcDbEntity
  8
0
100
AcDbSpline
 62
7
  6
BYLAYER
 70
0
 71
3
 72
11
 73
7
 74
0
 42
0.0000001
 43
0.0000001
 44
0.0000000001
 40
0.0
 40
0.0
 40
0.0
 40
0.0
 40
0.2726545778
 40
0.5268649258
 40
0.7671863536
 40
1.0
 40
1.0
 40
1.0
 40
1.0
 10
11.5754430202
 20
43.3005207937
 30
0.0
 10
11.4449206187
 20
43.4328285807
 30
0.0
 10
11.2106488615
 20
43.7074072609
 30
0.0
 10
10.9436703123
 20
44.1605449871
 30
0.0
 10
10.7804124397
 20
44.6323863912
 30
0.0
 10
10.7434623011
 20
44.9559739841
 30
0.0
 10
10.7434781214
 20
45.1146699568
 30
0.0
  0
SPLINE
  5
26C
100
AcDbEntity
  8
0
100
AcDbSpline
 62
7
  6
BYLAYER
 70
0
 71
3
 72
9
 73
5
 74
0
 42
0.0000001
 43
0.0000001
 44
0.0000000001
 40
0.0
 40
0.0
 40
0.0
 40
0.0
 40
0.2457286046
 40
1.0
 40
1.0
 40
1.0
 40
1.0
 10
22.5191265883
 20
43.2099169092
 30
0.0
 10
22.4970957205
 20
43.1889992571
 30
0.0
 10
22.4064820294
 20
43.1048873026
 30
0.0
 10
22.3121535113
 20
43.0247943127
 30
0.0
 10
22.2392843346
 20
42.9666072803
 30
0.0
  0
SPLINE
  5
26D
100
AcDbEntity
  8
0
100
AcDbSpline
 62
7
  6
BYLAYER
 70
0
 71
3
 72
9
 73
5
 74
0
 42
0.0000001
 43
0.0000001
 44
0.0000000001
 40
0.0
 40
0.0
 40
0.0
 40
0.0
 40
0.2420639468
 40
1.0
 40
1.0
 40
1.0
 40
1.0
 10
22.2392843346
 20
42.9666072803
 30
0.0
 10
22.189318676
 20
42.9267090198
 30
0.0
 10
21.9795006549
 20
42.7661632992
 30
0.0
 10
21.7569849079
 20
42.6224446604
 30
0.0
 10
21.5835995353
 20
42.5223411664
 30
0.0
  0
SPLINE
  5
26E
100
AcDbEntity
  8
0
100
AcDbSpline
 62
7
  6
BYLAYER
 70
0
 71
3
 72
9
 73
5
 74
0
 42
0.0000001
 43
0.0000001
 44
0.0000000001
 40
0.0
 40
0.0
 40
0.0
 40
0.0
 40
0.2605299961
 40
1.0
 40
1.0
 40
1.0
 40
1.0
 10
12.603306026
 20
50.4030897302
 30
0.0
 10
12.5260475682
 20
50.358484805
 30
0.0
 10
12.2334510237
 20
50.1806472943
 30
0.0
 10
11.9569122643
 20
49.9755024301
 30
0.0
 10
11.7676690838
 20
49.8072723573
 30
0.0
  0
SPLINE
  5
26F
100
AcDbEntity
  8
0
100
AcDbSpline
 62
7
  6
BYLAYER
 70
0
 71
3
 72
11
 73
7
 74
0
 42
0.0000001
 43
0.0000001
 44
0.0000000001
 40
0.0
 40
0.0
 40
0.0
 40
0.0
 40
0.2728566606
 40
0.5270997913
 40
0.7673510493
 40
1.0
 40
1.0
 40
1.0
 40
1.0
 10
11.5852049688
 20
49.6348124141
 30
0.0
 10
11.4532361415
 20
49.5019686519
 30
0.0
 10
11.2162386173
 20
49.2262658914
 30
0.0
 10
10.9462350298
 20
48.7706260508
 30
0.0
 10
10.780787058
 20
48.2960679052
 30
0.0
 10
10.7434913315
 20
47.9704196196
 30
0.0
 10
10.7434751242
 20
47.8107609388
 30
0.0
  0
SPLINE
  5
270
100
AcDbEntity
  8
0
100
AcDbSpline
 62
7
  6
BYLAYER
 70
0
 71
3
 72
9
 73
5
 74
0
 42
0.0000001
 43
0.0000001
 44
0.0000000001
 40
0.0
 40
0.0
 40
0.0
 40
0.0
 40
0.2585467935
 40
1.0
 40
1.0
 40
1.0
 40
1.0
 10
13.6156321419
 20
50.8781396286
 30
0.0
 10
13.5254282524
 20
50.8440488362
 30
0.0
 10
13.1790230392
 20
50.7058070374
 30
0.0
 10
12.8427986904
 20
50.5413600591
 30
0.0
 10
12.603306026
 20
50.4030897302
 30
0.0
  0
SPLINE
  5
271
100
AcDbEntity
  8
0
100
AcDbSpline
 62
7
  6
BYLAYER
 70
0
 71
3
 72
11
 73
7
 74
0
 42
0.0000001
 43
0.0000001
 44
0.0000000001
 40
0.0
 40
0.0
 40
0.0
 40
0.0
 40
0.2886502004
 40
0.5478335446
 40
0.7813481896
 40
1.0
 40
1.0
 40
1.0
 40
1.0
 10
16.1801979638
 20
50.1038502085
 30
0.0
 10
16.1266178624
 20
50.071823291
 30
0.0
 10
16.029441585
 20
50.002722094
 30
0.0
 10
15.913556764
 20
49.8777328774
 30
0.0
 10
15.8404511719
 20
49.7400441499
 30
0.0
 10
15.8235058669
 20
49.641613631
 30
0.0
 10
15.823505005
 20
49.5943288502
 30
0.0
  0
SPLINE
  5
272
100
AcDbEntity
  8
0
100
AcDbSpline
 62
7
  6
BYLAYER
 70
0
 71
3
 72
23
 73
19
 74
0
 42
0.0000001
 43
0.0000001
 44
0.0000000001
 40
0.0
 40
0.0
 40
0.0
 40
0.0
 40
0.0623833947
 40
0.1287487122
 40
0.1983454145
 40
0.2703347117
 40
0.3437239549
 40
0.4174667285
 40
0.4905026392
 40
0.561800852
 40
0.6304088906
 40
0.6955064836
 40
0.7564642291
 40
0.8129115183
 40
0.8648205169
 40
0.9126030798
 40
0.9571852694
 40
1.0
 40
1.0
 40
1.0
 40
1.0
 10
30.9184346695
 20
48.729106664
 30
0.0
 10
30.9184346695
 20
49.0194637619
 30
0.0
 10
30.8790440749
 20
49.6191065457
 30
0.0
 10
30.7172291728
 20
50.5295559257
 30
0.0
 10
30.453962548
 20
51.4624970632
 30
0.0
 10
30.0951260092
 20
52.3979123822
 30
0.0
 10
29.6481787154
 20
53.3160243097
 30
0.0
 10
29.1227318072
 20
54.1972283592
 30
0.0
 10
28.5300019094
 20
55.0227492053
 30
0.0
 10
27.8825967965
 20
55.7749857373
 30
0.0
 10
27.1942316203
 20
56.4379194893
 30
0.0
 10
26.4794179424
 20
56.9975205489
 30
0.0
 10
25.7530019874
 20
57.4419478268
 30
0.0
 10
25.0297308758
 20
57.7616240934
 30
0.0
 10
24.323989511
 20
57.9491130847
 30
0.0
 10
23.6496569374
 20
57.9987364814
 30
0.0
 10
23.0216902057
 20
57.906716269
 30
0.0
 10
22.6412622685
 20
57.7486150052
 30
0.0
 10
22.4686822627
 20
57.6489788183
 30
0.0
  0
SPLINE
  5
273
100
AcDbEntity
  8
0
100
AcDbSpline
 62
7
  6
BYLAYER
 70
0
 71
3
 72
14
 73
10
 74
0
 42
0.0000001
 43
0.0000001
 44
0.0000000001
 40
0.0
 40
0.0
 40
0.0
 40
0.0
 40
0.1080471855
 40
0.2181316023
 40
0.3321125462
 40
0.4515018187
 40
0.5774457261
 40
0.7107284566
 40
1.0
 40
1.0
 40
1.0
 40
1.0
 10
29.4686509242
 20
45.5246050729
 30
0.0
 10
29.5834202047
 20
45.5908652021
 30
0.0
 10
29.8040492971
 20
45.7448766961
 30
0.0
 10
30.0956671426
 20
46.031770546
 30
0.0
 10
30.3463453847
 20
46.3723892507
 30
0.0
 10
30.5540249807
 20
46.7626720972
 30
0.0
 10
30.716891567
 20
47.1988840349
 30
0.0
 10
30.8770132512
 20
47.8534807416
 30
0.0
 10
30.9184346695
 20
48.3743062703
 30
0.0
 10
30.9184346695
 20
48.729106664
 30
0.0
  0
SPLINE
  5
274
100
AcDbEntity
  8
0
100
AcDbSpline
 62
7
  6
BYLAYER
 70
0
 71
3
 72
14
 73
10
 74
0
 42
0.0000001
 43
0.0000001
 44
0.0000000001
 40
0.0
 40
0.0
 40
0.0
 40
0.0
 40
0.2892607654
 40
0.4225591482
 40
0.5485035086
 40
0.6678857189
 40
0.7818656584
 40
0.8919521928
 40
1.0
 40
1.0
 40
1.0
 40
1.0
 10
30.050814649
 20
48.7291045785
 30
0.0
 10
30.050814649
 20
48.4054123875
 30
0.0
 10
30.0130065628
 20
47.9302319142
 30
0.0
 10
29.86694124
 20
47.3329948083
 30
0.0
 10
29.7183423546
 20
46.935006007
 30
0.0
 10
29.5288657707
 20
46.5789355757
 30
0.0
 10
29.300136625
 20
46.2681994752
 30
0.0
 10
29.0341191747
 20
46.0063995668
 30
0.0
 10
28.832790117
 20
45.8659338386
 30
0.0
 10
28.7280864006
 20
45.8054679858
 30
0.0
  0
SPLINE
  5
275
100
AcDbEntity
  8
0
100
AcDbSpline
 62
7
  6
BYLAYER
 70
0
 71
3
 72
12
 73
8
 74
0
 42
0.0000001
 43
0.0000001
 44
0.0000000001
 40
0.0
 40
0.0
 40
0.0
 40
0.0
 40
0.2862529204
 40
0.5458013493
 40
0.7812242619
 40
0.8921573199
 40
1.0
 40
1.0
 40
1.0
 40
1.0
 10
43.315736346
 20
55.3804266485
 30
0.0
 10
43.315736346
 20
55.0359827394
 30
0.0
 10
43.2687810783
 20
54.3774582918
 30
0.0
 10
43.0344405042
 20
53.4612468649
 30
0.0
 10
42.6991425836
 20
52.804597686
 30
0.0
 10
42.3564850154
 20
52.3768711237
 30
0.0
 10
42.1635037007
 20
52.1961665265
 30
0.0
 10
42.0624063396
 20
52.1148129191
 30
0.0
  0
SPLINE
  5
276
100
AcDbEntity
  8
0
100
AcDbSpline
 62
7
  6
BYLAYER
 70
0
 71
3
 72
9
 73
5
 74
0
 42
0.0000001
 43
0.0000001
 44
0.0000000001
 40
0.0
 40
0.0
 40
0.0
 40
0.0
 40
0.2394687041
 40
1.0
 40
1.0
 40
1.0
 40
1.0
 10
26.9975402799
 20
46.9663063221
 30
0.0
 10
26.9975402799
 20
47.0817505753
 30
0.0
 10
26.9836647237
 20
47.5638059536
 30
0.0
 10
26.9174573
 20
48.0437649664
 30
0.0
 10
26.8440316234
 20
48.4029780719
 30
0.0
  0
SPLINE
  5
277
100
AcDbEntity
  8
0
100
AcDbSpline
 62
7
  6
BYLAYER
 70
0
 71
3
 72
9
 73
5
 74
0
 42
0.0000001
 43
0.0000001
 44
0.0000000001
 40
0.0
 40
0.0
 40
0.0
 40
0.0
 40
0.2367147892
 40
1.0
 40
1.0
 40
1.0
 40
1.0
 10
26.8440316234
 20
45.7068870905
 30
0.0
 10
26.8699492117
 20
45.8037547435
 30
0.0
 10
26.9636893797
 20
46.2171632467
 30
0.0
 10
26.9975402799
 20
46.6429704677
 30
0.0
 10
26.9975402799
 20
46.9663063221
 30
0.0
  0
SPLINE
  5
278
100
AcDbEntity
  8
0
100
AcDbSpline
 62
7
  6
BYLAYER
 70
0
 71
3
 72
11
 73
7
 74
0
 42
0.0000001
 43
0.0000001
 44
0.0000000001
 40
0.0
 40
0.0
 40
0.0
 40
0.0
 40
0.2312298656
 40
0.4707065891
 40
0.7254940647
 40
1.0
 40
1.0
 40
1.0
 40
1.0
 10
23.4434135246
 20
45.1146699995
 30
0.0
 10
23.44339332
 20
44.9471200914
 30
0.0
 10
23.4021941061
 20
44.6047762288
 30
0.0
 10
23.2198853178
 20
44.1073526173
 30
0.0
 10
22.9227189824
 20
43.6321551159
 30
0.0
 10
22.6633728518
 20
43.3468744355
 30
0.0
 10
22.5191265883
 20
43.2099169092
 30
0.0
  0
SPLINE
  5
279
100
AcDbEntity
  8
0
100
AcDbSpline
 62
7
  6
BYLAYER
 70
0
 71
3
 72
11
 73
7
 74
0
 42
0.0000001
 43
0.0000001
 44
0.0000000001
 40
0.0
 40
0.0
 40
0.0
 40
0.0
 40
0.2177827477
 40
0.4509152641
 40
0.7103063952
 40
1.0
 40
1.0
 40
1.0
 40
1.0
 10
49.7559951723
 20
63.0539112383
 30
0.0
 10
49.7560083909
 20
63.1506551612
 30
0.0
 10
49.7917389372
 20
63.352302432
 30
0.0
 10
49.9446156382
 20
63.633263163
 30
0.0
 10
50.1862775808
 20
63.8872306751
 30
0.0
 10
50.3884772708
 20
64.0264989116
 30
0.0
 10
50.4999247919
 20
64.0908427838
 30
0.0
  0
SPLINE
  5
27A
100
AcDbEntity
  8
0
100
AcDbSpline
 62
7
  6
BYLAYER
 70
0
 71
3
 72
23
 73
19
 74
0
 42
0.0000001
 43
0.0000001
 44
0.0000000001
 40
0.0
 40
0.0
 40
0.0
 40
0.0
 40
0.0428148781
 40
0.0873975045
 40
0.1351803694
 40
0.187089412
 40
0.2435363213
 40
0.3044933527
 40
0.3695900827
 40
0.4381972373
 40
0.5094947719
 40
0.5825305157
 40
0.6562725838
 40
0.7296607971
 40
0.8016508718
 40
0.8712489398
 40
0.9376159882
 40
1.0
 40
1.0
 40
1.0
 40
1.0
 10
34.1175812945
 20
65.0903376896
 30
0.0
 10
34.3054487279
 20
65.198796753
 30
0.0
 10
34.7195735143
 20
65.3709024814
 30
0.0
 10
35.4031648261
 20
65.4710702584
 30
0.0
 10
36.1372267892
 20
65.4170480485
 30
0.0
 10
36.9054748558
 20
65.2129501427
 30
0.0
 10
37.6928006021
 20
64.8649607445
 30
0.0
 10
38.4835469311
 20
64.3811757045
 30
0.0
 10
39.2616621033
 20
63.7720185204
 30
0.0
 10
40.0109887766
 20
63.0503790437
 30
0.0
 10
40.7157330737
 20
62.2315268061
 30
0.0
 10
41.3609575949
 20
61.3328964982
 30
0.0
 10
41.9329444223
 20
60.3736558513
 30
0.0
 10
42.4194792831
 20
59.3742325958
 30
0.0
 10
42.810107568
 20
58.3559649846
 30
0.0
 10
43.0967023296
 20
57.3403753813
 30
0.0
 10
43.2728536035
 20
56.3492689299
 30
0.0
 10
43.315736346
 20
55.6965038728
 30
0.0
 10
43.315736346
 20
55.3804266485
 30
0.0
  0
SPLINE
  5
27B
100
AcDbEntity
  8
0
100
AcDbSpline
 62
7
  6
BYLAYER
 70
0
 71
3
 72
11
 73
7
 74
0
 42
0.0000001
 43
0.0000001
 44
0.0000000001
 40
0.0
 40
0.0
 40
0.0
 40
0.0
 40
0.2376064109
 40
0.4862780429
 40
0.7419147451
 40
1.0
 40
1.0
 40
1.0
 40
1.0
 10
40.868664629
 20
55.3603648352
 30
0.0
 10
40.8069198075
 20
55.739963885
 30
0.0
 10
40.6331586108
 20
56.509647399
 30
0.0
 10
40.2459085221
 20
57.648400919
 30
0.0
 10
39.7351221473
 20
58.7737620433
 30
0.0
 10
39.3205533048
 20
59.496240377
 30
0.0
 10
39.0956527655
 20
59.8482661144
 30
0.0
  0
SPLINE
  5
27C
100
AcDbEntity
  8
0
100
AcDbSpline
 62
7
  6
BYLAYER
 70
0
 71
3
 72
23
 73
19
 74
0
 42
0.0000001
 43
0.0000001
 44
0.0000000001
 40
0.0
 40
0.0
 40
0.0
 40
0.0
 40
0.0428143256
 40
0.0873959372
 40
0.1351791282
 40
0.1870891422
 40
0.2435351821
 40
0.3044923682
 40
0.3695912829
 40
0.4381991899
 40
0.5094966955
 40
0.5825331427
 40
0.6562756866
 40
0.7296654618
 40
0.8016542239
 40
0.8712496523
 40
0.9376211998
 40
1.0
 40
1.0
 40
1.0
 40
1.0
 10
22.3416303781
 20
56.8672003286
 30
0.0
 10
22.4990723762
 20
56.9581222654
 30
0.0
 10
22.8461743557
 20
57.1023209197
 30
0.0
 10
23.4190850293
 20
57.1863487251
 30
0.0
 10
24.0343289761
 20
57.1410522283
 30
0.0
 10
24.6782019037
 20
56.9699484793
 30
0.0
 10
25.3380926406
 20
56.6783267777
 30
0.0
 10
26.0008594627
 20
56.2728761541
 30
0.0
 10
26.6530027128
 20
55.7622864714
 30
0.0
 10
27.2810274879
 20
55.1574448007
 30
0.0
 10
27.8717214904
 20
54.4711641145
 30
0.0
 10
28.4124970075
 20
53.7179912576
 30
0.0
 10
28.8918776266
 20
52.9140064406
 30
0.0
 10
29.299647369
 20
52.076360501
 30
0.0
 10
29.6270600353
 20
51.2229440688
 30
0.0
 10
29.8672521175
 20
50.3717474968
 30
0.0
 10
30.0148547788
 20
49.54108734
 30
0.0
 10
30.050814649
 20
48.9939942682
 30
0.0
 10
30.050814649
 20
48.7291045785
 30
0.0
  0
SPLINE
  5
27D
100
AcDbEntity
  8
0
100
AcDbSpline
 62
7
  6
BYLAYER
 70
0
 71
3
 72
17
 73
13
 74
0
 42
0.0000001
 43
0.0000001
 44
0.0000000001
 40
0.0
 40
0.0
 40
0.0
 40
0.0
 40
0.042856216
 40
0.0874836211
 40
0.1353102614
 40
0.1872757815
 40
0.3045355265
 40
0.4381979082
 40
0.5825371072
 40
0.7296850391
 40
0.8713145374
 40
1.0
 40
1.0
 40
1.0
 40
1.0
 10
15.823505005
 20
49.5943288502
 30
0.0
 10
15.823504346
 20
49.5581785484
 30
0.0
 10
15.8331002575
 20
49.4840568387
 30
0.0
 10
15.8756755027
 20
49.3770814126
 30
0.0
 10
15.9445791185
 20
49.2755957543
 30
0.0
 10
16.0744707096
 20
49.1453446906
 30
0.0
 10
16.2956601414
 20
49.0106387607
 30
0.0
 10
16.6137598004
 20
48.9043815033
 30
0.0
 10
16.9707188455
 20
48.8542259258
 30
0.0
 10
17.3376629897
 20
48.864335146
 30
0.0
 10
17.6845877137
 20
48.9337742397
 30
0.0
 10
17.8974754174
 20
49.0215885829
 30
0.0
 10
17.9914821316
 20
49.0758630607
 30
0.0
  0
SPLINE
  5
27E
100
AcDbEntity
  8
0
100
AcDbSpline
 62
7
  6
BYLAYER
 70
0
 71
3
 72
11
 73
7
 74
0
 42
0.0000001
 43
0.0000001
 44
0.0000000001
 40
0.0
 40
0.0
 40
0.0
 40
0.0
 40
0.2339304645
 40
0.4748038824
 40
0.7287561417
 40
1.0
 40
1.0
 40
1.0
 40
1.0
 10
21.1846924199
 20
41.4503370969
 30
0.0
 10
21.3172796047
 20
41.5269005764
 30
0.0
 10
21.5702535045
 20
41.7121936237
 30
0.0
 10
21.8894126013
 20
42.0708565429
 30
0.0
 10
22.1461322988
 20
42.5046840324
 30
0.0
 10
22.26920867
 20
42.8274067759
 30
0.0
 10
22.3205612402
 20
42.997344186
 30
0.0
  0
SPLINE
  5
27F
100
AcDbEntity
  8
0
100
AcDbSpline
 62
7
  6
BYLAYER
 70
0
 71
3
 72
11
 73
7
 74
0
 42
0.0000001
 43
0.0000001
 44
0.0000000001
 40
0.0
 40
0.0
 40
0.0
 40
0.0
 40
0.2177827477
 40
0.4509152641
 40
0.7103063952
 40
1.0
 40
1.0
 40
1.0
 40
1.0
 10
32.1546198939
 20
73.2158400998
 30
0.0
 10
32.1546331125
 20
73.3125840227
 30
0.0
 10
32.1903636589
 20
73.5142312935
 30
0.0
 10
32.3432403599
 20
73.7951920245
 30
0.0
 10
32.5849023024
 20
74.0491595366
 30
0.0
 10
32.7871019925
 20
74.1884277731
 30
0.0
 10
32.8985495135
 20
74.2527716453
 30
0.0
  0
SPLINE
  5
280
100
AcDbEntity
  8
0
100
AcDbSpline
 62
7
  6
BYLAYER
 70
0
 71
3
 72
9
 73
5
 74
0
 42
0.0000001
 43
0.0000001
 44
0.0000000001
 40
0.0
 40
0.0
 40
0.0
 40
0.0
 40
0.2625025545
 40
1.0
 40
1.0
 40
1.0
 40
1.0
 10
21.5835995353
 20
45.2184321478
 30
0.0
 10
21.6716898545
 20
45.2692908137
 30
0.0
 10
22.0021902331
 20
45.471497009
 30
0.0
 10
22.3118852193
 20
45.7092383899
 30
0.0
 10
22.5191265883
 20
45.9060078906
 30
0.0
  0
SPLINE
  5
281
100
AcDbEntity
  8
0
100
AcDbSpline
 62
7
  6
BYLAYER
 70
0
 71
3
 72
18
 73
14
 74
0
 42
0.0000001
 43
0.0000001
 44
0.0000000001
 40
0.0
 40
0.0
 40
0.0
 40
0.0
 40
0.1286585538
 40
0.2702079607
 40
0.4173278027
 40
0.5616316029
 40
0.6952660325
 40
0.7562716512
 40
0.8127630549
 40
0.864711743
 40
0.9125345558
 40
0.9571501792
 40
1.0
 40
1.0
 40
1.0
 40
1.0
 10
50.4999247919
 20
64.0908427838
 30
0.0
 10
50.6879502693
 20
64.1993986958
 30
0.0
 10
51.1136641136
 20
64.375050956
 30
0.0
 10
51.807464248
 20
64.5138490435
 30
0.0
 10
52.5414150624
 20
64.5341357814
 30
0.0
 10
53.2549760523
 20
64.4339339475
 30
0.0
 10
53.8018197052
 20
64.2512837862
 30
0.0
 10
54.1750336982
 20
64.0484154338
 30
0.0
 10
54.4067090368
 20
63.879114774
 30
0.0
 10
54.5936476675
 20
63.6913554422
 30
0.0
 10
54.7316362399
 20
63.4884883379
 30
0.0
 10
54.816588051
 20
63.2744400585
 30
0.0
 10
54.8359816952
 20
63.1262208632
 30
0.0
 10
54.8359718152
 20
63.0539112963
 30
0.0
  0
SPLINE
  5
282
100
AcDbEntity
  8
0
100
AcDbSpline
 62
7
  6
BYLAYER
 70
0
 71
3
 72
14
 73
10
 74
0
 42
0.0000001
 43
0.0000001
 44
0.0000000001
 40
0.0
 40
0.0
 40
0.0
 40
0.0
 40
0.2892726884
 40
0.4225562774
 40
0.5485010275
 40
0.6678910257
 40
0.7818719349
 40
0.8919546168
 40
1.0
 40
1.0
 40
1.0
 40
1.0
 10
33.7175052091
 20
50.3451411471
 30
0.0
 10
33.7175052091
 20
49.9903396749
 30
0.0
 10
33.6760830593
 20
49.4695121201
 30
0.0
 10
33.5159593281
 20
48.8149129659
 30
0.0
 10
33.3530903408
 20
48.3786990729
 30
0.0
 10
33.1454058551
 20
47.9884170799
 30
0.0
 10
32.8947268354
 20
47.6478013142
 30
0.0
 10
32.6031129248
 20
47.3609101711
 30
0.0
 10
32.3824857884
 20
47.2069036116
 30
0.0
 10
32.2677177793
 20
47.1406459452
 30
0.0
  0
SPLINE
  5
283
100
AcDbEntity
  8
0
100
AcDbSpline
 62
7
  6
BYLAYER
 70
0
 71
3
 72
20
 73
16
 74
0
 42
0.0000001
 43
0.0000001
 44
0.0000000001
 40
0.0
 40
0.0
 40
0.0
 40
0.0
 40
0.1402847316
 40
0.2871128884
 40
0.4339577864
 40
0.5053650817
 40
0.5743743747
 40
0.6403262843
 40
0.7026897613
 40
0.7611091615
 40
0.8154452835
 40
0.8658395512
 40
0.9127723593
 40
0.9570928157
 40
1.0
 40
1.0
 40
1.0
 40
1.0
 10
22.3539222571
 20
45.8106276948
 30
0.0
 10
22.2481862446
 20
46.3279094305
 30
0.0
 10
21.933023933
 20
47.3678615174
 30
0.0
 10
21.2211474845
 20
48.8438515584
 30
0.0
 10
20.4448100879
 20
49.9847395684
 30
0.0
 10
19.7346498339
 20
50.8012503122
 30
0.0
 10
19.1772396743
 20
51.3435584816
 30
0.0
 10
18.5996372704
 20
51.8121119016
 30
0.0
 10
18.0113717586
 20
52.1990312312
 30
0.0
 10
17.4221433641
 20
52.4978430293
 30
0.0
 10
16.8413755607
 20
52.7032402772
 30
0.0
 10
16.2783515951
 20
52.811225171
 30
0.0
 10
15.742109265
 20
52.8189294077
 30
0.0
 10
15.2423935399
 20
52.7245898124
 30
0.0
 10
14.9381014779
 20
52.592788274
 30
0.0
 10
14.7982568879
 20
52.5120339506
 30
0.0
  0
SPLINE
  5
284
100
AcDbEntity
  8
0
100
AcDbSpline
 62
7
  6
BYLAYER
 70
0
 71
3
 72
9
 73
5
 74
0
 42
0.0000001
 43
0.0000001
 44
0.0000000001
 40
0.0
 40
0.0
 40
0.0
 40
0.0
 40
0.4914346719
 40
1.0
 40
1.0
 40
1.0
 40
1.0
 10
20.5178480949
 20
45.8337301089
 30
0.0
 10
20.4375651895
 20
46.1520020479
 30
0.0
 10
20.2300804124
 20
46.789018334
 30
0.0
 10
19.948018638
 20
47.3963180621
 30
0.0
 10
19.7875408335
 20
47.6957034858
 30
0.0
  0
SPLINE
  5
285
100
AcDbEntity
  8
0
100
AcDbSpline
 62
7
  6
BYLAYER
 70
0
 71
3
 72
22
 73
18
 74
0
 42
0.0000001
 43
0.0000001
 44
0.0000000001
 40
0.0
 40
0.0
 40
0.0
 40
0.0
 40
0.0428189557
 40
0.087406162
 40
0.1351954201
 40
0.1871119313
 40
0.243564851
 40
0.3045292903
 40
0.369636012
 40
0.4382523975
 40
0.5095591665
 40
0.5826055881
 40
0.7296231615
 40
0.8016231738
 40
0.8712299593
 40
0.937612472
 40
1.0
 40
1.0
 40
1.0
 40
1.0
 10
10.7434751242
 20
47.8107609388
 30
0.0
 10
10.7434567742
 20
47.6299952073
 30
0.0
 10
10.7918538384
 20
47.259434329
 30
0.0
 10
11.004317661
 20
46.7243500934
 30
0.0
 10
11.3491908356
 20
46.2171076205
 30
0.0
 10
11.8166225077
 20
45.7477594379
 30
0.0
 10
12.3957886812
 20
45.324534386
 30
0.0
 10
13.0743941267
 20
44.955421684
 30
0.0
 10
13.8382540495
 20
44.6477196098
 30
0.0
 10
14.6712587059
 20
44.4076477992
 30
0.0
 10
15.555931017
 20
44.2401721565
 30
0.0
 10
16.78107039
 20
44.1184423099
 30
0.0
 10
18.0207988333
 20
44.1525815559
 30
0.0
 10
19.225440877
 20
44.3434978169
 30
0.0
 10
20.0778864131
 20
44.5598687811
 30
0.0
 10
20.8665281644
 20
44.845723309
 30
0.0
 10
21.3555080405
 20
45.0867442479
 30
0.0
 10
21.5835995353
 20
45.2184321478
 30
0.0
  0
SPLINE
  5
286
100
AcDbEntity
  8
0
100
AcDbSpline
 62
7
  6
BYLAYER
 70
0
 71
3
 72
17
 73
13
 74
0
 42
0.0000001
 43
0.0000001
 44
0.0000000001
 40
0.0
 40
0.0
 40
0.0
 40
0.0
 40
0.1286842356
 40
0.2703031337
 40
0.4174437425
 40
0.5617827569
 40
0.69545054
 40
0.8127145007
 40
0.8646808868
 40
0.9125101646
 40
0.957139951
 40
1.0
 40
1.0
 40
1.0
 40
1.0
 10
17.9914821316
 20
49.0551238993
 30
0.0
 10
17.8974763086
 20
49.0008499361
 30
0.0
 10
17.6845984808
 20
48.9130379727
 30
0.0
 10
17.3376903773
 20
48.8436001454
 30
0.0
 10
16.9707620881
 20
48.8334809254
 30
0.0
 10
16.6138034201
 20
48.8836297468
 30
0.0
 10
16.295694909
 20
48.9898827522
 30
0.0
 10
16.0744909053
 20
49.1245845036
 30
0.0
 10
15.9445969076
 20
49.2548417434
 30
0.0
 10
15.8756826313
 20
49.3563261298
 30
0.0
 10
15.8331052803
 20
49.4633096589
 30
0.0
 10
15.8235096672
 20
49.5374362124
 30
0.0
 10
15.8235082712
 20
49.5735897494
 30
0.0
  0
SPLINE
  5
287
100
AcDbEntity
  8
0
100
AcDbSpline
 62
7
  6
BYLAYER
 70
0
 71
3
 72
18
 73
14
 74
0
 42
0.0000001
 43
0.0000001
 44
0.0000000001
 40
0.0
 40
0.0
 40
0.0
 40
0.0
 40
0.1286585538
 40
0.2702079607
 40
0.4173278027
 40
0.5616316029
 40
0.6952660325
 40
0.7562716512
 40
0.8127630549
 40
0.864711743
 40
0.9125345558
 40
0.9571501792
 40
1.0
 40
1.0
 40
1.0
 40
1.0
 10
32.8985495135
 20
74.2527716453
 30
0.0
 10
33.086574991
 20
74.3613275573
 30
0.0
 10
33.5122888352
 20
74.5369798175
 30
0.0
 10
34.2060889696
 20
74.675777905
 30
0.0
 10
34.940039784
 20
74.6960646429
 30
0.0
 10
35.6536007739
 20
74.5958628091
 30
0.0
 10
36.2004444268
 20
74.4132126477
 30
0.0
 10
36.5736584199
 20
74.2103442954
 30
0.0
 10
36.8053337584
 20
74.0410436355
 30
0.0
 10
36.9922723891
 20
73.8532843037
 30
0.0
 10
37.1302609615
 20
73.6504171994
 30
0.0
 10
37.2152127726
 20
73.4363689201
 30
0.0
 10
37.2346064169
 20
73.2881497247
 30
0.0
 10
37.2345965369
 20
73.2158401578
 30
0.0
  0
SPLINE
  5
288
100
AcDbEntity
  8
0
100
AcDbSpline
 62
7
  6
BYLAYER
 70
0
 71
3
 72
23
 73
19
 74
0
 42
0.0000001
 43
0.0000001
 44
0.0000000001
 40
0.0
 40
0.0
 40
0.0
 40
0.0
 40
0.0428146861
 40
0.0873972057
 40
0.1351800351
 40
0.1870890369
 40
0.2435359076
 40
0.3044929127
 40
0.3695896239
 40
0.4381967785
 40
0.5094943332
 40
0.582529954
 40
0.6562718888
 40
0.7296601779
 40
0.8016504612
 40
0.8712486532
 40
0.9376158715
 40
1.0
 40
1.0
 40
1.0
 40
1.0
 10
25.2677564869
 20
59.2650069122
 30
0.0
 10
25.4403372519
 20
59.3646409377
 30
0.0
 10
25.8207653553
 20
59.5227432575
 30
0.0
 10
26.448734778
 20
59.614760975
 30
0.0
 10
27.1230691073
 20
59.5651353711
 30
0.0
 10
27.8288085267
 20
59.3776448373
 30
0.0
 10
28.5520735779
 20
59.0579705829
 30
0.0
 10
29.2784809535
 20
58.6135493241
 30
0.0
 10
29.9932851115
 20
58.0539567075
 30
0.0
 10
30.6816434709
 20
57.3910338274
 30
0.0
 10
31.3290464371
 20
56.6388080544
 30
0.0
 10
31.9217724295
 20
55.8132960322
 30
0.0
 10
32.4472194533
 20
54.9321047021
 30
0.0
 10
32.8941686748
 20
54.0139991489
 30
0.0
 10
33.2530148319
 20
53.078581156
 30
0.0
 10
33.516292246
 20
52.1456227602
 30
0.0
 10
33.6781110932
 20
51.2351555894
 30
0.0
 10
33.7175052091
 20
50.6355013459
 30
0.0
 10
33.7175052091
 20
50.3451411471
 30
0.0
  0
SPLINE
  5
289
100
AcDbEntity
  8
0
100
AcDbSpline
 62
7
  6
BYLAYER
 70
0
 71
3
 72
15
 73
11
 74
0
 42
0.0000001
 43
0.0000001
 44
0.0000000001
 40
0.0
 40
0.0
 40
0.0
 40
0.0
 40
0.1543667847
 40
0.3043678617
 40
0.4468829614
 40
0.5794710505
 40
0.7005133754
 40
0.8096736389
 40
0.90836068
 40
1.0
 40
1.0
 40
1.0
 40
1.0
 10
19.5082580897
 20
48.1794327024
 30
0.0
 10
19.3454283126
 20
48.4419694631
 30
0.0
 10
18.9970292341
 20
48.9432757533
 30
0.0
 10
18.4090082175
 20
49.6195118947
 30
0.0
 10
17.7777952494
 20
50.193179809
 30
0.0
 10
17.1236160959
 20
50.6458001471
 30
0.0
 10
16.4664336564
 20
50.9626158847
 30
0.0
 10
15.8253653469
 20
51.1324454667
 30
0.0
 10
15.2196540078
 20
51.1462740693
 30
0.0
 10
14.845409045
 20
51.0440674386
 30
0.0
 10
14.6786474716
 20
50.9677466127
 30
0.0
  0
ENDSEC
  0
SECTION
  2
OBJECTS
  0
DICTIONARY
  5
C
100
AcDbDictionary
280
0
281
1
  3
ACAD_GROUP
350
D
  3
ACAD_MLINESTYLE
350
17
  3
ACAD_LAYOUT
350
1A
  3
ACAD_PLOTSETTINGS
350
19
  3
ACAD_PLOTSTYLENAME
350
E
  0
DICTIONARY
  5
D
102
{ACAD_REACTORS
330
C
102
}
100
AcDbDictionary
280
0
281
1
  0
ACDBDICTIONARYWDFLT
  5
E
102
{ACAD_REACTORS
330
C
102
}
100
AcDbDictionary
281
1
  3
Normal
350
F
100
AcDbDictionaryWithDefault
340
F
  0
DICTIONARY
  5
17
102
{ACAD_REACTORS
330
C
102
}
100
AcDbDictionary
280
0
281
1
  3
Standard
350
18
  0
DICTIONARY
  5
19
102
{ACAD_REACTORS
330
C
102
}
100
AcDbDictionary
281
1
  0
DICTIONARY
  5
1A
102
{ACAD_REACTORS
330
C
102
}
100
AcDbDictionary
281
1
  3
Model
350
28A
  3
Layout1
350
28B
  0
ACDBPLACEHOLDER
  5
F
102
{ACAD_REACTORS
330
E
102
}
  0
MLINESTYLE
  5
18
102
{ACAD_REACTORS
330
17
102
}
100
AcDbMlineStyle
  2
STANDARD
 70
0
  3

 62
256
 51
90.0
 52
90.0
 71
2
 49
0.5
 62
256
  6
BYLAYER
 49
-0.5
 62
256
  6
BYLAYER
  0
LAYOUT
  5
28A
102
{ACAD_REACTORS
330
1A
102
}
100
AcDbPlotSettings
  1

  2
none_device
  4

  6

 40
0.0
 41
0.0
 42
0.0
 43
0.0
 44
210.0
 45
297.0
 46
0.0
 47
0.0
 48
0.0
 49
0.0
140
0.0
141
0.0
142
1.0
143
1.0
 70
1024
 72
1
 73
0
 74
0
  7

 75
0
147
1.0
148
0.0
149
0.0
100
AcDbLayout
  1
Model
 70
0
 71
0
 10
0.0
 20
0.0
 11
210.0
 21
297.0
 12
0.0
 22
0.0
 32
0.0
 14
0.0
 24
0.0
 34
0.0
 15
0.0
 25
0.0
 35
0.0
146
0.0
 13
0.0
 23
0.0
 33
0.0
 16
1.0
 26
0.0
 36
0.0
 17
0.0
 27
1.0
 37
0.0
 76
0
330
210
345
0
346
0
  0
LAYOUT
  5
28B
102
{ACAD_REACTORS
330
1A
102
}
100
AcDbPlotSettings
  1

  2
none_device
  4

  6

 40
0.0
 41
0.0
 42
0.0
 43
0.0
 44
210.0
 45
297.0
 46
0.0
 47
0.0
 48
0.0
 49
0.0
140
0.0
141
0.0
142
1.0
143
1.0
 70
0
 72
1
 73
0
 74
0
  7

 75
0
147
1.0
148
0.0
149
0.0
100
AcDbLayout
  1
Layout1
 70
0
 71
1
 10
0.0
 20
0.0
 11
210.0
 21
297.0
 12
0.0
 22
0.0
 32
0.0
 14
0.0
 24
0.0
 34
0.0
 15
0.0
 25
0.0
 35
0.0
146
0.0
 13
0.0
 23
0.0
 33
0.0
 16
1.0
 26
0.0
 36
0.0
 17
0.0
 27
1.0
 37
0.0
 76
0
330
211
345
0
346
0
  0
ENDSEC
  0
EOF
