999
DXF file: C:\Users\sesa63760\Dev\_Creo\CAD\MCADID0003020_3D-CAD\drw0001_2.dxf
999
Pro/ENGINEER 2019471 by Parametric Technology Corporation
  0
SECTION
  2
HEADER
  9
$ACADVER
  1
AC1024
  9
$DWGCODEPAGE
  3
ANSI_1252
  9
$EXTMAX
 10
32.8260697981
 20
46.4254415716
 30
0.0
  9
$EXTMIN
 10
0.0
 20
0.0
 30
0.0
  9
$LIMMIN
 10
0.0
 20
0.0
  9
$LIMMAX
 10
32.8260697981
 20
46.4254415716
  9
$VIEWCTR
 10
16.4130348991
 20
23.2127207858
  9
$VIEWSIZE
 40
46.4254415716
  9
$CLAYER
  8
0
  9
$LTSCALE
 40
3.0262510061
  9
$CELTYPE
  6
BYLAYER
  9
$DIMSCALE
 40
1.0
  9
$DIMASZ
 40
0.3907865452
  9
$DIMEXO
 40
1.0
  9
$DIMDLI
 40
2.0908643315
  9
$DIMEXE
 40
1.0
  9
$DIMCEN
 40
0.4952047101
  9
$DIMLFAC
 40
1.0
  9
$DIMBLK
  1
_FILLED
  9
$DIMALT
 70
0
  9
$DIMALTF
 40
0.0393700787
  9
$DIMTXT
 40
0.5471011633
  9
$DIMTOL
 70
1
  9
$DIMLIM
 70
0
  9
$DIMTFAC
 40
1.0
  9
$DIMTP
 40
0.01
  9
$DIMTM
 40
0.01
  9
$DIMGAP
 40
0.625
  9
$DIMDSEP
 70
46
  9
$AUNITS
 70
0
  9
$PDMODE
 70
3
  9
$PDSIZE
 40
0.3125
  9
$HANDSEED
  5
22E
  9
$TILEMODE
 70
1
  9
$MEASUREMENT
 70
1
  9
$INSUNITS
 70
4
  0
ENDSEC
  0
SECTION
  2
CLASSES
  0
CLASS
  1
ACDBDICTIONARYWDFLT
  2
AcDbDictionaryWithDefault
  3
AutoCAD 2000
 90
0
 91
1
280
0
281
0
  0
CLASS
  1
ACDBPLACEHOLDER
  2
AcDbPlaceHolder
  3
AutoCAD 2000
 90
0
 91
1
280
0
281
0
  0
CLASS
  1
LAYOUT
  2
AcDbLayout
  3
AutoCAD 2000
 90
0
 91
0
280
0
281
0
  0
ENDSEC
  0
SECTION
  2
TABLES
  0
TABLE
  2
VPORT
  5
8
100
AcDbSymbolTable
 70
2
  0
VPORT
  5
1F4
100
AcDbSymbolTableRecord
100
AcDbViewportTableRecord
  2
*ACTIVE
 70
0
 10
0.0
 20
0.0
 11
1.0
 21
1.0
 12
16.4130348991
 22
23.2127207858
 13
0.0
 23
0.0
 14
1.0
 24
1.0
 15
0.0
 25
0.0
 16
0.0
 26
0.0
 36
1.0
 17
0.0
 27
0.0
 37
0.0
 40
46.4254415716
 41
0.7070707071
 42
50.0
 43
0.0
 44
0.0
 50
0.0
 51
0.0
 71
0
 72
100
 73
1
 74
1
 75
0
 76
0
 77
0
 78
0
  0
ENDTAB
  0
TABLE
  2
LTYPE
  5
5
100
AcDbSymbolTable
 70
6
  0
LTYPE
  5
14
100
AcDbSymbolTableRecord
100
AcDbLinetypeTableRecord
  2
BYBLOCK
 70
0
  3

 72
65
 73
0
 40
0.0
  0
LTYPE
  5
15
100
AcDbSymbolTableRecord
100
AcDbLinetypeTableRecord
  2
BYLAYER
 70
0
  3

 72
65
 73
0
 40
0.0
  0
LTYPE
  5
16
100
AcDbSymbolTableRecord
100
AcDbLinetypeTableRecord
  2
CONTINUOUS
 70
64
  3
Solid line
 72
65
 73
0
 40
0.0
  0
LTYPE
  5
1F5
100
AcDbSymbolTableRecord
100
AcDbLinetypeTableRecord
  2
CENTER
 70
64
  3
____ _ ____ _ ____ _ ____ _ ____ _ ____ _ ____
 72
65
 73
4
 40
0.6
 49
0.375
 74
0
 49
-0.075
 74
0
 49
0.075
 74
0
 49
-0.075
 74
0
  0
LTYPE
  5
1F6
100
AcDbSymbolTableRecord
100
AcDbLinetypeTableRecord
  2
HIDDEN
 70
64
  3
- - - - - - - - - - - - - - - - - - - -
 72
65
 73
2
 40
0.2
 49
0.1
 74
0
 49
-0.1
 74
0
  0
LTYPE
  5
1F7
100
AcDbSymbolTableRecord
100
AcDbLinetypeTableRecord
  2
PHANTOM
 70
64
  3
_____ _ _ _____ _ _ _____ _ _ _____
 72
65
 73
6
 40
0.8
 49
0.45
 74
0
 49
-0.05
 74
0
 49
0.1
 74
0
 49
-0.05
 74
0
 49
0.1
 74
0
 49
-0.05
 74
0
  0
LTYPE
  5
1F8
100
AcDbSymbolTableRecord
100
AcDbLinetypeTableRecord
  2
DOT
 70
64
  3
. . . . . . . . . . . . . . . . . . . .
 72
65
 73
2
 40
0.2
 49
0.1
 74
0
 49
-0.1
 74
0
  0
LTYPE
  5
1F9
100
AcDbSymbolTableRecord
100
AcDbLinetypeTableRecord
  2
DASHED
 70
64
  3
- - - - - - - - - - - - - - - - - - - -
 72
65
 73
2
 40
0.2
 49
0.1
 74
0
 49
-0.1
 74
0
  0
ENDTAB
  0
TABLE
  2
LAYER
  5
2
100
AcDbSymbolTable
 70
36
  0
LAYER
  5
10
100
AcDbSymbolTableRecord
100
AcDbLayerTableRecord
  2
0
 70
0
 62
7
  6
CONTINUOUS
370
-3
390
F
  0
LAYER
  5
1FA
100
AcDbSymbolTableRecord
100
AcDbLayerTableRecord
  2
DEFAULT_1
 70
0
 62
7
  6
CENTER
370
-3
390
F
  0
LAYER
  5
1FB
100
AcDbSymbolTableRecord
100
AcDbLayerTableRecord
  2
DEFAULT_2
 70
0
 62
7
  6
HIDDEN
370
-3
390
F
  0
LAYER
  5
1FC
100
AcDbSymbolTableRecord
100
AcDbLayerTableRecord
  2
DEFAULT_3
 70
0
 62
7
  6
PHANTOM
370
-3
390
F
  0
LAYER
  5
1FD
100
AcDbSymbolTableRecord
100
AcDbLayerTableRecord
  2
00_COMPONENTS
 70
0
 62
7
  6
CONTINUOUS
370
-3
390
F
  0
LAYER
  5
1FE
100
AcDbSymbolTableRecord
100
AcDbLayerTableRecord
  2
01_1_DEFAULT_DATUMS
 70
0
 62
7
  6
CONTINUOUS
370
-3
390
F
  0
LAYER
  5
1FF
100
AcDbSymbolTableRecord
100
AcDbLayerTableRecord
  2
01_PLANES
 70
0
 62
7
  6
CONTINUOUS
370
-3
390
F
  0
LAYER
  5
200
100
AcDbSymbolTableRecord
100
AcDbLayerTableRecord
  2
02_COORD_SYS
 70
0
 62
7
  6
CONTINUOUS
370
-3
390
F
  0
LAYER
  5
201
100
AcDbSymbolTableRecord
100
AcDbLayerTableRecord
  2
03_AXES
 70
0
 62
7
  6
CONTINUOUS
370
-3
390
F
  0
LAYER
  5
202
100
AcDbSymbolTableRecord
100
AcDbLayerTableRecord
  2
04_POINTS
 70
0
 62
7
  6
CONTINUOUS
370
-3
390
F
  0
LAYER
  5
203
100
AcDbSymbolTableRecord
100
AcDbLayerTableRecord
  2
05_CURVES
 70
0
 62
7
  6
CONTINUOUS
370
-3
390
F
  0
LAYER
  5
204
100
AcDbSymbolTableRecord
100
AcDbLayerTableRecord
  2
06_SURFS
 70
0
 62
7
  6
CONTINUOUS
370
-3
390
F
  0
LAYER
  5
205
100
AcDbSymbolTableRecord
100
AcDbLayerTableRecord
  2
07_COSMETICS
 70
0
 62
7
  6
CONTINUOUS
370
-3
390
F
  0
LAYER
  5
206
100
AcDbSymbolTableRecord
100
AcDbLayerTableRecord
  2
10_NOTES
 70
0
 62
7
  6
CONTINUOUS
370
-3
390
F
  0
LAYER
  5
207
100
AcDbSymbolTableRecord
100
AcDbLayerTableRecord
  2
11_NOTES_PUB
 70
0
 62
7
  6
CONTINUOUS
370
-3
390
F
  0
LAYER
  5
208
100
AcDbSymbolTableRecord
100
AcDbLayerTableRecord
  2
13_REF_GTOL
 70
0
 62
7
  6
CONTINUOUS
370
-3
390
F
  0
LAYER
  5
209
100
AcDbSymbolTableRecord
100
AcDbLayerTableRecord
  2
16_MISC
 70
0
 62
7
  6
CONTINUOUS
370
-3
390
F
  0
LAYER
  5
20A
100
AcDbSymbolTableRecord
100
AcDbLayerTableRecord
  2
17_NO_PRINT
 70
0
 62
7
  6
CONTINUOUS
370
-3
390
F
  0
LAYER
  5
20B
100
AcDbSymbolTableRecord
100
AcDbLayerTableRecord
  2
18_DATUM_CAMS_JOINTS
 70
0
 62
7
  6
CONTINUOUS
370
-3
390
F
  0
LAYER
  5
20C
100
AcDbSymbolTableRecord
100
AcDbLayerTableRecord
  2
19_DATUM_FUNCTIONAL
 70
0
 62
7
  6
CONTINUOUS
370
-3
390
F
  0
LAYER
  5
20D
100
AcDbSymbolTableRecord
100
AcDbLayerTableRecord
  2
20_DATUM_KINEMATIC_SCHEME
 70
0
 62
7
  6
CONTINUOUS
370
-3
390
F
  0
ENDTAB
  0
TABLE
  2
STYLE
  5
3
100
AcDbSymbolTable
 70
1
  0
STYLE
  5
11
100
AcDbSymbolTableRecord
100
AcDbTextStyleTableRecord
  2
STANDARD
 70
0
 40
0.0
 41
1.0
 50
0.0
 71
0
 42
0.2
  3
ARIAL.TTF
  4

  0
STYLE
  5
20E
100
AcDbSymbolTableRecord
100
AcDbTextStyleTableRecord
  2
TEXTSTYLE_1
 70
0
 40
0.0
 41
0.8
 50
0.0
 71
0
 42
0.2
  3
gdt
  4

  0
ENDTAB
  0
TABLE
  2
VIEW
  5
6
100
AcDbSymbolTable
 70
0
  0
ENDTAB
  0
TABLE
  2
UCS
  5
7
100
AcDbSymbolTable
 70
0
  0
ENDTAB
  0
TABLE
  2
APPID
  5
9
100
AcDbSymbolTable
 70
1
  0
APPID
  5
20F
100
AcDbSymbolTableRecord
100
AcDbRegAppTableRecord
  2
ACAD
 70
0
  0
ENDTAB
  0
TABLE
  2
BLOCK_RECORD
  5
1
100
AcDbSymbolTable
 70
0
  0
BLOCK_RECORD
  5
210
100
AcDbSymbolTableRecord
100
AcDbBlockTableRecord
  2
*Model_Space
  0
BLOCK_RECORD
  5
211
100
AcDbSymbolTableRecord
100
AcDbBlockTableRecord
  2
*Paper_Space
  0
BLOCK_RECORD
  5
212
100
AcDbSymbolTableRecord
100
AcDbBlockTableRecord
  2
_FILLED
  0
ENDTAB
  0
TABLE
  2
DIMSTYLE
  5
A
100
AcDbSymbolTable
 70
1
100
AcDbDimStyleTable
 71
0
  0
DIMSTYLE
105
213
100
AcDbSymbolTableRecord
100
AcDbDimStyleTableRecord
  2
STANDARD
 70
0
  3

  4

 40
1.0
 41
0.3907865452
 42
1.0
 43
0.38
 44
1.0
 45
0.0
 46
0.0
 47
0.01
 48
0.01
140
0.5471011633
141
0.09
142
0.0
143
25.4
144
1.0
145
0.0
146
1.0
147
0.625
 71
1
 72
0
 73
0
 74
0
 75
0
 76
0
 77
1
 78
8
 79
2
170
0
171
1
172
0
173
0
174
0
175
0
176
0
177
0
178
0
270
2
179
2
271
2
272
2
273
2
274
2
275
0
280
0
281
0
282
0
283
1
284
8
285
0
286
0
287
3
288
0
340
11
278
46
341
212
342
212
343
212
344
212
  0
ENDTAB
  0
ENDSEC
  0
SECTION
  2
BLOCKS
  0
BLOCK
  5
20
100
AcDbEntity
  8
0
100
AcDbBlockBegin
  2
*Model_Space
 70
0
 10
0.0
 20
0.0
 30
0.0
  3
*Model_Space
  1

  0
ENDBLK
  5
21
100
AcDbEntity
  8
0
100
AcDbBlockEnd
  0
BLOCK
  5
1C
100
AcDbEntity
  8
0
100
AcDbBlockBegin
  2
*Paper_Space
 70
0
 10
0.0
 20
0.0
 30
0.0
  3
*Paper_Space
  1

  0
ENDBLK
  5
1D
100
AcDbEntity
  8
0
100
AcDbBlockEnd
  0
BLOCK
  5
214
100
AcDbEntity
  8
0
100
AcDbBlockBegin
  2
_FILLED
 70
64
 10
0.0
 20
0.0
  3
_FILLED
  1

  0
SOLID
  5
215
100
AcDbEntity
  8
0
  6
BYBLOCK
 62
0
100
AcDbTrace
 10
0.0
 20
0.0
 11
-1.0
 21
0.25
 12
-1.0
 22
-0.25
 13
-1.0
 23
-0.25
  0
ENDBLK
  5
216
100
AcDbEntity
  8
0
  6
BYBLOCK
 62
0
100
AcDbBlockEnd
  0
ENDSEC
  0
SECTION
  2
ENTITIES
  0
LINE
  5
217
100
AcDbEntity
  8
0
100
AcDbLine
 62
7
  6
BYLAYER
 10
3.599158431
 20
23.921234357
 11
3.599158431
 21
17.571234357
  0
LINE
  5
218
100
AcDbEntity
  8
0
100
AcDbLine
 62
7
  6
BYLAYER
 10
5.186658431
 20
22.333734357
 11
5.186658431
 21
30.271234357
  0
LINE
  5
219
100
AcDbEntity
  8
0
100
AcDbLine
 62
7
  6
BYLAYER
 10
8.361658431
 20
17.571234357
 11
8.361658431
 21
15.983734357
  0
LINE
  5
21A
100
AcDbEntity
  8
0
100
AcDbLine
 62
7
  6
BYLAYER
 10
17.886658431
 20
15.983734357
 11
8.361658431
 21
15.983734357
  0
LINE
  5
21B
100
AcDbEntity
  8
0
100
AcDbLine
 62
7
  6
BYLAYER
 10
22.649158431
 20
17.571234357
 11
3.599158431
 21
17.571234357
  0
LINE
  5
21C
100
AcDbEntity
  8
0
100
AcDbLine
 62
7
  6
BYLAYER
 10
25.1913775937
 20
22.333734357
 11
5.1866603058
 21
22.333734357
  0
LINE
  5
21D
100
AcDbEntity
  8
0
100
AcDbLine
 62
7
  6
BYLAYER
 10
27.436441624
 20
23.127484357
 11
25.1913775937
 21
23.127484357
  0
LINE
  5
21E
100
AcDbEntity
  8
0
100
AcDbLine
 62
7
  6
BYLAYER
 10
3.599158431
 20
23.921234357
 11
5.186658431
 21
23.921234357
  0
LINE
  5
21F
100
AcDbEntity
  8
0
100
AcDbLine
 62
7
  6
BYLAYER
 10
17.886658431
 20
15.983734357
 11
17.886658431
 21
17.571234357
  0
LINE
  5
220
100
AcDbEntity
  8
0
100
AcDbLine
 62
7
  6
BYLAYER
 10
18.7368185067
 20
22.333734357
 11
18.7368185067
 21
30.271234357
  0
LINE
  5
221
100
AcDbEntity
  8
0
100
AcDbLine
 62
7
  6
BYLAYER
 10
22.649158431
 20
17.571234357
 11
22.649158431
 21
22.333734357
  0
LINE
  5
222
100
AcDbEntity
  8
0
100
AcDbLine
 62
7
  6
BYLAYER
 10
27.436441624
 20
29.477484357
 11
25.1913775937
 21
29.477484357
  0
LINE
  5
223
100
AcDbEntity
  8
0
100
AcDbLine
 62
7
  6
BYLAYER
 10
5.1866603058
 20
30.271234357
 11
25.1913775937
 21
30.271234357
  0
SPLINE
  5
224
100
AcDbEntity
  8
0
100
AcDbSpline
 62
7
  6
BYLAYER
 70
0
 71
3
 72
18
 73
14
 74
0
 42
0.0000001
 43
0.0000001
 44
0.0000000001
 40
0.0
 40
0.0
 40
0.0
 40
0.0
 40
0.0514879652
 40
0.1034650181
 40
0.1563869773
 40
0.2106532147
 40
0.2665820389
 40
0.3244062538
 40
0.4460599451
 40
0.57590203
 40
0.7128718056
 40
0.855071039
 40
1.0
 40
1.0
 40
1.0
 40
1.0
 10
27.4364416204
 20
23.1275082013
 30
0.0
 10
27.5099692338
 20
23.1275079197
 30
0.0
 10
27.6579282217
 20
23.1378012467
 30
0.0
 10
27.877089543
 20
23.1840487323
 30
0.0
 10
28.0918699933
 20
23.260437339
 30
0.0
 10
28.3000504893
 20
23.3662783592
 30
0.0
 10
28.4997184694
 20
23.5003476071
 30
0.0
 10
28.7562024818
 20
23.7186144307
 30
0.0
 10
29.0443913572
 20
24.0576276884
 30
0.0
 10
29.3215573178
 20
24.5411955382
 30
0.0
 10
29.5269785035
 20
25.0905266893
 30
0.0
 10
29.6531899025
 20
25.6848969648
 30
0.0
 10
29.6815056542
 20
26.0955179215
 30
0.0
 10
29.6815056542
 20
26.302484357
 30
0.0
  0
SPLINE
  5
225
100
AcDbEntity
  8
0
100
AcDbSpline
 62
7
  6
BYLAYER
 70
0
 71
3
 72
18
 73
14
 74
0
 42
0.0000001
 43
0.0000001
 44
0.0000000001
 40
0.0
 40
0.0
 40
0.0
 40
0.0
 40
0.1449280842
 40
0.2871244243
 40
0.4240927909
 40
0.5539339319
 40
0.6755886082
 40
0.7334136148
 40
0.7893436531
 40
0.8436108815
 40
0.8965338058
 40
0.9485115221
 40
1.0
 40
1.0
 40
1.0
 40
1.0
 10
29.6815056542
 20
26.302484357
 30
0.0
 10
29.6815056542
 20
26.5094495894
 30
0.0
 10
29.6531912528
 20
26.9200653678
 30
0.0
 10
29.5269816794
 20
27.5144283853
 30
0.0
 10
29.3215680771
 20
28.063754541
 30
0.0
 10
29.0444055611
 20
28.5473218966
 30
0.0
 10
28.7562205904
 20
28.8863407218
 30
0.0
 10
28.4997323048
 20
29.1046090617
 30
0.0
 10
28.3000635312
 20
29.2386849657
 30
0.0
 10
28.0918782828
 20
29.3445269332
 30
0.0
 10
27.8770952359
 20
29.4209193576
 30
0.0
 10
27.6579306174
 20
29.4671671113
 30
0.0
 10
27.5099699907
 20
29.477460231
 30
0.0
 10
27.4364416275
 20
29.4774605126
 30
0.0
  0
SPLINE
  5
226
100
AcDbEntity
  8
0
100
AcDbSpline
 62
7
  6
BYLAYER
 70
0
 71
3
 72
14
 73
10
 74
0
 42
0.0000001
 43
0.0000001
 44
0.0000000001
 40
0.0
 40
0.0
 40
0.0
 40
0.0
 40
0.11798748
 40
0.2368697411
 40
0.3572245496
 40
0.4796483975
 40
0.6047330478
 40
0.7329810597
 40
1.0
 40
1.0
 40
1.0
 40
1.0
 10
25.1913775937
 20
22.333734357
 30
0.0
 10
25.266230908
 20
22.333734357
 30
0.0
 10
25.4166395682
 20
22.3423252195
 30
0.0
 10
25.6404651207
 20
22.3806018624
 30
0.0
 10
25.8614270875
 20
22.444117952
 30
0.0
 10
26.0778862882
 20
22.5324895501
 30
0.0
 10
26.2885376057
 20
22.6449939078
 30
0.0
 10
26.5633482985
 20
22.8286114957
 30
0.0
 10
26.7514383269
 20
22.9970816041
 30
0.0
 10
26.8680506601
 20
23.1199572409
 30
0.0
  0
SPLINE
  5
227
100
AcDbEntity
  8
0
100
AcDbSpline
 62
7
  6
BYLAYER
 70
0
 71
3
 72
14
 73
10
 74
0
 42
0.0000001
 43
0.0000001
 44
0.0000000001
 40
0.0
 40
0.0
 40
0.0
 40
0.0
 40
0.2670443861
 40
0.395297849
 40
0.5203836901
 40
0.6428048674
 40
0.7631533517
 40
0.8820254947
 40
1.0
 40
1.0
 40
1.0
 40
1.0
 10
26.8695160463
 20
29.4834654122
 30
0.0
 10
26.7528449442
 20
29.6065684153
 30
0.0
 10
26.564637465
 20
29.775362841
 30
0.0
 10
26.289601087
 20
29.9593452124
 30
0.0
 10
26.078763988
 20
30.0720746355
 30
0.0
 10
25.8621005548
 20
30.160626007
 30
0.0
 10
25.6409198602
 20
30.2242700853
 30
0.0
 10
25.4168685788
 20
30.2626254618
 30
0.0
 10
25.2663062924
 20
30.271234357
 30
0.0
 10
25.1913775937
 20
30.271234357
 30
0.0
  0
SPLINE
  5
228
100
AcDbEntity
  8
0
100
AcDbSpline
 62
7
  6
BYLAYER
 70
0
 71
3
 72
18
 73
14
 74
0
 42
0.0000001
 43
0.0000001
 44
0.0000000001
 40
0.0
 40
0.0
 40
0.0
 40
0.0
 40
0.0514879652
 40
0.1034650181
 40
0.1563869773
 40
0.2106532147
 40
0.2665820389
 40
0.3244062538
 40
0.4460599451
 40
0.57590203
 40
0.7128718056
 40
0.855071039
 40
1.0
 40
1.0
 40
1.0
 40
1.0
 10
25.1913775973
 20
23.1275082013
 30
0.0
 10
25.1178499839
 20
23.1275079197
 30
0.0
 10
24.969890996
 20
23.1378012467
 30
0.0
 10
24.7507296747
 20
23.1840487323
 30
0.0
 10
24.5359492243
 20
23.260437339
 30
0.0
 10
24.3277687283
 20
23.3662783592
 30
0.0
 10
24.1281007482
 20
23.5003476071
 30
0.0
 10
23.8716167359
 20
23.7186144307
 30
0.0
 10
23.5834278605
 20
24.0576276884
 30
0.0
 10
23.3062618999
 20
24.5411955382
 30
0.0
 10
23.1008407142
 20
25.0905266893
 30
0.0
 10
22.9746293151
 20
25.6848969648
 30
0.0
 10
22.9463135634
 20
26.0955179215
 30
0.0
 10
22.9463135634
 20
26.302484357
 30
0.0
  0
SPLINE
  5
229
100
AcDbEntity
  8
0
100
AcDbSpline
 62
7
  6
BYLAYER
 70
0
 71
3
 72
18
 73
14
 74
0
 42
0.0000001
 43
0.0000001
 44
0.0000000001
 40
0.0
 40
0.0
 40
0.0
 40
0.0
 40
0.1449280842
 40
0.2871244243
 40
0.4240927909
 40
0.5539339319
 40
0.6755886082
 40
0.7334136148
 40
0.7893436531
 40
0.8436108815
 40
0.8965338058
 40
0.9485115221
 40
1.0
 40
1.0
 40
1.0
 40
1.0
 10
25.1913775937
 20
26.302484357
 30
0.0
 10
25.1913775937
 20
26.0955191245
 30
0.0
 10
25.2196919951
 20
25.6849033461
 30
0.0
 10
25.3459015686
 20
25.0905403287
 30
0.0
 10
25.5513151709
 20
24.5412141729
 30
0.0
 10
25.8284776868
 20
24.0576468173
 30
0.0
 10
26.1166626575
 20
23.7186279921
 30
0.0
 10
26.3731509431
 20
23.5003596523
 30
0.0
 10
26.5728197167
 20
23.3662837483
 30
0.0
 10
26.7810049651
 20
23.2604417807
 30
0.0
 10
26.995788012
 20
23.1840493563
 30
0.0
 10
27.2149526305
 20
23.1378016027
 30
0.0
 10
27.3629132572
 20
23.1275084829
 30
0.0
 10
27.4364416204
 20
23.1275082013
 30
0.0
  0
SPLINE
  5
22A
100
AcDbEntity
  8
0
100
AcDbSpline
 62
7
  6
BYLAYER
 70
0
 71
3
 72
18
 73
14
 74
0
 42
0.0000001
 43
0.0000001
 44
0.0000000001
 40
0.0
 40
0.0
 40
0.0
 40
0.0
 40
0.1449280842
 40
0.2871244243
 40
0.4240927909
 40
0.5539339319
 40
0.6755886082
 40
0.7334136148
 40
0.7893436531
 40
0.8436108815
 40
0.8965338058
 40
0.9485115221
 40
1.0
 40
1.0
 40
1.0
 40
1.0
 10
22.9463135634
 20
26.302484357
 30
0.0
 10
22.9463135634
 20
26.5094495894
 30
0.0
 10
22.9746279648
 20
26.9200653678
 30
0.0
 10
23.1008375383
 20
27.5144283853
 30
0.0
 10
23.3062511406
 20
28.063754541
 30
0.0
 10
23.5834136565
 20
28.5473218966
 30
0.0
 10
23.8715986273
 20
28.8863407218
 30
0.0
 10
24.1280869128
 20
29.1046090617
 30
0.0
 10
24.3277556864
 20
29.2386849657
 30
0.0
 10
24.5359409348
 20
29.3445269332
 30
0.0
 10
24.7507239818
 20
29.4209193576
 30
0.0
 10
24.9698886003
 20
29.4671671113
 30
0.0
 10
25.117849227
 20
29.477460231
 30
0.0
 10
25.1913775901
 20
29.4774605126
 30
0.0
  0
SPLINE
  5
22B
100
AcDbEntity
  8
0
100
AcDbSpline
 62
7
  6
BYLAYER
 70
0
 71
3
 72
18
 73
14
 74
0
 42
0.0000001
 43
0.0000001
 44
0.0000000001
 40
0.0
 40
0.0
 40
0.0
 40
0.0
 40
0.0514879652
 40
0.1034650181
 40
0.1563869773
 40
0.2106532147
 40
0.2665820389
 40
0.3244062538
 40
0.4460599451
 40
0.57590203
 40
0.7128718056
 40
0.855071039
 40
1.0
 40
1.0
 40
1.0
 40
1.0
 10
27.4364416275
 20
29.4774605126
 30
0.0
 10
27.3629140141
 20
29.4774607942
 30
0.0
 10
27.2149550262
 20
29.4671674673
 30
0.0
 10
26.9957937049
 20
29.4209199816
 30
0.0
 10
26.7810132546
 20
29.3445313749
 30
0.0
 10
26.5728327586
 20
29.2386903548
 30
0.0
 10
26.3731647785
 20
29.1046211068
 30
0.0
 10
26.1166807661
 20
28.8863542832
 30
0.0
 10
25.8284918907
 20
28.5473410255
 30
0.0
 10
25.5513259302
 20
28.0637731757
 30
0.0
 10
25.3459047445
 20
27.5144420246
 30
0.0
 10
25.2196933454
 20
26.9200717491
 30
0.0
 10
25.1913775937
 20
26.5094507924
 30
0.0
 10
25.1913775937
 20
26.302484357
 30
0.0
  0
ENDSEC
  0
SECTION
  2
OBJECTS
  0
DICTIONARY
  5
C
100
AcDbDictionary
280
0
281
1
  3
ACAD_GROUP
350
D
  3
ACAD_MLINESTYLE
350
17
  3
ACAD_LAYOUT
350
1A
  3
ACAD_PLOTSETTINGS
350
19
  3
ACAD_PLOTSTYLENAME
350
E
  0
DICTIONARY
  5
D
102
{ACAD_REACTORS
330
C
102
}
100
AcDbDictionary
280
0
281
1
  0
ACDBDICTIONARYWDFLT
  5
E
102
{ACAD_REACTORS
330
C
102
}
100
AcDbDictionary
281
1
  3
Normal
350
F
100
AcDbDictionaryWithDefault
340
F
  0
DICTIONARY
  5
17
102
{ACAD_REACTORS
330
C
102
}
100
AcDbDictionary
280
0
281
1
  3
Standard
350
18
  0
DICTIONARY
  5
19
102
{ACAD_REACTORS
330
C
102
}
100
AcDbDictionary
281
1
  0
DICTIONARY
  5
1A
102
{ACAD_REACTORS
330
C
102
}
100
AcDbDictionary
281
1
  3
Model
350
22C
  3
Layout1
350
22D
  0
ACDBPLACEHOLDER
  5
F
102
{ACAD_REACTORS
330
E
102
}
  0
MLINESTYLE
  5
18
102
{ACAD_REACTORS
330
17
102
}
100
AcDbMlineStyle
  2
STANDARD
 70
0
  3

 62
256
 51
90.0
 52
90.0
 71
2
 49
0.5
 62
256
  6
BYLAYER
 49
-0.5
 62
256
  6
BYLAYER
  0
LAYOUT
  5
22C
102
{ACAD_REACTORS
330
1A
102
}
100
AcDbPlotSettings
  1

  2
none_device
  4

  6

 40
0.0
 41
0.0
 42
0.0
 43
0.0
 44
210.0
 45
297.0
 46
0.0
 47
0.0
 48
0.0
 49
0.0
140
0.0
141
0.0
142
1.0
143
1.0
 70
1024
 72
1
 73
0
 74
0
  7

 75
0
147
1.0
148
0.0
149
0.0
100
AcDbLayout
  1
Model
 70
0
 71
0
 10
0.0
 20
0.0
 11
210.0
 21
297.0
 12
0.0
 22
0.0
 32
0.0
 14
0.0
 24
0.0
 34
0.0
 15
0.0
 25
0.0
 35
0.0
146
0.0
 13
0.0
 23
0.0
 33
0.0
 16
1.0
 26
0.0
 36
0.0
 17
0.0
 27
1.0
 37
0.0
 76
0
330
210
345
0
346
0
  0
LAYOUT
  5
22D
102
{ACAD_REACTORS
330
1A
102
}
100
AcDbPlotSettings
  1

  2
none_device
  4

  6

 40
0.0
 41
0.0
 42
0.0
 43
0.0
 44
210.0
 45
297.0
 46
0.0
 47
0.0
 48
0.0
 49
0.0
140
0.0
141
0.0
142
1.0
143
1.0
 70
0
 72
1
 73
0
 74
0
  7

 75
0
147
1.0
148
0.0
149
0.0
100
AcDbLayout
  1
Layout1
 70
0
 71
1
 10
0.0
 20
0.0
 11
210.0
 21
297.0
 12
0.0
 22
0.0
 32
0.0
 14
0.0
 24
0.0
 34
0.0
 15
0.0
 25
0.0
 35
0.0
146
0.0
 13
0.0
 23
0.0
 33
0.0
 16
1.0
 26
0.0
 36
0.0
 17
0.0
 27
1.0
 37
0.0
 76
0
330
211
345
0
346
0
  0
ENDSEC
  0
EOF
