999
DXF file: C:\Users\sesa63760\Dev\_Creo\CAD\MCADID0004135_3D-CAD\drw0001_4.dxf
999
Pro/ENGINEER 2019471 by Parametric Technology Corporation
  0
SECTION
  2
HEADER
  9
$ACADVER
  1
AC1024
  9
$DWGCODEPAGE
  3
ANSI_1252
  9
$EXTMAX
 10
62.3349880614
 20
88.1594831154
 30
0.0
  9
$EXTMIN
 10
0.0
 20
0.0
 30
0.0
  9
$LIMMIN
 10
0.0
 20
0.0
  9
$LIMMAX
 10
62.3349880614
 20
88.1594831154
  9
$VIEWCTR
 10
31.1674940307
 20
44.0797415577
  9
$VIEWSIZE
 40
88.1594831154
  9
$CLAYER
  8
0
  9
$LTSCALE
 40
5.7466922327
  9
$CELTYPE
  6
BYLAYER
  9
$DIMSCALE
 40
1.0
  9
$DIMASZ
 40
0.7420831912
  9
$DIMEXO
 40
1.0
  9
$DIMDLI
 40
3.9704419062
  9
$DIMEXE
 40
1.0
  9
$DIMCEN
 40
0.9403678199
  9
$DIMLFAC
 40
1.0
  9
$DIMBLK
  1
_FILLED
  9
$DIMALT
 70
0
  9
$DIMALTF
 40
0.0393700787
  9
$DIMTXT
 40
1.0389164677
  9
$DIMTOL
 70
1
  9
$DIMLIM
 70
0
  9
$DIMTFAC
 40
1.0
  9
$DIMTP
 40
0.01
  9
$DIMTM
 40
0.01
  9
$DIMGAP
 40
0.625
  9
$DIMDSEP
 70
46
  9
$AUNITS
 70
0
  9
$PDMODE
 70
3
  9
$PDSIZE
 40
0.3125
  9
$HANDSEED
  5
322
  9
$TILEMODE
 70
1
  9
$MEASUREMENT
 70
1
  9
$INSUNITS
 70
4
  0
ENDSEC
  0
SECTION
  2
CLASSES
  0
CLASS
  1
ACDBDICTIONARYWDFLT
  2
AcDbDictionaryWithDefault
  3
AutoCAD 2000
 90
0
 91
1
280
0
281
0
  0
CLASS
  1
ACDBPLACEHOLDER
  2
AcDbPlaceHolder
  3
AutoCAD 2000
 90
0
 91
1
280
0
281
0
  0
CLASS
  1
LAYOUT
  2
AcDbLayout
  3
AutoCAD 2000
 90
0
 91
0
280
0
281
0
  0
ENDSEC
  0
SECTION
  2
TABLES
  0
TABLE
  2
VPORT
  5
8
100
AcDbSymbolTable
 70
2
  0
VPORT
  5
1F4
100
AcDbSymbolTableRecord
100
AcDbViewportTableRecord
  2
*ACTIVE
 70
0
 10
0.0
 20
0.0
 11
1.0
 21
1.0
 12
31.1674940307
 22
44.0797415577
 13
0.0
 23
0.0
 14
1.0
 24
1.0
 15
0.0
 25
0.0
 16
0.0
 26
0.0
 36
1.0
 17
0.0
 27
0.0
 37
0.0
 40
88.1594831154
 41
0.7070707071
 42
50.0
 43
0.0
 44
0.0
 50
0.0
 51
0.0
 71
0
 72
100
 73
1
 74
1
 75
0
 76
0
 77
0
 78
0
  0
ENDTAB
  0
TABLE
  2
LTYPE
  5
5
100
AcDbSymbolTable
 70
6
  0
LTYPE
  5
14
100
AcDbSymbolTableRecord
100
AcDbLinetypeTableRecord
  2
BYBLOCK
 70
0
  3

 72
65
 73
0
 40
0.0
  0
LTYPE
  5
15
100
AcDbSymbolTableRecord
100
AcDbLinetypeTableRecord
  2
BYLAYER
 70
0
  3

 72
65
 73
0
 40
0.0
  0
LTYPE
  5
16
100
AcDbSymbolTableRecord
100
AcDbLinetypeTableRecord
  2
CONTINUOUS
 70
64
  3
Solid line
 72
65
 73
0
 40
0.0
  0
LTYPE
  5
1F5
100
AcDbSymbolTableRecord
100
AcDbLinetypeTableRecord
  2
CENTER
 70
64
  3
____ _ ____ _ ____ _ ____ _ ____ _ ____ _ ____
 72
65
 73
4
 40
0.6
 49
0.375
 74
0
 49
-0.075
 74
0
 49
0.075
 74
0
 49
-0.075
 74
0
  0
LTYPE
  5
1F6
100
AcDbSymbolTableRecord
100
AcDbLinetypeTableRecord
  2
HIDDEN
 70
64
  3
- - - - - - - - - - - - - - - - - - - -
 72
65
 73
2
 40
0.2
 49
0.1
 74
0
 49
-0.1
 74
0
  0
LTYPE
  5
1F7
100
AcDbSymbolTableRecord
100
AcDbLinetypeTableRecord
  2
PHANTOM
 70
64
  3
_____ _ _ _____ _ _ _____ _ _ _____
 72
65
 73
6
 40
0.8
 49
0.45
 74
0
 49
-0.05
 74
0
 49
0.1
 74
0
 49
-0.05
 74
0
 49
0.1
 74
0
 49
-0.05
 74
0
  0
LTYPE
  5
1F8
100
AcDbSymbolTableRecord
100
AcDbLinetypeTableRecord
  2
DOT
 70
64
  3
. . . . . . . . . . . . . . . . . . . .
 72
65
 73
2
 40
0.2
 49
0.1
 74
0
 49
-0.1
 74
0
  0
LTYPE
  5
1F9
100
AcDbSymbolTableRecord
100
AcDbLinetypeTableRecord
  2
DASHED
 70
64
  3
- - - - - - - - - - - - - - - - - - - -
 72
65
 73
2
 40
0.2
 49
0.1
 74
0
 49
-0.1
 74
0
  0
ENDTAB
  0
TABLE
  2
LAYER
  5
2
100
AcDbSymbolTable
 70
36
  0
LAYER
  5
10
100
AcDbSymbolTableRecord
100
AcDbLayerTableRecord
  2
0
 70
0
 62
7
  6
CONTINUOUS
370
-3
390
F
  0
LAYER
  5
1FA
100
AcDbSymbolTableRecord
100
AcDbLayerTableRecord
  2
DEFAULT_1
 70
0
 62
7
  6
CENTER
370
-3
390
F
  0
LAYER
  5
1FB
100
AcDbSymbolTableRecord
100
AcDbLayerTableRecord
  2
DEFAULT_2
 70
0
 62
7
  6
HIDDEN
370
-3
390
F
  0
LAYER
  5
1FC
100
AcDbSymbolTableRecord
100
AcDbLayerTableRecord
  2
DEFAULT_3
 70
0
 62
7
  6
PHANTOM
370
-3
390
F
  0
LAYER
  5
1FD
100
AcDbSymbolTableRecord
100
AcDbLayerTableRecord
  2
00_COMPONENTS
 70
0
 62
7
  6
CONTINUOUS
370
-3
390
F
  0
LAYER
  5
1FE
100
AcDbSymbolTableRecord
100
AcDbLayerTableRecord
  2
01_1_DEFAULT_DATUMS
 70
0
 62
7
  6
CONTINUOUS
370
-3
390
F
  0
LAYER
  5
1FF
100
AcDbSymbolTableRecord
100
AcDbLayerTableRecord
  2
01_PLANES
 70
0
 62
7
  6
CONTINUOUS
370
-3
390
F
  0
LAYER
  5
200
100
AcDbSymbolTableRecord
100
AcDbLayerTableRecord
  2
02_COORD_SYS
 70
0
 62
7
  6
CONTINUOUS
370
-3
390
F
  0
LAYER
  5
201
100
AcDbSymbolTableRecord
100
AcDbLayerTableRecord
  2
03_AXES
 70
0
 62
7
  6
CONTINUOUS
370
-3
390
F
  0
LAYER
  5
202
100
AcDbSymbolTableRecord
100
AcDbLayerTableRecord
  2
04_POINTS
 70
0
 62
7
  6
CONTINUOUS
370
-3
390
F
  0
LAYER
  5
203
100
AcDbSymbolTableRecord
100
AcDbLayerTableRecord
  2
05_CURVES
 70
0
 62
7
  6
CONTINUOUS
370
-3
390
F
  0
LAYER
  5
204
100
AcDbSymbolTableRecord
100
AcDbLayerTableRecord
  2
06_SURFS
 70
0
 62
7
  6
CONTINUOUS
370
-3
390
F
  0
LAYER
  5
205
100
AcDbSymbolTableRecord
100
AcDbLayerTableRecord
  2
07_COSMETICS
 70
0
 62
7
  6
CONTINUOUS
370
-3
390
F
  0
LAYER
  5
206
100
AcDbSymbolTableRecord
100
AcDbLayerTableRecord
  2
10_NOTES
 70
0
 62
7
  6
CONTINUOUS
370
-3
390
F
  0
LAYER
  5
207
100
AcDbSymbolTableRecord
100
AcDbLayerTableRecord
  2
11_NOTES_PUB
 70
0
 62
7
  6
CONTINUOUS
370
-3
390
F
  0
LAYER
  5
208
100
AcDbSymbolTableRecord
100
AcDbLayerTableRecord
  2
13_REF_GTOL
 70
0
 62
7
  6
CONTINUOUS
370
-3
390
F
  0
LAYER
  5
209
100
AcDbSymbolTableRecord
100
AcDbLayerTableRecord
  2
16_MISC
 70
0
 62
7
  6
CONTINUOUS
370
-3
390
F
  0
LAYER
  5
20A
100
AcDbSymbolTableRecord
100
AcDbLayerTableRecord
  2
17_NO_PRINT
 70
0
 62
7
  6
CONTINUOUS
370
-3
390
F
  0
LAYER
  5
20B
100
AcDbSymbolTableRecord
100
AcDbLayerTableRecord
  2
18_DATUM_CAMS_JOINTS
 70
0
 62
7
  6
CONTINUOUS
370
-3
390
F
  0
LAYER
  5
20C
100
AcDbSymbolTableRecord
100
AcDbLayerTableRecord
  2
19_DATUM_FUNCTIONAL
 70
0
 62
7
  6
CONTINUOUS
370
-3
390
F
  0
LAYER
  5
20D
100
AcDbSymbolTableRecord
100
AcDbLayerTableRecord
  2
20_DATUM_KINEMATIC_SCHEME
 70
0
 62
7
  6
CONTINUOUS
370
-3
390
F
  0
ENDTAB
  0
TABLE
  2
STYLE
  5
3
100
AcDbSymbolTable
 70
1
  0
STYLE
  5
11
100
AcDbSymbolTableRecord
100
AcDbTextStyleTableRecord
  2
STANDARD
 70
0
 40
0.0
 41
1.0
 50
0.0
 71
0
 42
0.2
  3
ARIAL.TTF
  4

  0
STYLE
  5
20E
100
AcDbSymbolTableRecord
100
AcDbTextStyleTableRecord
  2
TEXTSTYLE_1
 70
0
 40
0.0
 41
0.8
 50
0.0
 71
0
 42
0.2
  3
gdt
  4

  0
ENDTAB
  0
TABLE
  2
VIEW
  5
6
100
AcDbSymbolTable
 70
0
  0
ENDTAB
  0
TABLE
  2
UCS
  5
7
100
AcDbSymbolTable
 70
0
  0
ENDTAB
  0
TABLE
  2
APPID
  5
9
100
AcDbSymbolTable
 70
1
  0
APPID
  5
20F
100
AcDbSymbolTableRecord
100
AcDbRegAppTableRecord
  2
ACAD
 70
0
  0
ENDTAB
  0
TABLE
  2
BLOCK_RECORD
  5
1
100
AcDbSymbolTable
 70
0
  0
BLOCK_RECORD
  5
210
100
AcDbSymbolTableRecord
100
AcDbBlockTableRecord
  2
*Model_Space
  0
BLOCK_RECORD
  5
211
100
AcDbSymbolTableRecord
100
AcDbBlockTableRecord
  2
*Paper_Space
  0
BLOCK_RECORD
  5
212
100
AcDbSymbolTableRecord
100
AcDbBlockTableRecord
  2
_FILLED
  0
ENDTAB
  0
TABLE
  2
DIMSTYLE
  5
A
100
AcDbSymbolTable
 70
1
100
AcDbDimStyleTable
 71
0
  0
DIMSTYLE
105
213
100
AcDbSymbolTableRecord
100
AcDbDimStyleTableRecord
  2
STANDARD
 70
0
  3

  4

 40
1.0
 41
0.7420831912
 42
1.0
 43
0.38
 44
1.0
 45
0.0
 46
0.0
 47
0.01
 48
0.01
140
1.0389164677
141
0.09
142
0.0
143
25.4
144
1.0
145
0.0
146
1.0
147
0.625
 71
1
 72
0
 73
0
 74
0
 75
0
 76
0
 77
1
 78
8
 79
2
170
0
171
1
172
0
173
0
174
0
175
0
176
0
177
0
178
0
270
2
179
2
271
2
272
2
273
2
274
2
275
0
280
0
281
0
282
0
283
1
284
8
285
0
286
0
287
3
288
0
340
11
278
46
341
212
342
212
343
212
344
212
  0
ENDTAB
  0
ENDSEC
  0
SECTION
  2
BLOCKS
  0
BLOCK
  5
20
100
AcDbEntity
  8
0
100
AcDbBlockBegin
  2
*Model_Space
 70
0
 10
0.0
 20
0.0
 30
0.0
  3
*Model_Space
  1

  0
ENDBLK
  5
21
100
AcDbEntity
  8
0
100
AcDbBlockEnd
  0
BLOCK
  5
1C
100
AcDbEntity
  8
0
100
AcDbBlockBegin
  2
*Paper_Space
 70
0
 10
0.0
 20
0.0
 30
0.0
  3
*Paper_Space
  1

  0
ENDBLK
  5
1D
100
AcDbEntity
  8
0
100
AcDbBlockEnd
  0
BLOCK
  5
214
100
AcDbEntity
  8
0
100
AcDbBlockBegin
  2
_FILLED
 70
64
 10
0.0
 20
0.0
  3
_FILLED
  1

  0
SOLID
  5
215
100
AcDbEntity
  8
0
  6
BYBLOCK
 62
0
100
AcDbTrace
 10
0.0
 20
0.0
 11
-1.0
 21
0.25
 12
-1.0
 22
-0.25
 13
-1.0
 23
-0.25
  0
ENDBLK
  5
216
100
AcDbEntity
  8
0
  6
BYBLOCK
 62
0
100
AcDbBlockEnd
  0
ENDSEC
  0
SECTION
  2
ENTITIES
  0
LINE
  5
217
100
AcDbEntity
  8
0
100
AcDbLine
 62
7
  6
BYLAYER
 10
6.9425197834
 20
39.9326253046
 11
6.9425197834
 21
47.6873258422
  0
LINE
  5
218
100
AcDbEntity
  8
0
100
AcDbLine
 62
7
  6
BYLAYER
 10
8.7424395246
 20
55.109975574
 11
8.7424395246
 21
32.5099755743
  0
LINE
  5
219
100
AcDbEntity
  8
0
100
AcDbLine
 62
7
  6
BYLAYER
 10
8.9424395253
 20
32.3099755737
 11
8.9424395246
 21
55.3099755737
  0
LINE
  5
21A
100
AcDbEntity
  8
0
100
AcDbLine
 62
7
  6
BYLAYER
 10
7.7425197847
 20
48.4873258427
 11
6.9425197842
 21
47.6873258422
  0
LINE
  5
21B
100
AcDbEntity
  8
0
100
AcDbLine
 62
7
  6
BYLAYER
 10
6.9425197842
 20
39.9326253043
 11
7.7425197848
 21
39.1326253055
  0
LINE
  5
21C
100
AcDbEntity
  8
0
100
AcDbLine
 62
7
  6
BYLAYER
 10
21.4822395518
 20
51.5428805065
 11
21.6707492089
 21
51.7313901636
  0
LINE
  5
21D
100
AcDbEntity
  8
0
100
AcDbLine
 62
7
  6
BYLAYER
 10
21.8639343748
 20
51.5382049983
 11
21.6754247168
 21
51.3496953413
  0
LINE
  5
21E
100
AcDbEntity
  8
0
100
AcDbLine
 62
7
  6
BYLAYER
 10
23.9425197831
 20
32.3552378449
 11
23.2596770724
 21
32.5382049983
  0
LINE
  5
21F
100
AcDbEntity
  8
0
100
AcDbLine
 62
7
  6
BYLAYER
 10
23.4010984283
 20
32.7313901634
 11
24.0839411402
 21
32.5484230102
  0
LINE
  5
220
100
AcDbEntity
  8
0
100
AcDbLine
 62
7
  6
BYLAYER
 10
21.6707492089
 20
35.8885609843
 11
21.4822395518
 21
36.0770706404
  0
LINE
  5
221
100
AcDbEntity
  8
0
100
AcDbLine
 62
7
  6
BYLAYER
 10
21.6754247175
 20
36.2702558062
 11
21.8639343747
 21
36.0817461491
  0
LINE
  5
222
100
AcDbEntity
  8
0
100
AcDbLine
 62
7
  6
BYLAYER
 10
27.0211051938
 20
55.0817461488
 11
27.2493346188
 21
55.3099755738
  0
LINE
  5
223
100
AcDbEntity
  8
0
100
AcDbLine
 62
7
  6
BYLAYER
 10
27.4028000163
 20
55.0770706405
 11
27.2142903592
 21
54.8885609834
  0
LINE
  5
224
100
AcDbEntity
  8
0
100
AcDbLine
 62
7
  6
BYLAYER
 10
51.7265886813
 20
32.4416696965
 11
56.8844692447
 21
32.4529017055
  0
LINE
  5
225
100
AcDbEntity
  8
0
100
AcDbLine
 62
7
  6
BYLAYER
 10
8.9424395239
 20
32.3099755737
 11
56.7463447069
 21
32.3099755737
  0
LINE
  5
226
100
AcDbEntity
  8
0
100
AcDbLine
 62
7
  6
BYLAYER
 10
24.6596773451
 20
32.3238456442
 11
24.2253626821
 21
32.3238456384
  0
LINE
  5
227
100
AcDbEntity
  8
0
100
AcDbLine
 62
7
  6
BYLAYER
 10
51.5924298105
 20
32.509975573
 11
27.594662757
 21
32.509975573
  0
LINE
  5
228
100
AcDbEntity
  8
0
100
AcDbLine
 62
7
  6
BYLAYER
 10
21.2903768061
 20
32.509975573
 11
8.7424395246
 21
32.509975573
  0
LINE
  5
229
100
AcDbEntity
  8
0
100
AcDbLine
 62
7
  6
BYLAYER
 10
24.6596770723
 20
32.517030809
 11
24.2253624965
 21
32.5170308034
  0
LINE
  5
22A
100
AcDbEntity
  8
0
100
AcDbLine
 62
7
  6
BYLAYER
 10
21.8639343742
 20
32.5382049983
 11
23.2596770724
 21
32.5382049983
  0
LINE
  5
22B
100
AcDbEntity
  8
0
100
AcDbLine
 62
7
  6
BYLAYER
 10
25.6253624962
 20
32.5382049983
 11
27.0211051938
 21
32.5382049983
  0
LINE
  5
22C
100
AcDbEntity
  8
0
100
AcDbLine
 62
7
  6
BYLAYER
 10
27.5959851815
 20
32.5428805072
 11
27.4028000163
 21
32.5428805072
  0
LINE
  5
22D
100
AcDbEntity
  8
0
100
AcDbLine
 62
7
  6
BYLAYER
 10
21.4822395518
 20
32.5428805066
 11
21.2890543858
 21
32.5428805066
  0
LINE
  5
22E
100
AcDbEntity
  8
0
100
AcDbLine
 62
7
  6
BYLAYER
 10
27.2142903592
 20
32.7313901633
 11
25.4839411403
 21
32.7313901638
  0
LINE
  5
22F
100
AcDbEntity
  8
0
100
AcDbLine
 62
7
  6
BYLAYER
 10
23.4010984283
 20
32.7313901638
 11
21.6707492089
 21
32.7313901634
  0
LINE
  5
230
100
AcDbEntity
  8
0
100
AcDbLine
 62
7
  6
BYLAYER
 10
27.4031302074
 20
32.5254365946
 11
27.5946627571
 21
32.5099755737
  0
LINE
  5
231
100
AcDbEntity
  8
0
100
AcDbLine
 62
7
  6
BYLAYER
 10
27.2493346186
 20
32.3099755734
 11
27.0211051938
 21
32.5382049983
  0
LINE
  5
232
100
AcDbEntity
  8
0
100
AcDbLine
 62
7
  6
BYLAYER
 10
27.2142903592
 20
32.7313901633
 11
27.4028000163
 21
32.5428805071
  0
LINE
  5
233
100
AcDbEntity
  8
0
100
AcDbLine
 62
7
  6
BYLAYER
 10
21.2890543857
 20
55.0770706352
 11
21.289054354
 21
51.5428805483
  0
LINE
  5
234
100
AcDbEntity
  8
0
100
AcDbLine
 62
7
  6
BYLAYER
 10
21.2890543858
 20
36.0770706404
 11
21.2890543858
 21
32.5428805071
  0
LINE
  5
235
100
AcDbEntity
  8
0
100
AcDbLine
 62
7
  6
BYLAYER
 10
21.4822395518
 20
32.5428805066
 11
21.4822395518
 21
36.0770706404
  0
LINE
  5
236
100
AcDbEntity
  8
0
100
AcDbLine
 62
7
  6
BYLAYER
 10
21.4822395518
 20
51.5428805065
 11
21.4822395518
 21
55.0770706404
  0
LINE
  5
237
100
AcDbEntity
  8
0
100
AcDbLine
 62
7
  6
BYLAYER
 10
21.6707492089
 20
54.8885609843
 11
21.6707492089
 21
51.7313901636
  0
LINE
  5
238
100
AcDbEntity
  8
0
100
AcDbLine
 62
7
  6
BYLAYER
 10
21.6707492089
 20
35.8885609843
 11
21.6707492089
 21
32.7313901636
  0
LINE
  5
239
100
AcDbEntity
  8
0
100
AcDbLine
 62
7
  6
BYLAYER
 10
21.6754247168
 20
36.2702558062
 11
21.6754247168
 21
36.4634409714
  0
LINE
  5
23A
100
AcDbEntity
  8
0
100
AcDbLine
 62
7
  6
BYLAYER
 10
21.6754247167
 20
51.1565101761
 11
21.6754247167
 21
51.3496953413
  0
LINE
  5
23B
100
AcDbEntity
  8
0
100
AcDbLine
 62
7
  6
BYLAYER
 10
21.8639343742
 20
32.5382049984
 11
21.8639343742
 21
36.0817461491
  0
LINE
  5
23C
100
AcDbEntity
  8
0
100
AcDbLine
 62
7
  6
BYLAYER
 10
21.8639343737
 20
51.5382049983
 11
21.8639343742
 21
55.0817461491
  0
LINE
  5
23D
100
AcDbEntity
  8
0
100
AcDbLine
 62
7
  6
BYLAYER
 10
25.6253624962
 20
32.5382049983
 11
24.9425193793
 21
32.3552377691
  0
LINE
  5
23E
100
AcDbEntity
  8
0
100
AcDbLine
 62
7
  6
BYLAYER
 10
24.8010984278
 20
32.5484230102
 11
25.4839411397
 21
32.7313901635
  0
LINE
  5
23F
100
AcDbEntity
  8
0
100
AcDbLine
 62
7
  6
BYLAYER
 10
21.4819093401
 20
32.525436693
 11
21.2903767638
 21
32.5099756268
  0
LINE
  5
240
100
AcDbEntity
  8
0
100
AcDbLine
 62
7
  6
BYLAYER
 10
25.4839411397
 20
35.888560984
 11
24.8010984278
 21
36.0715281372
  0
LINE
  5
241
100
AcDbEntity
  8
0
100
AcDbLine
 62
7
  6
BYLAYER
 10
24.942519766
 20
36.2647133072
 11
25.6253624963
 21
36.0817461491
  0
LINE
  5
242
100
AcDbEntity
  8
0
100
AcDbLine
 62
7
  6
BYLAYER
 10
23.2596770714
 20
55.0817461491
 11
23.2596770714
 21
51.5382049983
  0
LINE
  5
243
100
AcDbEntity
  8
0
100
AcDbLine
 62
7
  6
BYLAYER
 10
23.2596770712
 20
36.0817461491
 11
23.2596770712
 21
32.5382049984
  0
LINE
  5
244
100
AcDbEntity
  8
0
100
AcDbLine
 62
7
  6
BYLAYER
 10
23.4010984283
 20
32.7313901634
 11
23.4010984283
 21
35.888560984
  0
LINE
  5
245
100
AcDbEntity
  8
0
100
AcDbLine
 62
7
  6
BYLAYER
 10
23.4010984283
 20
51.7313901636
 11
23.4010984283
 21
54.888560984
  0
LINE
  5
246
100
AcDbEntity
  8
0
100
AcDbLine
 62
7
  6
BYLAYER
 10
23.9648418505
 20
51.3496953413
 11
23.9648418505
 21
51.1565101761
  0
LINE
  5
247
100
AcDbEntity
  8
0
100
AcDbLine
 62
7
  6
BYLAYER
 10
23.9648419314
 20
36.4634409714
 11
23.9648419314
 21
36.2702558062
  0
LINE
  5
248
100
AcDbEntity
  8
0
100
AcDbLine
 62
7
  6
BYLAYER
 10
24.0839411402
 20
55.0715281372
 11
24.0839411402
 21
51.5484230103
  0
LINE
  5
249
100
AcDbEntity
  8
0
100
AcDbLine
 62
7
  6
BYLAYER
 10
24.0839411402
 20
36.0715281373
 11
24.0839411402
 21
32.5484230102
  0
LINE
  5
24A
100
AcDbEntity
  8
0
100
AcDbLine
 62
7
  6
BYLAYER
 10
24.2253624965
 20
32.3238456414
 11
24.2253624962
 21
36.4493305049
  0
LINE
  5
24B
100
AcDbEntity
  8
0
100
AcDbLine
 62
7
  6
BYLAYER
 10
24.2253624958
 20
51.1706206482
 11
24.2253625649
 21
55.296105503
  0
LINE
  5
24C
100
AcDbEntity
  8
0
100
AcDbLine
 62
7
  6
BYLAYER
 10
24.6596770717
 20
55.296105503
 11
24.6596769513
 21
51.1706206482
  0
LINE
  5
24D
100
AcDbEntity
  8
0
100
AcDbLine
 62
7
  6
BYLAYER
 10
24.6596769348
 20
36.4493305049
 11
24.6596770307
 21
32.3238456414
  0
LINE
  5
24E
100
AcDbEntity
  8
0
100
AcDbLine
 62
7
  6
BYLAYER
 10
24.8010984278
 20
32.5484230102
 11
24.8010984278
 21
36.0715281372
  0
LINE
  5
24F
100
AcDbEntity
  8
0
100
AcDbLine
 62
7
  6
BYLAYER
 10
24.8010984278
 20
51.5484230104
 11
24.8010984278
 21
55.0715281274
  0
LINE
  5
250
100
AcDbEntity
  8
0
100
AcDbLine
 62
7
  6
BYLAYER
 10
7.7425197848
 20
39.1326253055
 11
8.7424395246
 21
39.7099755732
  0
LINE
  5
251
100
AcDbEntity
  8
0
100
AcDbLine
 62
7
  6
BYLAYER
 10
21.6707492089
 20
35.8885609844
 11
23.4010984283
 21
35.8885609839
  0
LINE
  5
252
100
AcDbEntity
  8
0
100
AcDbLine
 62
7
  6
BYLAYER
 10
25.4839411403
 20
35.8885609839
 11
27.2142903592
 21
35.8885609843
  0
LINE
  5
253
100
AcDbEntity
  8
0
100
AcDbLine
 62
7
  6
BYLAYER
 10
21.2890543858
 20
36.0770706404
 11
21.4822395518
 21
36.0770706404
  0
LINE
  5
254
100
AcDbEntity
  8
0
100
AcDbLine
 62
7
  6
BYLAYER
 10
27.4028000163
 20
36.0770706412
 11
27.5959851815
 21
36.0770706412
  0
LINE
  5
255
100
AcDbEntity
  8
0
100
AcDbLine
 62
7
  6
BYLAYER
 10
27.0211051939
 20
36.0817461491
 11
25.6253624963
 21
36.0817461491
  0
LINE
  5
256
100
AcDbEntity
  8
0
100
AcDbLine
 62
7
  6
BYLAYER
 10
23.2596770723
 20
36.0817461491
 11
21.8639343747
 21
36.0817461491
  0
LINE
  5
257
100
AcDbEntity
  8
0
100
AcDbLine
 62
7
  6
BYLAYER
 10
24.2253624965
 20
36.1029203378
 11
24.6596770723
 21
36.1029203378
  0
LINE
  5
258
100
AcDbEntity
  8
0
100
AcDbLine
 62
7
  6
BYLAYER
 10
21.6754247175
 20
36.2702558062
 11
23.9648419317
 21
36.2702558062
  0
LINE
  5
259
100
AcDbEntity
  8
0
100
AcDbLine
 62
7
  6
BYLAYER
 10
24.9201970271
 20
36.2702558062
 11
27.209614852
 21
36.2702558062
  0
LINE
  5
25A
100
AcDbEntity
  8
0
100
AcDbLine
 62
7
  6
BYLAYER
 10
24.2253624962
 20
36.2761254186
 11
24.6596769348
 21
36.2761254186
  0
LINE
  5
25B
100
AcDbEntity
  8
0
100
AcDbLine
 62
7
  6
BYLAYER
 10
24.2253624773
 20
36.4493305105
 11
24.6596757117
 21
36.4493304994
  0
LINE
  5
25C
100
AcDbEntity
  8
0
100
AcDbLine
 62
7
  6
BYLAYER
 10
27.2096148519
 20
36.4634409714
 11
24.9201976036
 21
36.4634409714
  0
LINE
  5
25D
100
AcDbEntity
  8
0
100
AcDbLine
 62
7
  6
BYLAYER
 10
23.964841978
 20
36.4634409714
 11
21.6754247168
 21
36.4634409714
  0
LINE
  5
25E
100
AcDbEntity
  8
0
100
AcDbLine
 62
7
  6
BYLAYER
 10
8.7424395246
 20
47.9100219109
 11
7.7425197847
 21
48.4873258427
  0
LINE
  5
25F
100
AcDbEntity
  8
0
100
AcDbLine
 62
7
  6
BYLAYER
 10
24.9201976038
 20
36.2702558062
 11
24.9201976038
 21
36.4634409714
  0
LINE
  5
260
100
AcDbEntity
  8
0
100
AcDbLine
 62
7
  6
BYLAYER
 10
24.9201976408
 20
51.1565101761
 11
24.9201976408
 21
51.3496953413
  0
LINE
  5
261
100
AcDbEntity
  8
0
100
AcDbLine
 62
7
  6
BYLAYER
 10
25.4839411397
 20
54.8885609742
 11
25.4839411397
 21
51.7313901636
  0
LINE
  5
262
100
AcDbEntity
  8
0
100
AcDbLine
 62
7
  6
BYLAYER
 10
25.4839411397
 20
35.888560984
 11
25.4839411397
 21
32.7313901635
  0
LINE
  5
263
100
AcDbEntity
  8
0
100
AcDbLine
 62
7
  6
BYLAYER
 10
25.6253624969
 20
32.5382049984
 11
25.6253624968
 21
36.0817461491
  0
LINE
  5
264
100
AcDbEntity
  8
0
100
AcDbLine
 62
7
  6
BYLAYER
 10
25.625362497
 20
51.5382049983
 11
25.625362497
 21
55.0817461491
  0
LINE
  5
265
100
AcDbEntity
  8
0
100
AcDbLine
 62
7
  6
BYLAYER
 10
24.0839411402
 20
36.0715281373
 11
23.4010984283
 21
35.888560984
  0
LINE
  5
266
100
AcDbEntity
  8
0
100
AcDbLine
 62
7
  6
BYLAYER
 10
27.3035239355
 20
44.7279162346
 11
27.333055908
 21
44.4510540044
  0
LINE
  5
267
100
AcDbEntity
  8
0
100
AcDbLine
 62
7
  6
BYLAYER
 10
28.3777493817
 20
43.0279821524
 11
28.3519089075
 21
43.3103816262
  0
LINE
  5
268
100
AcDbEntity
  8
0
100
AcDbLine
 62
7
  6
BYLAYER
 10
27.0211051939
 20
55.0817461491
 11
27.0211051939
 21
51.5382049983
  0
LINE
  5
269
100
AcDbEntity
  8
0
100
AcDbLine
 62
7
  6
BYLAYER
 10
27.0211051944
 20
36.0817461491
 11
27.0211051939
 21
32.5382049984
  0
LINE
  5
26A
100
AcDbEntity
  8
0
100
AcDbLine
 62
7
  6
BYLAYER
 10
27.209614851
 20
51.3496953413
 11
27.209614851
 21
51.1565101761
  0
LINE
  5
26B
100
AcDbEntity
  8
0
100
AcDbLine
 62
7
  6
BYLAYER
 10
27.2096148517
 20
36.4634409714
 11
27.2096148517
 21
36.2702558062
  0
LINE
  5
26C
100
AcDbEntity
  8
0
100
AcDbLine
 62
7
  6
BYLAYER
 10
27.2142903592
 20
32.7313901633
 11
27.2142903592
 21
35.8885609835
  0
LINE
  5
26D
100
AcDbEntity
  8
0
100
AcDbLine
 62
7
  6
BYLAYER
 10
27.2142903592
 20
51.7313901633
 11
27.2142903592
 21
54.8885609834
  0
LINE
  5
26E
100
AcDbEntity
  8
0
100
AcDbLine
 62
7
  6
BYLAYER
 10
27.4028000163
 20
55.0770706405
 11
27.4028000163
 21
51.5428805071
  0
LINE
  5
26F
100
AcDbEntity
  8
0
100
AcDbLine
 62
7
  6
BYLAYER
 10
27.4028000163
 20
36.0770706406
 11
27.4028000163
 21
32.5428805071
  0
LINE
  5
270
100
AcDbEntity
  8
0
100
AcDbLine
 62
7
  6
BYLAYER
 10
27.595985181
 20
32.5428805071
 11
27.595985181
 21
36.0770706422
  0
LINE
  5
271
100
AcDbEntity
  8
0
100
AcDbLine
 62
7
  6
BYLAYER
 10
27.595985181
 20
51.5428805053
 11
27.595985181
 21
55.0770706403
  0
LINE
  5
272
100
AcDbEntity
  8
0
100
AcDbLine
 62
7
  6
BYLAYER
 10
23.2596770723
 20
36.0817461491
 11
23.9425201872
 21
36.2647133782
  0
LINE
  5
273
100
AcDbEntity
  8
0
100
AcDbLine
 62
7
  6
BYLAYER
 10
51.5924298088
 20
55.1099755734
 11
51.7272169874
 21
55.17858705
  0
LINE
  5
274
100
AcDbEntity
  8
0
100
AcDbLine
 62
7
  6
BYLAYER
 10
51.7272173566
 20
32.4413638733
 11
51.5924298101
 21
32.5099755738
  0
LINE
  5
275
100
AcDbEntity
  8
0
100
AcDbLine
 62
7
  6
BYLAYER
 10
21.4822395518
 20
32.5428805066
 11
21.6707492089
 21
32.7313901636
  0
LINE
  5
276
100
AcDbEntity
  8
0
100
AcDbLine
 62
7
  6
BYLAYER
 10
21.8639343742
 20
32.5382049983
 11
21.6357049494
 21
32.3099755734
  0
LINE
  5
277
100
AcDbEntity
  8
0
100
AcDbLine
 62
7
  6
BYLAYER
 10
27.0211051939
 20
36.0817461491
 11
27.209614852
 21
36.2702558062
  0
LINE
  5
278
100
AcDbEntity
  8
0
100
AcDbLine
 62
7
  6
BYLAYER
 10
21.6707492089
 20
54.8885609843
 11
21.4822395518
 21
55.0770706404
  0
LINE
  5
279
100
AcDbEntity
  8
0
100
AcDbLine
 62
7
  6
BYLAYER
 10
21.6357049495
 20
55.3099755738
 11
21.8639343745
 21
55.0817461488
  0
LINE
  5
27A
100
AcDbEntity
  8
0
100
AcDbLine
 62
7
  6
BYLAYER
 10
27.2096148506
 20
51.3496953413
 11
27.0211051936
 21
51.5382049983
  0
LINE
  5
27B
100
AcDbEntity
  8
0
100
AcDbLine
 62
7
  6
BYLAYER
 10
27.4028000163
 20
36.0770706406
 11
27.2142903592
 21
35.8885609835
  0
LINE
  5
27C
100
AcDbEntity
  8
0
100
AcDbLine
 62
7
  6
BYLAYER
 10
27.2142903592
 20
51.7313901633
 11
27.4028000163
 21
51.5428805071
  0
LINE
  5
27D
100
AcDbEntity
  8
0
100
AcDbLine
 62
7
  6
BYLAYER
 10
23.9425196303
 20
51.3552378721
 11
23.2596770724
 21
51.5382049983
  0
LINE
  5
27E
100
AcDbEntity
  8
0
100
AcDbLine
 62
7
  6
BYLAYER
 10
23.4010984283
 20
51.7313901636
 11
24.0839411402
 21
51.5484230103
  0
LINE
  5
27F
100
AcDbEntity
  8
0
100
AcDbLine
 62
7
  6
BYLAYER
 10
21.6754247168
 20
51.1565101761
 11
23.9648418551
 21
51.1565101761
  0
LINE
  5
280
100
AcDbEntity
  8
0
100
AcDbLine
 62
7
  6
BYLAYER
 10
24.9201976409
 20
51.1565101761
 11
27.2096148519
 21
51.1565101761
  0
LINE
  5
281
100
AcDbEntity
  8
0
100
AcDbLine
 62
7
  6
BYLAYER
 10
24.2253624959
 20
51.1706206482
 11
24.6596769424
 21
51.1706206035
  0
LINE
  5
282
100
AcDbEntity
  8
0
100
AcDbLine
 62
7
  6
BYLAYER
 10
24.2253624967
 20
51.343825729
 11
24.6596770174
 21
51.343825729
  0
LINE
  5
283
100
AcDbEntity
  8
0
100
AcDbLine
 62
7
  6
BYLAYER
 10
27.2096148506
 20
51.3496953413
 11
24.9201976372
 21
51.3496953413
  0
LINE
  5
284
100
AcDbEntity
  8
0
100
AcDbLine
 62
7
  6
BYLAYER
 10
23.9648422672
 20
51.3496953413
 11
21.6754247168
 21
51.3496953413
  0
LINE
  5
285
100
AcDbEntity
  8
0
100
AcDbLine
 62
7
  6
BYLAYER
 10
25.6253624963
 20
51.5382049983
 11
24.942519786
 21
51.3552378455
  0
LINE
  5
286
100
AcDbEntity
  8
0
100
AcDbLine
 62
7
  6
BYLAYER
 10
24.8010984278
 20
51.5484230104
 11
25.4839411397
 21
51.7313901636
  0
LINE
  5
287
100
AcDbEntity
  8
0
100
AcDbLine
 62
7
  6
BYLAYER
 10
24.6596770716
 20
51.5170308097
 11
24.2253624972
 21
51.5170308097
  0
LINE
  5
288
100
AcDbEntity
  8
0
100
AcDbLine
 62
7
  6
BYLAYER
 10
21.8639343748
 20
51.5382049983
 11
23.2596770724
 21
51.5382049983
  0
LINE
  5
289
100
AcDbEntity
  8
0
100
AcDbLine
 62
7
  6
BYLAYER
 10
25.6253624963
 20
51.5382049983
 11
27.0211051936
 21
51.5382049983
  0
LINE
  5
28A
100
AcDbEntity
  8
0
100
AcDbLine
 62
7
  6
BYLAYER
 10
27.595985181
 20
51.5428805053
 11
27.4028000163
 21
51.5428805053
  0
LINE
  5
28B
100
AcDbEntity
  8
0
100
AcDbLine
 62
7
  6
BYLAYER
 10
21.4822395518
 20
51.5428805126
 11
21.2890543866
 21
51.5428805126
  0
LINE
  5
28C
100
AcDbEntity
  8
0
100
AcDbLine
 62
7
  6
BYLAYER
 10
27.2142903592
 20
51.7313901633
 11
25.4839411397
 21
51.7313901637
  0
LINE
  5
28D
100
AcDbEntity
  8
0
100
AcDbLine
 62
7
  6
BYLAYER
 10
23.4010984278
 20
51.7313901637
 11
21.6707492088
 21
51.7313901634
  0
LINE
  5
28E
100
AcDbEntity
  8
0
100
AcDbLine
 62
7
  6
BYLAYER
 10
25.4839411397
 20
54.8885609742
 11
24.8010984278
 21
55.0715281274
  0
LINE
  5
28F
100
AcDbEntity
  8
0
100
AcDbLine
 62
7
  6
BYLAYER
 10
24.9425198709
 20
55.2647132927
 11
25.6253624962
 21
55.0817461488
  0
LINE
  5
290
100
AcDbEntity
  8
0
100
AcDbLine
 62
7
  6
BYLAYER
 10
21.6707492088
 20
54.8885609844
 11
23.4010984278
 21
54.8885609838
  0
LINE
  5
291
100
AcDbEntity
  8
0
100
AcDbLine
 62
7
  6
BYLAYER
 10
25.4839411397
 20
54.8885609838
 11
27.2142903592
 21
54.8885609838
  0
LINE
  5
292
100
AcDbEntity
  8
0
100
AcDbLine
 62
7
  6
BYLAYER
 10
21.2903767639
 20
55.1099755143
 11
21.4819093399
 21
55.0945144478
  0
LINE
  5
293
100
AcDbEntity
  8
0
100
AcDbLine
 62
7
  6
BYLAYER
 10
24.0839411402
 20
55.0715281372
 11
23.4010984283
 21
54.888560984
  0
LINE
  5
294
100
AcDbEntity
  8
0
100
AcDbLine
 62
7
  6
BYLAYER
 10
27.5946627794
 20
55.1099755737
 11
27.4031302193
 21
55.0945145537
  0
LINE
  5
295
100
AcDbEntity
  8
0
100
AcDbLine
 62
7
  6
BYLAYER
 10
21.2890543866
 20
55.0770706404
 11
21.4822395518
 21
55.0770706404
  0
LINE
  5
296
100
AcDbEntity
  8
0
100
AcDbLine
 62
7
  6
BYLAYER
 10
27.4028000163
 20
55.0770706409
 11
27.595985181
 21
55.0770706409
  0
LINE
  5
297
100
AcDbEntity
  8
0
100
AcDbLine
 62
7
  6
BYLAYER
 10
27.0211051938
 20
55.0817461488
 11
25.6253624962
 21
55.0817461488
  0
LINE
  5
298
100
AcDbEntity
  8
0
100
AcDbLine
 62
7
  6
BYLAYER
 10
23.2596770724
 20
55.0817461488
 11
21.8639343745
 21
55.0817461488
  0
LINE
  5
299
100
AcDbEntity
  8
0
100
AcDbLine
 62
7
  6
BYLAYER
 10
24.2253624972
 20
55.1029203403
 11
24.6596770716
 21
55.1029203385
  0
LINE
  5
29A
100
AcDbEntity
  8
0
100
AcDbLine
 62
7
  6
BYLAYER
 10
8.7424395246
 20
55.1099755745
 11
21.2903768322
 21
55.1099755745
  0
LINE
  5
29B
100
AcDbEntity
  8
0
100
AcDbLine
 62
7
  6
BYLAYER
 10
27.5946627794
 20
55.1099755745
 11
51.5924298105
 21
55.1099755745
  0
LINE
  5
29C
100
AcDbEntity
  8
0
100
AcDbLine
 62
7
  6
BYLAYER
 10
24.6596770709
 20
55.2961055029
 11
24.2253626337
 21
55.2961055063
  0
LINE
  5
29D
100
AcDbEntity
  8
0
100
AcDbLine
 62
7
  6
BYLAYER
 10
8.9424395239
 20
55.3099755737
 11
56.7463452363
 21
55.3099755737
  0
LINE
  5
29E
100
AcDbEntity
  8
0
100
AcDbLine
 62
7
  6
BYLAYER
 10
56.8844662528
 20
55.1670486314
 11
51.7265883812
 21
55.1782813584
  0
LINE
  5
29F
100
AcDbEntity
  8
0
100
AcDbLine
 62
7
  6
BYLAYER
 10
23.2596770724
 20
55.0817461488
 11
23.9425197835
 21
55.2647133024
  0
LINE
  5
2A0
100
AcDbEntity
  8
0
100
AcDbLine
 62
7
  6
BYLAYER
 10
51.5924298094
 20
55.3099755737
 11
51.5924298094
 21
55.1099755737
  0
LINE
  5
2A1
100
AcDbEntity
  8
0
100
AcDbLine
 62
7
  6
BYLAYER
 10
51.5924298101
 20
32.5099755737
 11
51.5924298101
 21
32.3099755737
  0
LINE
  5
2A2
100
AcDbEntity
  8
0
100
AcDbLine
 62
7
  6
BYLAYER
 10
56.884431413
 20
55.1114459248
 11
56.8837210198
 21
55.1668447181
  0
LINE
  5
2A3
100
AcDbEntity
  8
0
100
AcDbLine
 62
7
  6
BYLAYER
 10
56.8838700864
 20
32.4531599286
 11
56.8844639976
 21
32.5106145113
  0
ARC
  5
2A4
100
AcDbEntity
  8
0
100
AcDbCircle
 62
7
  6
BYLAYER
 10
-928.5317937066
 20
43.8086574851
 40
985.5426306741
100
AcDbArc
 50
359.3431199039
 51
0.6570333433
  0
ARC
  5
2A5
100
AcDbEntity
  8
0
100
AcDbCircle
 62
7
  6
BYLAYER
 10
-779.6166871984
 20
43.8083001894
 40
836.5771261577
100
AcDbArc
 50
359.2260961011
 51
0.7741569262
  0
ARC
  5
2A6
100
AcDbEntity
  8
0
100
AcDbCircle
 62
7
  6
BYLAYER
 10
27.190026002
 20
43.8020899444
 40
0.8406055333
100
AcDbArc
 50
240.5041205513
 51
270.6299488482
  0
ARC
  5
2A7
100
AcDbEntity
  8
0
100
AcDbCircle
 62
7
  6
BYLAYER
 10
27.1990512821
 20
43.6979011387
 40
0.7502702843
100
AcDbArc
 50
302.4976997582
 51
334.2235116524
  0
ARC
  5
2A8
100
AcDbEntity
  8
0
100
AcDbCircle
 62
7
  6
BYLAYER
 10
27.1334662546
 20
43.7111403611
 40
0.7336095041
100
AcDbArc
 50
208.004830507
 51
240.8516008789
  0
ARC
  5
2A9
100
AcDbEntity
  8
0
100
AcDbCircle
 62
7
  6
BYLAYER
 10
27.4133258125
 20
43.808458302
 40
0.7042155984
100
AcDbArc
 50
153.1791219931
 51
180.8786659361
  0
ARC
  5
2AA
100
AcDbEntity
  8
0
100
AcDbCircle
 62
7
  6
BYLAYER
 10
28.4699015948
 20
43.7476953788
 40
0.6972435039
100
AcDbArc
 50
298.9884212334
 51
332.4996970307
  0
ARC
  5
2AB
100
AcDbEntity
  8
0
100
AcDbCircle
 62
7
  6
BYLAYER
 10
24.7738442206
 20
35.6330218587
 40
0.6538240314
100
AcDbArc
 50
75.049533455
 51
77.0653014936
  0
ARC
  5
2AC
100
AcDbEntity
  8
0
100
AcDbCircle
 62
7
  6
BYLAYER
 10
24.1062857227
 20
35.6528003042
 40
0.6334485883
100
AcDbArc
 50
102.9023659548
 51
104.982914382
  0
ARC
  5
2AD
100
AcDbEntity
  8
0
100
AcDbCircle
 62
7
  6
BYLAYER
 10
27.1572423292
 20
43.6711600644
 40
0.4255605285
100
AcDbArc
 50
221.2315289877
 51
271.6706907721
  0
ARC
  5
2AE
100
AcDbEntity
  8
0
100
AcDbCircle
 62
7
  6
BYLAYER
 10
27.1868777247
 20
32.5428431938
 40
0.409107459
100
AcDbArc
 50
355.391900982
 51
0.0052257611
  0
ARC
  5
2AF
100
AcDbEntity
  8
0
100
AcDbCircle
 62
7
  6
BYLAYER
 10
21.6981618065
 20
32.5428431232
 40
0.4091074241
100
AcDbArc
 50
179.9947643627
 51
184.6080895327
  0
ARC
  5
2B0
100
AcDbEntity
  8
0
100
AcDbCircle
 62
7
  6
BYLAYER
 10
27.1787429414
 20
43.6513143027
 40
0.4056358028
100
AcDbArc
 50
268.7154519369
 51
299.5336560325
  0
ARC
  5
2B1
100
AcDbEntity
  8
0
100
AcDbCircle
 62
7
  6
BYLAYER
 10
27.1711487286
 20
43.6367586096
 40
0.396954176
100
AcDbArc
 50
301.523398061
 51
333.092853287
  0
ARC
  5
2B2
100
AcDbEntity
  8
0
100
AcDbCircle
 62
7
  6
BYLAYER
 10
27.1869889033
 20
32.5300703936
 40
0.2161909713
100
AcDbArc
 50
358.7718905973
 51
3.396976496
  0
ARC
  5
2B3
100
AcDbEntity
  8
0
100
AcDbCircle
 62
7
  6
BYLAYER
 10
21.6980497956
 20
32.530070433
 40
0.2161901014
100
AcDbArc
 50
176.6030202566
 51
181.2281768934
  0
ARC
  5
2B4
100
AcDbEntity
  8
0
100
AcDbCircle
 62
7
  6
BYLAYER
 10
8.9424395246
 20
32.5099755737
 40
0.2
100
AcDbArc
 50
180.0
 51
269.9999997995
  0
ARC
  5
2B5
100
AcDbEntity
  8
0
100
AcDbCircle
 62
7
  6
BYLAYER
 10
56.7463071416
 20
32.5099379484
 40
0.1999648219
100
AcDbArc
 50
270.0107841715
 51
0.0107806361
  0
ARC
  5
2B6
100
AcDbEntity
  8
0
100
AcDbCircle
 62
7
  6
BYLAYER
 10
29.3935909447
 20
43.8099755734
 40
25.060650014
100
AcDbArc
 50
333.0222845368
 51
26.9777154653
  0
ARC
  5
2B7
100
AcDbEntity
  8
0
100
AcDbCircle
 62
7
  6
BYLAYER
 10
29.3935909447
 20
43.8099755734
 40
24.9094047904
100
AcDbArc
 50
333.0222845354
 51
26.9777154661
  0
CIRCLE
  5
2B8
100
AcDbEntity
  8
0
100
AcDbCircle
 62
7
  6
BYLAYER
 10
27.7424395246
 20
43.8104119482
 40
2.7
  0
CIRCLE
  5
2B9
100
AcDbEntity
  8
0
100
AcDbCircle
 62
7
  6
BYLAYER
 10
27.7424395246
 20
43.8104119482
 40
2.6
  0
CIRCLE
  5
2BA
100
AcDbEntity
  8
0
100
AcDbCircle
 62
7
  6
BYLAYER
 10
27.7424395246
 20
43.8104119482
 40
2.5
  0
CIRCLE
  5
2BB
100
AcDbEntity
  8
0
100
AcDbCircle
 62
7
  6
BYLAYER
 10
27.7424395246
 20
43.8104119482
 40
2.4173648178
  0
CIRCLE
  5
2BC
100
AcDbEntity
  8
0
100
AcDbCircle
 62
7
  6
BYLAYER
 10
27.7424395246
 20
43.8104119482
 40
2.0
  0
ARC
  5
2BD
100
AcDbEntity
  8
0
100
AcDbCircle
 62
7
  6
BYLAYER
 10
28.3703945808
 20
43.9537432431
 40
0.9257903054
100
AcDbArc
 50
270.4551824343
 51
298.195169471
  0
ARC
  5
2BE
100
AcDbEntity
  8
0
100
AcDbCircle
 62
7
  6
BYLAYER
 10
28.2689872933
 20
43.8383989382
 40
0.917421543
100
AcDbArc
 50
333.2690184084
 51
1.2597733562
  0
ARC
  5
2BF
100
AcDbEntity
  8
0
100
AcDbCircle
 62
7
  6
BYLAYER
 10
28.4290280203
 20
43.9301176134
 40
0.7129865794
100
AcDbArc
 50
89.0776815871
 51
116.3214875644
  0
ARC
  5
2C0
100
AcDbEntity
  8
0
100
AcDbCircle
 62
7
  6
BYLAYER
 10
28.40735408
 20
43.9871535784
 40
0.6522800605
100
AcDbArc
 50
116.8365289919
 51
144.8742229566
  0
ARC
  5
2C1
100
AcDbEntity
  8
0
100
AcDbCircle
 62
7
  6
BYLAYER
 10
27.2926894136
 20
43.8742636818
 40
0.5668817859
100
AcDbArc
 50
122.8568352158
 51
153.6131950105
  0
ARC
  5
2C2
100
AcDbEntity
  8
0
100
AcDbCircle
 62
7
  6
BYLAYER
 10
28.4790300464
 20
43.9965208864
 40
0.3642010904
100
AcDbArc
 50
39.7825324116
 51
91.4058776384
  0
ARC
  5
2C3
100
AcDbEntity
  8
0
100
AcDbCircle
 62
7
  6
BYLAYER
 10
24.1112211942
 20
51.9870251922
 40
0.6539233593
100
AcDbArc
 50
255.0494997208
 51
257.0649500794
  0
ARC
  5
2C4
100
AcDbEntity
  8
0
100
AcDbCircle
 62
7
  6
BYLAYER
 10
24.7787470103
 20
51.9671794153
 40
0.6334779815
100
AcDbArc
 50
282.9023942156
 51
284.9828797138
  0
ARC
  5
2C5
100
AcDbEntity
  8
0
100
AcDbCircle
 62
7
  6
BYLAYER
 10
27.1868697491
 20
55.0771079095
 40
0.4091154346
100
AcDbArc
 50
359.9947805267
 51
4.6080152093
  0
ARC
  5
2C6
100
AcDbEntity
  8
0
100
AcDbCircle
 62
7
  6
BYLAYER
 10
21.6981543605
 20
55.077107996
 40
0.4090999795
100
AcDbArc
 50
175.391822445
 51
180.0052324966
  0
ARC
  5
2C7
100
AcDbEntity
  8
0
100
AcDbCircle
 62
7
  6
BYLAYER
 10
27.1869846154
 20
55.0898809822
 40
0.2161952645
100
AcDbArc
 50
356.6030305815
 51
1.2280326791
  0
ARC
  5
2C8
100
AcDbEntity
  8
0
100
AcDbCircle
 62
7
  6
BYLAYER
 10
21.6980458586
 20
55.0898804662
 40
0.2161861561
100
AcDbArc
 50
178.7717476296
 51
183.3969757704
  0
ARC
  5
2C9
100
AcDbEntity
  8
0
100
AcDbCircle
 62
7
  6
BYLAYER
 10
8.9424395246
 20
55.1099755737
 40
0.2
100
AcDbArc
 50
90.0000002005
 51
180.0
  0
ARC
  5
2CA
100
AcDbEntity
  8
0
100
AcDbCircle
 62
7
  6
BYLAYER
 10
56.7463072104
 20
55.1100131995
 40
0.1999648221
100
AcDbArc
 50
359.9892192301
 51
89.9891337295
  0
SPLINE
  5
2CB
100
AcDbEntity
  8
0
100
AcDbSpline
 62
7
  6
BYLAYER
 70
0
 71
3
 72
9
 73
5
 74
0
 42
0.0000001
 43
0.0000001
 44
0.0000000001
 40
0.0
 40
0.0
 40
0.0
 40
0.0
 40
0.5868319414
 40
1.0
 40
1.0
 40
1.0
 40
1.0
 10
26.6335173445
 20
44.474125857
 30
0.0
 10
26.732810319
 20
44.5723073602
 30
0.0
 10
26.9417915773
 20
44.6914993396
 30
0.0
 10
27.1953588405
 20
44.725554554
 30
0.0
 10
27.3035239356
 20
44.7279162337
 30
0.0
  0
SPLINE
  5
2CC
100
AcDbEntity
  8
0
100
AcDbSpline
 62
7
  6
BYLAYER
 70
0
 71
3
 72
8
 73
4
 74
0
 42
0.0000001
 43
0.0000001
 44
0.0000000001
 40
0.0
 40
0.0
 40
0.0
 40
0.0
 40
1.0
 40
1.0
 40
1.0
 40
1.0
 10
27.333055908
 20
44.4510540049
 30
0.0
 10
27.1999059905
 20
44.4378490553
 30
0.0
 10
27.076583418
 20
44.4080410348
 30
0.0
 10
26.9851323755
 20
44.3504607287
 30
0.0
  0
SPLINE
  5
2CD
100
AcDbEntity
  8
0
100
AcDbSpline
 62
7
  6
BYLAYER
 70
0
 71
3
 72
9
 73
5
 74
0
 42
0.0000001
 43
0.0000001
 44
0.0000000001
 40
0.0
 40
0.0
 40
0.0
 40
0.0
 40
0.8104594563
 40
1.0
 40
1.0
 40
1.0
 40
1.0
 10
26.7091930216
 20
43.797659147
 30
0.0
 10
26.7091930216
 20
43.6692012739
 30
0.0
 10
26.7387522486
 20
43.5206013553
 30
0.0
 10
26.8200899736
 20
43.4100371036
 30
0.0
 10
26.8371985429
 20
43.390671672
 30
0.0
  0
SPLINE
  5
2CE
100
AcDbEntity
  8
0
100
AcDbSpline
 62
7
  6
BYLAYER
 70
0
 71
3
 72
9
 73
5
 74
0
 42
0.0000001
 43
0.0000001
 44
0.0000000001
 40
0.0
 40
0.0
 40
0.0
 40
0.0
 40
0.5394394751
 40
1.0
 40
1.0
 40
1.0
 40
1.0
 10
27.5251290777
 20
43.4571186078
 30
0.0
 10
27.5513963185
 20
43.505938542
 30
0.0
 10
27.6062923477
 20
43.6524820456
 30
0.0
 10
27.6613129607
 20
43.8304372801
 30
0.0
 10
27.6865743656
 20
43.9157870315
 30
0.0
  0
SPLINE
  5
2CF
100
AcDbEntity
  8
0
100
AcDbSpline
 62
7
  6
BYLAYER
 70
0
 71
3
 72
8
 73
4
 74
0
 42
0.0000001
 43
0.0000001
 44
0.0000000001
 40
0.0
 40
0.0
 40
0.0
 40
0.0
 40
1.0
 40
1.0
 40
1.0
 40
1.0
 10
27.6865743656
 20
43.9157870315
 30
0.0
 10
27.7391146885
 20
44.0927650045
 30
0.0
 10
27.7999837271
 20
44.2581619997
 30
0.0
 10
27.8738601262
 20
44.3624580928
 30
0.0
  0
SPLINE
  5
2D0
100
AcDbEntity
  8
0
100
AcDbSpline
 62
7
  6
BYLAYER
 70
0
 71
3
 72
9
 73
5
 74
0
 42
0.0000001
 43
0.0000001
 44
0.0000000001
 40
0.0
 40
0.0
 40
0.0
 40
0.0
 40
0.6056200566
 40
1.0
 40
1.0
 40
1.0
 40
1.0
 10
28.4405048212
 20
44.6430118169
 30
0.0
 10
28.5663893387
 20
44.6430118168
 30
0.0
 10
28.7640677388
 20
44.6032418416
 30
0.0
 10
28.9228688746
 20
44.4864684426
 30
0.0
 10
28.9776175428
 20
44.430750775
 30
0.0
  0
SPLINE
  5
2D1
100
AcDbEntity
  8
0
100
AcDbSpline
 62
7
  6
BYLAYER
 70
0
 71
3
 72
9
 73
5
 74
0
 42
0.0000001
 43
0.0000001
 44
0.0000000001
 40
0.0
 40
0.0
 40
0.0
 40
0.0
 40
0.587074472
 40
1.0
 40
1.0
 40
1.0
 40
1.0
 10
28.9776175428
 20
44.430750775
 30
0.0
 10
29.0611808615
 20
44.3457084644
 30
0.0
 10
29.1613196476
 20
44.1669728593
 30
0.0
 10
29.1861870876
 20
43.9506164302
 30
0.0
 10
29.1861870876
 20
43.8585688374
 30
0.0
  0
SPLINE
  5
2D2
100
AcDbEntity
  8
0
100
AcDbSpline
 62
7
  6
BYLAYER
 70
0
 71
3
 72
9
 73
5
 74
0
 42
0.0000001
 43
0.0000001
 44
0.0000000001
 40
0.0
 40
0.0
 40
0.0
 40
0.0
 40
0.8123265535
 40
1.0
 40
1.0
 40
1.0
 40
1.0
 10
28.3519089075
 20
43.3103816258
 30
0.0
 10
28.4799910813
 20
43.3211297808
 30
0.0
 10
28.6255245719
 20
43.361413396
 30
0.0
 10
28.726153972
 20
43.4500273561
 30
0.0
 10
28.7432075239
 20
43.4681930964
 30
0.0
  0
SPLINE
  5
2D3
100
AcDbEntity
  8
0
100
AcDbSpline
 62
7
  6
BYLAYER
 70
0
 71
3
 72
9
 73
5
 74
0
 42
0.0000001
 43
0.0000001
 44
0.0000000001
 40
0.0
 40
0.0
 40
0.0
 40
0.0
 40
0.5816700697
 40
1.0
 40
1.0
 40
1.0
 40
1.0
 10
28.7432075239
 20
43.4681930964
 30
0.0
 10
28.7949837486
 20
43.5233460311
 30
0.0
 10
28.855871151
 20
43.6424932755
 30
0.0
 10
28.8705641477
 20
43.7869677526
 30
0.0
 10
28.8705641479
 20
43.8493400956
 30
0.0
  0
SPLINE
  5
2D4
100
AcDbEntity
  8
0
100
AcDbSpline
 62
7
  6
BYLAYER
 70
0
 71
3
 72
9
 73
5
 74
0
 42
0.0000001
 43
0.0000001
 44
0.0000000001
 40
0.0
 40
0.0
 40
0.0
 40
0.0
 40
0.8130671076
 40
1.0
 40
1.0
 40
1.0
 40
1.0
 10
28.8705641479
 20
43.8493400956
 30
0.0
 10
28.870564148
 20
43.9701077504
 30
0.0
 10
28.8457368519
 20
44.1096285766
 30
0.0
 10
28.7738869365
 20
44.2119866568
 30
0.0
 10
28.7589108037
 20
44.2295642214
 30
0.0
  0
SPLINE
  5
2D5
100
AcDbEntity
  8
0
100
AcDbSpline
 62
7
  6
BYLAYER
 70
0
 71
3
 72
9
 73
5
 74
0
 42
0.0000001
 43
0.0000001
 44
0.0000000001
 40
0.0
 40
0.0
 40
0.0
 40
0.0
 40
0.6133107821
 40
1.0
 40
1.0
 40
1.0
 40
1.0
 10
28.4700944705
 20
44.3606123443
 30
0.0
 10
28.408337358
 20
44.3606123443
 30
0.0
 10
28.3129844967
 20
44.343692626
 30
0.0
 10
28.2393842124
 20
44.2900623246
 30
0.0
 10
28.2154100613
 20
44.2646045978
 30
0.0
  0
SPLINE
  5
2D6
100
AcDbEntity
  8
0
100
AcDbSpline
 62
7
  6
BYLAYER
 70
0
 71
3
 72
9
 73
5
 74
0
 42
0.0000001
 43
0.0000001
 44
0.0000000001
 40
0.0
 40
0.0
 40
0.0
 40
0.0
 40
0.5446612048
 40
1.0
 40
1.0
 40
1.0
 40
1.0
 10
28.2154100613
 20
44.2646045978
 30
0.0
 10
28.1746378749
 20
44.2213361741
 30
0.0
 10
28.108062079
 20
44.0858344913
 30
0.0
 10
28.0548177851
 20
43.9144988889
 30
0.0
 10
28.032277235
 20
43.832843722
 30
0.0
  0
SPLINE
  5
2D7
100
AcDbEntity
  8
0
100
AcDbSpline
 62
7
  6
BYLAYER
 70
0
 71
3
 72
8
 73
4
 74
0
 42
0.0000001
 43
0.0000001
 44
0.0000000001
 40
0.0
 40
0.0
 40
0.0
 40
0.0
 40
1.0
 40
1.0
 40
1.0
 40
1.0
 10
28.032277235
 20
43.832843722
 30
0.0
 10
27.9821710513
 20
43.6517872726
 30
0.0
 10
27.9286074249
 20
43.4790041887
 30
0.0
 10
27.8746676437
 20
43.3716373937
 30
0.0
  0
SPLINE
  5
2D8
100
AcDbEntity
  8
0
100
AcDbSpline
 62
7
  6
BYLAYER
 70
0
 71
3
 72
9
 73
5
 74
0
 42
0.0000001
 43
0.0000001
 44
0.0000000001
 40
0.0
 40
0.0
 40
0.0
 40
0.0
 40
0.7918701149
 40
1.0
 40
1.0
 40
1.0
 40
1.0
 10
27.602145808
 20
43.0651134155
 30
0.0
 10
27.5103588423
 20
43.0087576899
 30
0.0
 10
27.3760878488
 20
42.9678986652
 30
0.0
 10
27.2300348893
 20
42.9615352181
 30
0.0
 10
27.1992680059
 20
42.9615352181
 30
0.0
  0
SPLINE
  5
2D9
100
AcDbEntity
  8
0
100
AcDbSpline
 62
7
  6
BYLAYER
 70
0
 71
3
 72
8
 73
4
 74
0
 42
0.0000001
 43
0.0000001
 44
0.0000000001
 40
0.0
 40
0.0
 40
0.0
 40
0.0
 40
1.0
 40
1.0
 40
1.0
 40
1.0
 10
26.4857565477
 20
43.3666769523
 30
0.0
 10
26.4162936098
 20
43.4973739593
 30
0.0
 10
26.3861870868
 20
43.652945032
 30
0.0
 10
26.3861870869
 20
43.8179623777
 30
0.0
  0
SPLINE
  5
2DA
100
AcDbEntity
  8
0
100
AcDbSpline
 62
7
  6
BYLAYER
 70
0
 71
3
 72
9
 73
5
 74
0
 42
0.0000001
 43
0.0000001
 44
0.0000000001
 40
0.0
 40
0.0
 40
0.0
 40
0.0
 40
0.6100510601
 40
1.0
 40
1.0
 40
1.0
 40
1.0
 10
26.3861870869
 20
43.8179623777
 30
0.0
 10
26.386187087
 20
43.9741165663
 30
0.0
 10
26.4309969551
 20
44.2170962294
 30
0.0
 10
26.5681489801
 20
44.4094892392
 30
0.0
 10
26.6335173445
 20
44.474125857
 30
0.0
  0
SPLINE
  5
2DB
100
AcDbEntity
  8
0
100
AcDbSpline
 62
7
  6
BYLAYER
 70
0
 71
3
 72
11
 73
7
 74
0
 42
0.0000001
 43
0.0000001
 44
0.0000000001
 40
0.0
 40
0.0
 40
0.0
 40
0.0
 40
0.2487389563
 40
0.500312297
 40
0.7516636636
 40
1.0
 40
1.0
 40
1.0
 40
1.0
 10
21.4822395518
 20
36.0770706408
 30
0.0
 10
21.4807574993
 20
36.1026764378
 30
0.0
 10
21.4869423523
 20
36.1553810015
 30
0.0
 10
21.5284919988
 20
36.2241389686
 30
0.0
 10
21.5971929803
 20
36.2657126038
 30
0.0
 10
21.6498659304
 20
36.2718286404
 30
0.0
 10
21.675424717
 20
36.2702558063
 30
0.0
  0
SPLINE
  5
2DC
100
AcDbEntity
  8
0
100
AcDbSpline
 62
7
  6
BYLAYER
 70
0
 71
3
 72
14
 73
10
 74
0
 42
0.0000001
 43
0.0000001
 44
0.0000000001
 40
0.0
 40
0.0
 40
0.0
 40
0.0
 40
0.1598583644
 40
0.2585007424
 40
0.3734841657
 40
0.5045519296
 40
0.6508193354
 40
0.8163673699
 40
1.0
 40
1.0
 40
1.0
 40
1.0
 10
21.5102537205
 20
32.3099669967
 30
0.0
 10
21.5112574541
 20
32.3215353189
 30
0.0
 10
21.511248226
 20
32.3404897064
 30
0.0
 10
21.5063283724
 20
32.3672052546
 30
0.0
 10
21.5007395693
 20
32.3916064561
 30
0.0
 10
21.4944954857
 20
32.4194156805
 30
0.0
 10
21.4888144353
 20
32.4510933657
 30
0.0
 10
21.4840014186
 20
32.4867622238
 30
0.0
 10
21.4820678412
 20
32.5120988346
 30
0.0
 10
21.4819093403
 20
32.5254365924
 30
0.0
  0
SPLINE
  5
2DD
100
AcDbEntity
  8
0
100
AcDbSpline
 62
7
  6
BYLAYER
 70
0
 71
3
 72
22
 73
18
 74
0
 42
0.0000001
 43
0.0000001
 44
0.0000000001
 40
0.0
 40
0.0
 40
0.0
 40
0.0
 40
0.1586747786
 40
0.2360488538
 40
0.3118191574
 40
0.4577949572
 40
0.527663368
 40
0.5944694827
 40
0.6568058146
 40
0.7133284645
 40
0.7381817904
 40
0.7595127457
 40
0.7770995041
 40
0.7921593243
 40
0.8280293013
 40
0.8785060942
 40
1.0
 40
1.0
 40
1.0
 40
1.0
 10
21.2903767721
 20
32.5099755737
 30
0.0
 10
21.2939865396
 20
32.4950133499
 30
0.0
 10
21.3003094801
 20
32.4728496177
 30
0.0
 10
21.3137242115
 20
32.4456433738
 30
0.0
 10
21.3297583769
 20
32.4213958429
 30
0.0
 10
21.3483203435
 20
32.3999193598
 30
0.0
 10
21.367715869
 20
32.3805450002
 30
0.0
 10
21.3816823923
 20
32.3672159465
 30
0.0
 10
21.394474676
 20
32.3545398375
 30
0.0
 10
21.4042119183
 20
32.3445579604
 30
0.0
 10
21.4106898529
 20
32.336974301
 30
0.0
 10
21.4140910491
 20
32.3317779895
 30
0.0
 10
21.415899636
 20
32.3267670941
 30
0.0
 10
21.4149794009
 20
32.3197470482
 30
0.0
 10
21.4050547251
 20
32.3145761034
 30
0.0
 10
21.3858659785
 20
32.3106539745
 30
0.0
 10
21.3688232699
 20
32.3099755737
 30
0.0
 10
21.3570383182
 20
32.3099755737
 30
0.0
  0
SPLINE
  5
2DE
100
AcDbEntity
  8
0
100
AcDbSpline
 62
7
  6
BYLAYER
 70
0
 71
3
 72
23
 73
19
 74
0
 42
0.0000001
 43
0.0000001
 44
0.0000000001
 40
0.0
 40
0.0
 40
0.0
 40
0.0
 40
0.1592285812
 40
0.2369224988
 40
0.3128125216
 40
0.4592129958
 40
0.5291071145
 40
0.5962676259
 40
0.6592752495
 40
0.715776269
 40
0.761062536
 40
0.7931197676
 40
0.8083817417
 40
0.8272039898
 40
0.8506621407
 40
0.8776260869
 40
0.9363205455
 40
1.0
 40
1.0
 40
1.0
 40
1.0
 10
27.5946627956
 20
32.5099755737
 30
0.0
 10
27.5907601648
 20
32.4951384616
 30
0.0
 10
27.5840935028
 20
32.4731990068
 30
0.0
 10
27.5711047033
 20
32.4459214538
 30
0.0
 10
27.555411569
 20
32.4215737237
 30
0.0
 10
27.5370404886
 20
32.4001092528
 30
0.0
 10
27.5179097226
 20
32.3806225431
 30
0.0
 10
27.5039265476
 20
32.3673451286
 30
0.0
 10
27.4908371391
 20
32.3550274035
 30
0.0
 10
27.4799211197
 20
32.343416205
 30
0.0
 10
27.4721406458
 20
32.3332286994
 30
0.0
 10
27.4700922519
 20
32.3235031232
 30
0.0
 10
27.4739962228
 20
32.3180438877
 30
0.0
 10
27.4789690305
 20
32.3153857473
 30
0.0
 10
27.4853684475
 20
32.3134605188
 30
0.0
 10
27.495724367
 20
32.311562982
 30
0.0
 10
27.5100712852
 20
32.3102278526
 30
0.0
 10
27.5218656815
 20
32.3099755737
 30
0.0
 10
27.5280012422
 20
32.3099755737
 30
0.0
  0
SPLINE
  5
2DF
100
AcDbEntity
  8
0
100
AcDbSpline
 62
7
  6
BYLAYER
 70
0
 71
3
 72
11
 73
7
 74
0
 42
0.0000001
 43
0.0000001
 44
0.0000000001
 40
0.0
 40
0.0
 40
0.0
 40
0.0
 40
0.2500917668
 40
0.5000677917
 40
0.7499802604
 40
1.0
 40
1.0
 40
1.0
 40
1.0
 10
27.2096148519
 20
36.4634409714
 30
0.0
 10
27.2600191935
 20
36.4634409711
 30
0.0
 10
27.3618542572
 20
36.4441563194
 30
0.0
 10
27.4919042906
 20
36.3593177503
 30
0.0
 10
27.5767016042
 20
36.2292651457
 30
0.0
 10
27.5959851802
 20
36.1274604673
 30
0.0
 10
27.595985181
 20
36.0770706422
 30
0.0
  0
SPLINE
  5
2E0
100
AcDbEntity
  8
0
100
AcDbSpline
 62
7
  6
BYLAYER
 70
0
 71
3
 72
10
 73
6
 74
0
 42
0.0000001
 43
0.0000001
 44
0.0000000001
 40
0.0
 40
0.0
 40
0.0
 40
0.0
 40
0.2211856488
 40
0.5813857369
 40
1.0
 40
1.0
 40
1.0
 40
1.0
 10
24.659675712
 20
36.4495978211
 30
0.0
 10
24.6789152214
 20
36.4495977956
 30
0.0
 10
24.7294990633
 20
36.4512419181
 30
0.0
 10
24.8160909619
 20
36.4594034614
 30
0.0
 10
24.8837849517
 20
36.4637635177
 30
0.0
 10
24.9201974978
 20
36.4637750537
 30
0.0
  0
SPLINE
  5
2E1
100
AcDbEntity
  8
0
100
AcDbSpline
 62
7
  6
BYLAYER
 70
0
 71
3
 72
10
 73
6
 74
0
 42
0.0000001
 43
0.0000001
 44
0.0000000001
 40
0.0
 40
0.0
 40
0.0
 40
0.0
 40
0.2862996791
 40
0.6640606029
 40
1.0
 40
1.0
 40
1.0
 40
1.0
 10
23.9648420832
 20
36.46377386
 30
0.0
 10
23.9897457623
 20
36.4637659957
 30
0.0
 10
24.0475124699
 20
36.4612869415
 30
0.0
 10
24.1340750816
 20
36.4528732605
 30
0.0
 10
24.1961409024
 20
36.4495967714
 30
0.0
 10
24.2253624768
 20
36.449596821
 30
0.0
  0
SPLINE
  5
2E2
100
AcDbEntity
  8
0
100
AcDbSpline
 62
7
  6
BYLAYER
 70
0
 71
3
 72
11
 73
7
 74
0
 42
0.0000001
 43
0.0000001
 44
0.0000000001
 40
0.0
 40
0.0
 40
0.0
 40
0.0
 40
0.2500917984
 40
0.5000678753
 40
0.7499803256
 40
1.0
 40
1.0
 40
1.0
 40
1.0
 10
21.2890543858
 20
36.0770706404
 30
0.0
 10
21.2890543859
 20
36.1274749738
 30
0.0
 10
21.308339371
 20
36.229309848
 30
0.0
 10
21.3931772155
 20
36.3593604967
 30
0.0
 10
21.5232305909
 20
36.4441564789
 30
0.0
 10
21.6250349194
 20
36.4634409706
 30
0.0
 10
21.6754247168
 20
36.4634409714
 30
0.0
  0
SPLINE
  5
2E3
100
AcDbEntity
  8
0
100
AcDbSpline
 62
7
  6
BYLAYER
 70
0
 71
3
 72
10
 73
6
 74
0
 42
0.0000001
 43
0.0000001
 44
0.0000000001
 40
0.0
 40
0.0
 40
0.0
 40
0.0
 40
0.2211448767
 40
0.5813615126
 40
1.0
 40
1.0
 40
1.0
 40
1.0
 10
24.2253624959
 20
51.1703529437
 30
0.0
 10
24.2061266265
 20
51.1703529437
 30
0.0
 10
24.1555451632
 20
51.168708641
 30
0.0
 10
24.0689535478
 20
51.1605490215
 30
0.0
 10
24.0012564375
 20
51.1561871024
 30
0.0
 10
23.9648419613
 20
51.1561755453
 30
0.0
  0
SPLINE
  5
2E4
100
AcDbEntity
  8
0
100
AcDbSpline
 62
7
  6
BYLAYER
 70
0
 71
3
 72
10
 73
6
 74
0
 42
0.0000001
 43
0.0000001
 44
0.0000000001
 40
0.0
 40
0.0
 40
0.0
 40
0.0
 40
0.2862525949
 40
0.6639679841
 40
1.0
 40
1.0
 40
1.0
 40
1.0
 10
24.9201975347
 20
51.156175512
 30
0.0
 10
24.8952979281
 20
51.156183414
 30
0.0
 10
24.8375392089
 20
51.1586619181
 30
0.0
 10
24.7509766457
 20
51.1670774876
 30
0.0
 10
24.6889065996
 20
51.1703527888
 30
0.0
 10
24.6596769417
 20
51.1703528719
 30
0.0
  0
SPLINE
  5
2E5
100
AcDbEntity
  8
0
100
AcDbSpline
 62
7
  6
BYLAYER
 70
0
 71
3
 72
11
 73
7
 74
0
 42
0.0000001
 43
0.0000001
 44
0.0000000001
 40
0.0
 40
0.0
 40
0.0
 40
0.0
 40
0.1760884625
 40
0.3934301274
 40
0.6607523173
 40
1.0
 40
1.0
 40
1.0
 40
1.0
 10
27.3752319638
 20
32.3098086706
 30
0.0
 10
27.3720772031
 20
32.3222087134
 30
0.0
 10
27.375208866
 20
32.3516500794
 30
0.0
 10
27.3860446315
 20
32.3979902214
 30
0.0
 10
27.3979351519
 20
32.4568365529
 30
0.0
 10
27.4025991493
 20
32.5007948049
 30
0.0
 10
27.4031346362
 20
32.5254396357
 30
0.0
  0
SPLINE
  5
2E6
100
AcDbEntity
  8
0
100
AcDbSpline
 62
7
  6
BYLAYER
 70
0
 71
3
 72
11
 73
7
 74
0
 42
0.0000001
 43
0.0000001
 44
0.0000000001
 40
0.0
 40
0.0
 40
0.0
 40
0.0
 40
0.2487389563
 40
0.500312297
 40
0.7516636636
 40
1.0
 40
1.0
 40
1.0
 40
1.0
 10
27.2096148515
 20
36.2702558062
 30
0.0
 10
27.2352206484
 20
36.2717378586
 30
0.0
 10
27.287925212
 20
36.2655530055
 30
0.0
 10
27.3566831789
 20
36.224003359
 30
0.0
 10
27.3982568138
 20
36.1553023776
 30
0.0
 10
27.4043728505
 20
36.1026294275
 30
0.0
 10
27.4028000163
 20
36.077070641
 30
0.0
  0
SPLINE
  5
2E7
100
AcDbEntity
  8
0
100
AcDbSpline
 62
7
  6
BYLAYER
 70
0
 71
3
 72
9
 73
5
 74
0
 42
0.0000001
 43
0.0000001
 44
0.0000000001
 40
0.0
 40
0.0
 40
0.0
 40
0.0
 40
0.5068410493
 40
1.0
 40
1.0
 40
1.0
 40
1.0
 10
24.6596769377
 20
36.2761253952
 30
0.0
 10
24.7037082689
 20
36.2760504949
 30
0.0
 10
24.7905566564
 20
36.2757484642
 30
0.0
 10
24.8774971632
 20
36.2737451647
 30
0.0
 10
24.9201976041
 20
36.2702558064
 30
0.0
  0
SPLINE
  5
2E8
100
AcDbEntity
  8
0
100
AcDbSpline
 62
7
  6
BYLAYER
 70
0
 71
3
 72
11
 73
7
 74
0
 42
0.0000001
 43
0.0000001
 44
0.0000000001
 40
0.0
 40
0.0
 40
0.0
 40
0.0
 40
0.273952581
 40
0.540095792
 40
0.7842563812
 40
1.0
 40
1.0
 40
1.0
 40
1.0
 10
24.8010984279
 20
36.0715281372
 30
0.0
 10
24.8041517976
 20
36.0943187994
 30
0.0
 10
24.8156853032
 20
36.1386872802
 30
0.0
 10
24.8471739895
 20
36.1972473844
 30
0.0
 10
24.8895950197
 20
36.242113907
 30
0.0
 10
24.9249519555
 20
36.2603213453
 30
0.0
 10
24.9425197842
 20
36.2647133025
 30
0.0
  0
SPLINE
  5
2E9
100
AcDbEntity
  8
0
100
AcDbSpline
 62
7
  6
BYLAYER
 70
0
 71
3
 72
9
 73
5
 74
0
 42
0.0000001
 43
0.0000001
 44
0.0000000001
 40
0.0
 40
0.0
 40
0.0
 40
0.0
 40
0.5367995415
 40
1.0
 40
1.0
 40
1.0
 40
1.0
 10
24.6596770723
 20
36.1029203436
 30
0.0
 10
24.6857768463
 20
36.1028918542
 30
0.0
 10
24.7344647353
 20
36.0977020875
 30
0.0
 10
24.7812718768
 20
36.0822107282
 30
0.0
 10
24.8010984279
 20
36.0715281372
 30
0.0
  0
SPLINE
  5
2EA
100
AcDbEntity
  8
0
100
AcDbSpline
 62
7
  6
BYLAYER
 70
0
 71
3
 72
10
 73
6
 74
0
 42
0.0000001
 43
0.0000001
 44
0.0000000001
 40
0.0
 40
0.0
 40
0.0
 40
0.0
 40
0.4562278647
 40
0.7244302963
 40
1.0
 40
1.0
 40
1.0
 40
1.0
 10
25.6253624968
 20
36.0817461491
 30
0.0
 10
25.588460588
 20
36.0725206724
 30
0.0
 10
25.5376180328
 20
36.0293991383
 30
0.0
 10
25.4987328712
 20
35.9558048334
 30
0.0
 10
25.4869920012
 20
35.9113329174
 30
0.0
 10
25.4839411405
 20
35.8885609838
 30
0.0
  0
SPLINE
  5
2EB
100
AcDbEntity
  8
0
100
AcDbSpline
 62
7
  6
BYLAYER
 70
0
 71
3
 72
9
 73
5
 74
0
 42
0.0000001
 43
0.0000001
 44
0.0000000001
 40
0.0
 40
0.0
 40
0.0
 40
0.0
 40
0.5400179563
 40
1.0
 40
1.0
 40
1.0
 40
1.0
 10
24.2253626821
 20
32.3238456384
 30
0.0
 10
24.17403892
 20
32.3238456316
 30
0.0
 10
24.078979101
 20
32.3286580761
 30
0.0
 10
23.9847472411
 20
32.3439230316
 30
0.0
 10
23.9425197831
 20
32.3552378449
 30
0.0
  0
SPLINE
  5
2EC
100
AcDbEntity
  8
0
100
AcDbSpline
 62
7
  6
BYLAYER
 70
0
 71
3
 72
9
 73
5
 74
0
 42
0.0000001
 43
0.0000001
 44
0.0000000001
 40
0.0
 40
0.0
 40
0.0
 40
0.0
 40
0.4586400374
 40
1.0
 40
1.0
 40
1.0
 40
1.0
 10
24.942503316
 20
32.3552417862
 30
0.0
 10
24.9004014166
 20
32.3439604226
 30
0.0
 10
24.806183618
 20
32.3286543573
 30
0.0
 10
24.7111258288
 20
32.3238510824
 30
0.0
 10
24.6596773451
 20
32.3238510922
 30
0.0
  0
SPLINE
  5
2ED
100
AcDbEntity
  8
0
100
AcDbSpline
 62
7
  6
BYLAYER
 70
0
 71
3
 72
9
 73
5
 74
0
 42
0.0000001
 43
0.0000001
 44
0.0000000001
 40
0.0
 40
0.0
 40
0.0
 40
0.0
 40
0.4631924714
 40
1.0
 40
1.0
 40
1.0
 40
1.0
 10
24.8010984279
 20
32.5484230736
 30
0.0
 10
24.7812656926
 20
32.5377553062
 30
0.0
 10
24.7344539768
 20
32.5223061389
 30
0.0
 10
24.6857758539
 20
32.5170575585
 30
0.0
 10
24.6596770723
 20
32.5170308004
 30
0.0
  0
SPLINE
  5
2EE
100
AcDbEntity
  8
0
100
AcDbSpline
 62
7
  6
BYLAYER
 70
0
 71
3
 72
11
 73
7
 74
0
 42
0.0000001
 43
0.0000001
 44
0.0000000001
 40
0.0
 40
0.0
 40
0.0
 40
0.0
 40
0.2157437088
 40
0.4599043205
 40
0.7260474929
 40
1.0
 40
1.0
 40
1.0
 40
1.0
 10
24.9425198592
 20
32.3552378815
 30
0.0
 10
24.9249520166
 20
32.3596298329
 30
0.0
 10
24.8895950513
 20
32.3778372542
 30
0.0
 10
24.8471739708
 20
32.42270376
 30
0.0
 10
24.815685241
 20
32.4812638521
 30
0.0
 10
24.8041517133
 20
32.5256323301
 30
0.0
 10
24.8010983349
 20
32.5484229907
 30
0.0
  0
SPLINE
  5
2EF
100
AcDbEntity
  8
0
100
AcDbSpline
 62
7
  6
BYLAYER
 70
0
 71
3
 72
11
 73
7
 74
0
 42
0.0000001
 43
0.0000001
 44
0.0000000001
 40
0.0
 40
0.0
 40
0.0
 40
0.0
 40
0.2479915066
 40
0.5
 40
0.7520084934
 40
1.0
 40
1.0
 40
1.0
 40
1.0
 10
27.2142903592
 20
35.8885609838
 30
0.0
 10
27.2126552221
 20
35.9129706415
 30
0.0
 10
27.1999069308
 20
35.9619626123
 30
0.0
 10
27.1564464801
 20
36.0239022697
 30
0.0
 10
27.0945068228
 20
36.0673627206
 30
0.0
 10
27.045514852
 20
36.080111012
 30
0.0
 10
27.0211051944
 20
36.0817461491
 30
0.0
  0
SPLINE
  5
2F0
100
AcDbEntity
  8
0
100
AcDbSpline
 62
7
  6
BYLAYER
 70
0
 71
3
 72
11
 73
7
 74
0
 42
0.0000001
 43
0.0000001
 44
0.0000000001
 40
0.0
 40
0.0
 40
0.0
 40
0.0
 40
0.2739525809
 40
0.5400957919
 40
0.7842563811
 40
1.0
 40
1.0
 40
1.0
 40
1.0
 10
24.0839411403
 20
32.5484230103
 30
0.0
 10
24.0808877705
 20
32.5256323481
 30
0.0
 10
24.0693542649
 20
32.4812638673
 30
0.0
 10
24.0378655786
 20
32.4227037631
 30
0.0
 10
23.9954445483
 20
32.3778372404
 30
0.0
 10
23.9600876124
 20
32.3596298021
 30
0.0
 10
23.9425197837
 20
32.355237845
 30
0.0
  0
SPLINE
  5
2F1
100
AcDbEntity
  8
0
100
AcDbSpline
 62
7
  6
BYLAYER
 70
0
 71
3
 72
9
 73
5
 74
0
 42
0.0000001
 43
0.0000001
 44
0.0000000001
 40
0.0
 40
0.0
 40
0.0
 40
0.0
 40
0.5368084255
 40
1.0
 40
1.0
 40
1.0
 40
1.0
 10
24.2253624965
 20
32.5170308035
 30
0.0
 10
24.1992636829
 20
32.5170590618
 30
0.0
 10
24.150585875
 20
32.5223062603
 30
0.0
 10
24.1037734211
 20
32.5377545089
 30
0.0
 10
24.0839411403
 20
32.5484230108
 30
0.0
  0
SPLINE
  5
2F2
100
AcDbEntity
  8
0
100
AcDbSpline
 62
7
  6
BYLAYER
 70
0
 71
3
 72
11
 73
7
 74
0
 42
0.0000001
 43
0.0000001
 44
0.0000000001
 40
0.0
 40
0.0
 40
0.0
 40
0.0
 40
0.2852175988
 40
0.5471953696
 40
0.7825198728
 40
1.0
 40
1.0
 40
1.0
 40
1.0
 10
56.8844692447
 20
32.4529017055
 30
0.0
 10
56.8801948359
 20
32.4332275886
 30
0.0
 10
56.8672701184
 20
32.3963118638
 30
0.0
 10
56.8355565646
 20
32.3501435356
 30
0.0
 10
56.7940900635
 20
32.319442616
 30
0.0
 10
56.7617113503
 20
32.3121949712
 30
0.0
 10
56.7463607932
 20
32.3123742699
 30
0.0
  0
SPLINE
  5
2F3
100
AcDbEntity
  8
0
100
AcDbSpline
 62
7
  6
BYLAYER
 70
0
 71
3
 72
11
 73
7
 74
0
 42
0.0000001
 43
0.0000001
 44
0.0000000001
 40
0.0
 40
0.0
 40
0.0
 40
0.0
 40
0.1817989372
 40
0.3984362128
 40
0.6694998436
 40
1.0
 40
1.0
 40
1.0
 40
1.0
 10
56.9462743899
 20
32.5099756125
 30
0.0
 10
56.9466207185
 20
32.5045707426
 30
0.0
 10
56.9435463154
 20
32.4924087189
 30
0.0
 10
56.9301727146
 20
32.4770721086
 30
0.0
 10
56.9097391322
 20
32.4634820688
 30
0.0
 10
56.8931606324
 20
32.4564381454
 30
0.0
 10
56.8838758084
 20
32.4531619054
 30
0.0
  0
SPLINE
  5
2F4
100
AcDbEntity
  8
0
100
AcDbSpline
 62
7
  6
BYLAYER
 70
0
 71
3
 72
11
 73
7
 74
0
 42
0.0000001
 43
0.0000001
 44
0.0000000001
 40
0.0
 40
0.0
 40
0.0
 40
0.0
 40
0.2842080993
 40
0.5455235822
 40
0.7815214855
 40
1.0
 40
1.0
 40
1.0
 40
1.0
 10
51.7265886813
 20
32.4416696965
 30
0.0
 10
51.7218341041
 20
32.4230558113
 30
0.0
 10
51.7088730476
 20
32.3881138165
 30
0.0
 10
51.6779873635
 20
32.3443485231
 30
0.0
 10
51.6381194264
 20
32.3151962875
 30
0.0
 10
51.607213588
 20
32.3077776941
 30
0.0
 10
51.5924463315
 20
32.307592017
 30
0.0
  0
SPLINE
  5
2F5
100
AcDbEntity
  8
0
100
AcDbSpline
 62
7
  6
BYLAYER
 70
0
 71
3
 72
11
 73
7
 74
0
 42
0.0000001
 43
0.0000001
 44
0.0000000001
 40
0.0
 40
0.0
 40
0.0
 40
0.0
 40
0.2842088753
 40
0.5455237402
 40
0.7815207656
 40
1.0
 40
1.0
 40
1.0
 40
1.0
 10
51.7265883812
 20
55.1782813584
 30
0.0
 10
51.7218338084
 20
55.1968952976
 30
0.0
 10
51.7088726184
 20
55.2318372119
 30
0.0
 10
51.6779873758
 20
55.275602791
 30
0.0
 10
51.638119341
 20
55.304754775
 30
0.0
 10
51.6072136101
 20
55.3121736578
 30
0.0
 10
51.5924463065
 20
55.3123593779
 30
0.0
  0
SPLINE
  5
2F6
100
AcDbEntity
  8
0
100
AcDbSpline
 62
7
  6
BYLAYER
 70
0
 71
3
 72
10
 73
6
 74
0
 42
0.0000001
 43
0.0000001
 44
0.0000000001
 40
0.0
 40
0.0
 40
0.0
 40
0.0
 40
0.4562278645
 40
0.7244302963
 40
1.0
 40
1.0
 40
1.0
 40
1.0
 10
23.2596770711
 20
32.5382049984
 30
0.0
 10
23.2965789798
 20
32.5474304755
 30
0.0
 10
23.3474215353
 20
32.590552009
 30
0.0
 10
23.3863066969
 20
32.6641463141
 30
0.0
 10
23.398047567
 20
32.7086182301
 30
0.0
 10
23.4010984276
 20
32.7313901637
 30
0.0
  0
SPLINE
  5
2F7
100
AcDbEntity
  8
0
100
AcDbSpline
 62
7
  6
BYLAYER
 70
0
 71
3
 72
24
 73
20
 74
0
 42
0.0000001
 43
0.0000001
 44
0.0000000001
 40
0.0
 40
0.0
 40
0.0
 40
0.0
 40
0.1590376477
 40
0.3123977062
 40
0.4585748275
 40
0.528541123
 40
0.5957800871
 40
0.6587931363
 40
0.7149726465
 40
0.7394970028
 40
0.7607478053
 40
0.7783110671
 40
0.7932854485
 40
0.8087621924
 40
0.827513994
 40
0.8506988664
 40
0.8775576031
 40
0.9365790875
 40
1.0
 40
1.0
 40
1.0
 40
1.0
 10
27.5946627949
 20
55.1099755737
 30
0.0
 10
27.5911571752
 20
55.1249075491
 30
0.0
 10
27.582778521
 20
55.1541109757
 30
0.0
 10
27.560002955
 20
55.1924618806
 30
0.0
 10
27.5371442811
 20
55.2199015822
 30
0.0
 10
27.5179680669
 20
55.2393886752
 30
0.0
 10
27.5038616487
 20
55.2525776853
 30
0.0
 10
27.4908186205
 20
55.2649503524
 30
0.0
 10
27.4812740977
 20
55.2750313452
 30
0.0
 10
27.4752809103
 20
55.2828479426
 30
0.0
 10
27.4721655973
 20
55.2881171368
 30
0.0
 10
27.4704695173
 20
55.293116823
 30
0.0
 10
27.4710436968
 20
55.2979236246
 30
0.0
 10
27.4741060756
 20
55.3017914893
 30
0.0
 10
27.4789816338
 20
55.3045676682
 30
0.0
 10
27.4853541136
 20
55.3065109093
 30
0.0
 10
27.4957104376
 20
55.3084055989
 30
0.0
 10
27.5100753947
 20
55.3096871485
 30
0.0
 10
27.5218847783
 20
55.3099755737
 30
0.0
 10
27.5280012415
 20
55.3099755737
 30
0.0
  0
SPLINE
  5
2F8
100
AcDbEntity
  8
0
100
AcDbSpline
 62
7
  6
BYLAYER
 70
0
 71
3
 72
11
 73
7
 74
0
 42
0.0000001
 43
0.0000001
 44
0.0000000001
 40
0.0
 40
0.0
 40
0.0
 40
0.0
 40
0.3392381372
 40
0.6065533635
 40
0.8239133907
 40
1.0
 40
1.0
 40
1.0
 40
1.0
 10
27.4031347039
 20
55.0945114984
 30
0.0
 10
27.4025992386
 20
55.1191556516
 30
0.0
 10
27.3979355379
 20
55.1631127258
 30
0.0
 10
27.3860449573
 20
55.2219593169
 30
0.0
 10
27.3752094673
 20
55.2682999733
 30
0.0
 10
27.37207656
 20
55.2977428533
 30
0.0
 10
27.3752319885
 20
55.3101425955
 30
0.0
  0
SPLINE
  5
2F9
100
AcDbEntity
  8
0
100
AcDbSpline
 62
7
  6
BYLAYER
 70
0
 71
3
 72
9
 73
5
 74
0
 42
0.0000001
 43
0.0000001
 44
0.0000000001
 40
0.0
 40
0.0
 40
0.0
 40
0.0
 40
0.5413901641
 40
1.0
 40
1.0
 40
1.0
 40
1.0
 10
24.6596770709
 20
55.296099516
 30
0.0
 10
24.7111283028
 20
55.296099516
 30
0.0
 10
24.8061860687
 20
55.2912979054
 30
0.0
 10
24.9004032241
 20
55.2759894892
 30
0.0
 10
24.9425022488
 20
55.2647088858
 30
0.0
  0
SPLINE
  5
2FA
100
AcDbEntity
  8
0
100
AcDbSpline
 62
7
  6
BYLAYER
 70
0
 71
3
 72
9
 73
5
 74
0
 42
0.0000001
 43
0.0000001
 44
0.0000000001
 40
0.0
 40
0.0
 40
0.0
 40
0.0
 40
0.4599820142
 40
1.0
 40
1.0
 40
1.0
 40
1.0
 10
23.9425197835
 20
55.2647133024
 30
0.0
 10
23.9847472316
 20
55.2760281127
 30
0.0
 10
24.0789790756
 20
55.2912930618
 30
0.0
 10
24.1740388776
 20
55.2961055117
 30
0.0
 10
24.2253626337
 20
55.2961055063
 30
0.0
  0
SPLINE
  5
2FB
100
AcDbEntity
  8
0
100
AcDbSpline
 62
7
  6
BYLAYER
 70
0
 71
3
 72
11
 73
7
 74
0
 42
0.0000001
 43
0.0000001
 44
0.0000000001
 40
0.0
 40
0.0
 40
0.0
 40
0.0
 40
0.248525034
 40
0.5001079411
 40
0.7514726947
 40
1.0
 40
1.0
 40
1.0
 40
1.0
 10
21.4822395541
 20
51.542880509
 30
0.0
 10
21.480700939
 20
51.5173004013
 30
0.0
 10
21.4867591397
 20
51.4645811058
 30
0.0
 10
21.5284415432
 20
51.3958902157
 30
0.0
 10
21.5971774341
 20
51.3544095294
 30
0.0
 10
21.6498438955
 20
51.3481647174
 30
0.0
 10
21.6754247173
 20
51.3496953413
 30
0.0
  0
SPLINE
  5
2FC
100
AcDbEntity
  8
0
100
AcDbSpline
 62
7
  6
BYLAYER
 70
0
 71
3
 72
9
 73
5
 74
0
 42
0.0000001
 43
0.0000001
 44
0.0000000001
 40
0.0
 40
0.0
 40
0.0
 40
0.0
 40
0.4931014449
 40
1.0
 40
1.0
 40
1.0
 40
1.0
 10
23.9648426538
 20
51.3496952538
 30
0.0
 10
24.0075405972
 20
51.3462408021
 30
0.0
 10
24.0944782723
 20
51.3442838253
 30
0.0
 10
24.1813264377
 20
51.3438343366
 30
0.0
 10
24.2253624967
 20
51.3438327628
 30
0.0
  0
SPLINE
  5
2FD
100
AcDbEntity
  8
0
100
AcDbSpline
 62
7
  6
BYLAYER
 70
0
 71
3
 72
11
 73
7
 74
0
 42
0.0000001
 43
0.0000001
 44
0.0000000001
 40
0.0
 40
0.0
 40
0.0
 40
0.0
 40
0.2739525415
 40
0.5400957417
 40
0.784256349
 40
1.0
 40
1.0
 40
1.0
 40
1.0
 10
24.0839411517
 20
51.5484230022
 30
0.0
 10
24.0808877723
 20
51.5256323423
 30
0.0
 10
24.0693542473
 20
51.4812638663
 30
0.0
 10
24.0378655359
 20
51.4227037715
 30
0.0
 10
23.995444486
 20
51.3778372554
 30
0.0
 10
23.9600875424
 20
51.3596298173
 30
0.0
 10
23.9425197096
 20
51.355237858
 30
0.0
  0
SPLINE
  5
2FE
100
AcDbEntity
  8
0
100
AcDbSpline
 62
7
  6
BYLAYER
 70
0
 71
3
 72
10
 73
6
 74
0
 42
0.0000001
 43
0.0000001
 44
0.0000000001
 40
0.0
 40
0.0
 40
0.0
 40
0.0
 40
0.4562278584
 40
0.7244302928
 40
1.0
 40
1.0
 40
1.0
 40
1.0
 10
23.2596770574
 20
51.5382049952
 30
0.0
 10
23.2965789679
 20
51.547430471
 30
0.0
 10
23.3474215305
 20
51.590552001
 30
0.0
 10
23.386306695
 20
51.6641463101
 30
0.0
 10
23.3980475664
 20
51.7086182287
 30
0.0
 10
23.4010984272
 20
51.7313901638
 30
0.0
  0
SPLINE
  5
2FF
100
AcDbEntity
  8
0
100
AcDbSpline
 62
7
  6
BYLAYER
 70
0
 71
3
 72
11
 73
7
 74
0
 42
0.0000001
 43
0.0000001
 44
0.0000000001
 40
0.0
 40
0.0
 40
0.0
 40
0.0
 40
0.2479915066
 40
0.5
 40
0.7520084934
 40
1.0
 40
1.0
 40
1.0
 40
1.0
 10
21.6707492087
 20
51.7313901635
 30
0.0
 10
21.6723843457
 20
51.7069805057
 30
0.0
 10
21.6851326371
 20
51.6579885348
 30
0.0
 10
21.728593088
 20
51.5960488774
 30
0.0
 10
21.7905327454
 20
51.5525884265
 30
0.0
 10
21.8395247164
 20
51.5398401352
 30
0.0
 10
21.8639343741
 20
51.5382049982
 30
0.0
  0
SPLINE
  5
300
100
AcDbEntity
  8
0
100
AcDbSpline
 62
7
  6
BYLAYER
 70
0
 71
3
 72
11
 73
7
 74
0
 42
0.0000001
 43
0.0000001
 44
0.0000000001
 40
0.0
 40
0.0
 40
0.0
 40
0.0
 40
0.2479915066
 40
0.5
 40
0.7520084934
 40
1.0
 40
1.0
 40
1.0
 40
1.0
 10
21.8639343739
 20
55.0817461492
 30
0.0
 10
21.8395247162
 20
55.0801110122
 30
0.0
 10
21.7905327453
 20
55.0673627208
 30
0.0
 10
21.7285930879
 20
55.02390227
 30
0.0
 10
21.685132637
 20
54.9619626126
 30
0.0
 10
21.6723843457
 20
54.9129706417
 30
0.0
 10
21.6707492086
 20
54.888560984
 30
0.0
  0
SPLINE
  5
301
100
AcDbEntity
  8
0
100
AcDbSpline
 62
7
  6
BYLAYER
 70
0
 71
3
 72
10
 73
6
 74
0
 42
0.0000001
 43
0.0000001
 44
0.0000000001
 40
0.0
 40
0.0
 40
0.0
 40
0.0
 40
0.2755697037
 40
0.5437721354
 40
1.0
 40
1.0
 40
1.0
 40
1.0
 10
23.4010984272
 20
54.8885609837
 30
0.0
 10
23.3980475666
 20
54.9113329173
 30
0.0
 10
23.3863066965
 20
54.9558048332
 30
0.0
 10
23.347421535
 20
55.0293991384
 30
0.0
 10
23.2965789795
 20
55.0725206716
 30
0.0
 10
23.259677071
 20
55.0817461489
 30
0.0
  0
SPLINE
  5
302
100
AcDbEntity
  8
0
100
AcDbSpline
 62
7
  6
BYLAYER
 70
0
 71
3
 72
11
 73
7
 74
0
 42
0.0000001
 43
0.0000001
 44
0.0000000001
 40
0.0
 40
0.0
 40
0.0
 40
0.0
 40
0.2157436181
 40
0.4599042072
 40
0.7260474184
 40
1.0
 40
1.0
 40
1.0
 40
1.0
 10
23.9425197862
 20
55.264713303
 30
0.0
 10
23.9600876148
 20
55.2603213458
 30
0.0
 10
23.9954445504
 20
55.2421139074
 30
0.0
 10
24.0378655802
 20
55.1972473847
 30
0.0
 10
24.0693542662
 20
55.1386872805
 30
0.0
 10
24.0808877717
 20
55.0943187997
 30
0.0
 10
24.0839411414
 20
55.0715281375
 30
0.0
  0
SPLINE
  5
303
100
AcDbEntity
  8
0
100
AcDbSpline
 62
7
  6
BYLAYER
 70
0
 71
3
 72
11
 73
7
 74
0
 42
0.0000001
 43
0.0000001
 44
0.0000000001
 40
0.0
 40
0.0
 40
0.0
 40
0.0
 40
0.2739525372
 40
0.5400957362
 40
0.7842563455
 40
1.0
 40
1.0
 40
1.0
 40
1.0
 10
24.8010984152
 20
55.0715281358
 30
0.0
 10
24.8041517937
 20
55.0943187951
 30
0.0
 10
24.8156853168
 20
55.1386872703
 30
0.0
 10
24.8471740248
 20
55.1972473652
 30
0.0
 10
24.8895950712
 20
55.2421138834
 30
0.0
 10
24.9249520127
 20
55.2603213247
 30
0.0
 10
24.9425198449
 20
55.2647132862
 30
0.0
  0
SPLINE
  5
304
100
AcDbEntity
  8
0
100
AcDbSpline
 62
7
  6
BYLAYER
 70
0
 71
3
 72
10
 73
6
 74
0
 42
0.0000001
 43
0.0000001
 44
0.0000000001
 40
0.0
 40
0.0
 40
0.0
 40
0.0
 40
0.4562278647
 40
0.7244302968
 40
1.0
 40
1.0
 40
1.0
 40
1.0
 10
25.6253624972
 20
55.0817461489
 30
0.0
 10
25.5884605872
 20
55.0725206714
 30
0.0
 10
25.5376180301
 20
55.0293991355
 30
0.0
 10
25.498732869
 20
54.9558048266
 30
0.0
 10
25.4869920001
 20
54.9113329087
 30
0.0
 10
25.4839411397
 20
54.8885609742
 30
0.0
  0
SPLINE
  5
305
100
AcDbEntity
  8
0
100
AcDbSpline
 62
7
  6
BYLAYER
 70
0
 71
3
 72
9
 73
5
 74
0
 42
0.0000001
 43
0.0000001
 44
0.0000000001
 40
0.0
 40
0.0
 40
0.0
 40
0.0
 40
0.2518916652
 40
1.0
 40
1.0
 40
1.0
 40
1.0
 10
27.0754229507
 20
55.0703498057
 30
0.0
 10
27.0710285529
 20
55.0719256611
 30
0.0
 10
27.0533764974
 20
55.0775883587
 30
0.0
 10
27.0349391842
 20
55.0808194473
 30
0.0
 10
27.0211051939
 20
55.0817461489
 30
0.0
  0
SPLINE
  5
306
100
AcDbEntity
  8
0
100
AcDbSpline
 62
7
  6
BYLAYER
 70
0
 71
3
 72
9
 73
5
 74
0
 42
0.0000001
 43
0.0000001
 44
0.0000000001
 40
0.0
 40
0.0
 40
0.0
 40
0.0
 40
0.4974445308
 40
1.0
 40
1.0
 40
1.0
 40
1.0
 10
27.2142903591
 20
54.8885609837
 30
0.0
 10
27.2116470139
 20
54.9280213771
 30
0.0
 10
27.1812830462
 20
55.0070942188
 30
0.0
 10
27.1130329526
 20
55.0568626511
 30
0.0
 10
27.0754229507
 20
55.0703498057
 30
0.0
  0
SPLINE
  5
307
100
AcDbEntity
  8
0
100
AcDbSpline
 62
7
  6
BYLAYER
 70
0
 71
3
 72
11
 73
7
 74
0
 42
0.0000001
 43
0.0000001
 44
0.0000000001
 40
0.0
 40
0.0
 40
0.0
 40
0.0
 40
0.2500721889
 40
0.5000332331
 40
0.7499632941
 40
1.0
 40
1.0
 40
1.0
 40
1.0
 10
27.2096148519
 20
51.1565101761
 30
0.0
 10
27.2600163693
 20
51.1565101761
 30
0.0
 10
27.3618476939
 20
51.1757791174
 30
0.0
 10
27.4919076534
 20
51.260607815
 30
0.0
 10
27.5767034028
 20
51.3906725257
 30
0.0
 10
27.59598518
 20
51.4924861394
 30
0.0
 10
27.595985181
 20
51.5428805053
 30
0.0
  0
SPLINE
  5
308
100
AcDbEntity
  8
0
100
AcDbSpline
 62
7
  6
BYLAYER
 70
0
 71
3
 72
11
 73
7
 74
0
 42
0.0000001
 43
0.0000001
 44
0.0000000001
 40
0.0
 40
0.0
 40
0.0
 40
0.0
 40
0.2487454229
 40
0.5003496681
 40
0.751687737
 40
1.0
 40
1.0
 40
1.0
 40
1.0
 10
27.209614851
 20
51.3496953413
 30
0.0
 10
27.2352208572
 20
51.3482097137
 30
0.0
 10
27.287927325
 20
51.3544055109
 30
0.0
 10
27.3566918595
 20
51.3959511936
 30
0.0
 10
27.3982464081
 20
51.4646575511
 30
0.0
 10
27.4043844414
 20
51.5173251741
 30
0.0
 10
27.4028000163
 20
51.5428805066
 30
0.0
  0
SPLINE
  5
309
100
AcDbEntity
  8
0
100
AcDbSpline
 62
7
  6
BYLAYER
 70
0
 71
3
 72
9
 73
5
 74
0
 42
0.0000001
 43
0.0000001
 44
0.0000000001
 40
0.0
 40
0.0
 40
0.0
 40
0.0
 40
0.5068984416
 40
1.0
 40
1.0
 40
1.0
 40
1.0
 10
24.6596769603
 20
51.3438328343
 30
0.0
 10
24.703713153
 20
51.3438340314
 30
0.0
 10
24.7905615953
 20
51.3442835099
 30
0.0
 10
24.8774995816
 20
51.346240451
 30
0.0
 10
24.9201976394
 20
51.3496953418
 30
0.0
  0
SPLINE
  5
30A
100
AcDbEntity
  8
0
100
AcDbSpline
 62
7
  6
BYLAYER
 70
0
 71
3
 72
11
 73
7
 74
0
 42
0.0000001
 43
0.0000001
 44
0.0000000001
 40
0.0
 40
0.0
 40
0.0
 40
0.0
 40
0.2157436188
 40
0.459904208
 40
0.726047419
 40
1.0
 40
1.0
 40
1.0
 40
1.0
 10
24.9425197842
 20
51.3552378451
 30
0.0
 10
24.9249519555
 20
51.3596298023
 30
0.0
 10
24.8895950197
 20
51.3778372405
 30
0.0
 10
24.8471739895
 20
51.4227037632
 30
0.0
 10
24.8156853032
 20
51.4812638673
 30
0.0
 10
24.8041517976
 20
51.5256323482
 30
0.0
 10
24.8010984279
 20
51.5484230103
 30
0.0
  0
SPLINE
  5
30B
100
AcDbEntity
  8
0
100
AcDbSpline
 62
7
  6
BYLAYER
 70
0
 71
3
 72
9
 73
5
 74
0
 42
0.0000001
 43
0.0000001
 44
0.0000000001
 40
0.0
 40
0.0
 40
0.0
 40
0.0
 40
0.5368088735
 40
1.0
 40
1.0
 40
1.0
 40
1.0
 10
24.6596770716
 20
51.5170308064
 30
0.0
 10
24.6857772904
 20
51.5170759782
 30
0.0
 10
24.7344625131
 20
51.5222465949
 30
0.0
 10
24.7812772065
 20
51.5377314629
 30
0.0
 10
24.8010984279
 20
51.5484230103
 30
0.0
  0
SPLINE
  5
30C
100
AcDbEntity
  8
0
100
AcDbSpline
 62
7
  6
BYLAYER
 70
0
 71
3
 72
9
 73
5
 74
0
 42
0.0000001
 43
0.0000001
 44
0.0000000001
 40
0.0
 40
0.0
 40
0.0
 40
0.0
 40
0.4631819246
 40
1.0
 40
1.0
 40
1.0
 40
1.0
 10
24.8010984279
 20
55.0715281125
 30
0.0
 10
24.7812718452
 20
55.0822062693
 30
0.0
 10
24.7344514661
 20
55.0976481311
 30
0.0
 10
24.6857763614
 20
55.1028744308
 30
0.0
 10
24.6596770716
 20
55.1029203385
 30
0.0
  0
SPLINE
  5
30D
100
AcDbEntity
  8
0
100
AcDbSpline
 62
7
  6
BYLAYER
 70
0
 71
3
 72
10
 73
6
 74
0
 42
0.0000001
 43
0.0000001
 44
0.0000000001
 40
0.0
 40
0.0
 40
0.0
 40
0.0
 40
0.2755697037
 40
0.5437721354
 40
1.0
 40
1.0
 40
1.0
 40
1.0
 10
25.483941141
 20
51.7313901639
 30
0.0
 10
25.4869920016
 20
51.7086182302
 30
0.0
 10
25.4987328717
 20
51.6641463143
 30
0.0
 10
25.5376180331
 20
51.5905520092
 30
0.0
 10
25.5884605886
 20
51.5474304757
 30
0.0
 10
25.6253624972
 20
51.5382049986
 30
0.0
  0
SPLINE
  5
30E
100
AcDbEntity
  8
0
100
AcDbSpline
 62
7
  6
BYLAYER
 70
0
 71
3
 72
9
 73
5
 74
0
 42
0.0000001
 43
0.0000001
 44
0.0000000001
 40
0.0
 40
0.0
 40
0.0
 40
0.0
 40
0.4974445308
 40
1.0
 40
1.0
 40
1.0
 40
1.0
 10
27.0211051938
 20
51.5382049985
 30
0.0
 10
27.0605655872
 20
51.5408483436
 30
0.0
 10
27.1396384289
 20
51.5712123113
 30
0.0
 10
27.1894068612
 20
51.639462405
 30
0.0
 10
27.2028940159
 20
51.6770724069
 30
0.0
  0
SPLINE
  5
30F
100
AcDbEntity
  8
0
100
AcDbSpline
 62
7
  6
BYLAYER
 70
0
 71
3
 72
9
 73
5
 74
0
 42
0.0000001
 43
0.0000001
 44
0.0000000001
 40
0.0
 40
0.0
 40
0.0
 40
0.0
 40
0.2518916652
 40
1.0
 40
1.0
 40
1.0
 40
1.0
 10
27.2028940159
 20
51.6770724069
 30
0.0
 10
27.2044698712
 20
51.6814668047
 30
0.0
 10
27.2101325688
 20
51.6991188603
 30
0.0
 10
27.2133636574
 20
51.7175561735
 30
0.0
 10
27.2142903591
 20
51.7313901638
 30
0.0
  0
SPLINE
  5
310
100
AcDbEntity
  8
0
100
AcDbSpline
 62
7
  6
BYLAYER
 70
0
 71
3
 72
9
 73
5
 74
0
 42
0.0000001
 43
0.0000001
 44
0.0000000001
 40
0.0
 40
0.0
 40
0.0
 40
0.0
 40
0.4631925503
 40
1.0
 40
1.0
 40
1.0
 40
1.0
 10
24.0839411403
 20
51.5484230349
 30
0.0
 10
24.1037629433
 20
51.5377323624
 30
0.0
 10
24.1505764942
 20
51.5222455794
 30
0.0
 10
24.1992623124
 20
51.5170737994
 30
0.0
 10
24.2253624972
 20
51.5170308097
 30
0.0
  0
SPLINE
  5
311
100
AcDbEntity
  8
0
100
AcDbSpline
 62
7
  6
BYLAYER
 70
0
 71
3
 72
9
 73
5
 74
0
 42
0.0000001
 43
0.0000001
 44
0.0000000001
 40
0.0
 40
0.0
 40
0.0
 40
0.0
 40
0.5368190097
 40
1.0
 40
1.0
 40
1.0
 40
1.0
 10
24.2253624972
 20
55.1029203404
 30
0.0
 10
24.1992631856
 20
55.1028730026
 30
0.0
 10
24.1505884757
 20
55.0976474538
 30
0.0
 10
24.1037673385
 20
55.0822068732
 30
0.0
 10
24.0839411403
 20
55.0715281367
 30
0.0
  0
SPLINE
  5
312
100
AcDbEntity
  8
0
100
AcDbSpline
 62
7
  6
BYLAYER
 70
0
 71
3
 72
11
 73
7
 74
0
 42
0.0000001
 43
0.0000001
 44
0.0000000001
 40
0.0
 40
0.0
 40
0.0
 40
0.0
 40
0.2500570264
 40
0.5000058582
 40
0.7499491612
 40
1.0
 40
1.0
 40
1.0
 40
1.0
 10
21.289054354
 20
51.5428805483
 30
0.0
 10
21.2890544991
 20
51.4924820976
 30
0.0
 10
21.3083349977
 20
51.3906594074
 30
0.0
 10
21.3931444245
 20
51.2605960304
 30
0.0
 10
21.5232051749
 20
51.1757800113
 30
0.0
 10
21.6250275132
 20
51.1565101764
 30
0.0
 10
21.6754247168
 20
51.1565101761
 30
0.0
  0
SPLINE
  5
313
100
AcDbEntity
  8
0
100
AcDbSpline
 62
7
  6
BYLAYER
 70
0
 71
3
 72
23
 73
19
 74
0
 42
0.0000001
 43
0.0000001
 44
0.0000000001
 40
0.0
 40
0.0
 40
0.0
 40
0.0
 40
0.0632701036
 40
0.1216275286
 40
0.1718147095
 40
0.1921629393
 40
0.2085871587
 40
0.2234847255
 40
0.2412723156
 40
0.2628855159
 40
0.2875538234
 40
0.3438233006
 40
0.4062551069
 40
0.4730242628
 40
0.5428374798
 40
0.6886903591
 40
0.8414823328
 40
1.0
 40
1.0
 40
1.0
 40
1.0
 10
21.3570383192
 20
55.3099755737
 30
0.0
 10
21.3631787433
 20
55.3099755737
 30
0.0
 10
21.3749969786
 20
55.3097000259
 30
0.0
 10
21.3915790012
 20
55.3081825491
 30
0.0
 10
21.4039707233
 20
55.3055545226
 30
0.0
 10
21.4115413509
 20
55.3018140724
 30
0.0
 10
21.415375997
 20
55.2982009196
 30
0.0
 10
21.416017559
 20
55.2931511208
 30
0.0
 10
21.4139579103
 20
55.2881854887
 30
0.0
 10
21.4105560439
 20
55.282980057
 30
0.0
 10
21.4042067835
 20
55.275291447
 30
0.0
 10
21.3944520588
 20
55.2653594541
 30
0.0
 10
21.3816367121
 20
55.2527217766
 30
0.0
 10
21.3676873988
 20
55.2393606492
 30
0.0
 10
21.3482763472
 20
55.2200065097
 30
0.0
 10
21.3248085799
 20
55.1928987816
 30
0.0
 10
21.3021071395
 20
55.1542717852
 30
0.0
 10
21.2939172041
 20
55.1249469395
 30
0.0
 10
21.2903767734
 20
55.1099755745
 30
0.0
  0
SPLINE
  5
314
100
AcDbEntity
  8
0
100
AcDbSpline
 62
7
  6
BYLAYER
 70
0
 71
3
 72
13
 73
9
 74
0
 42
0.0000001
 43
0.0000001
 44
0.0000000001
 40
0.0
 40
0.0
 40
0.0
 40
0.0
 40
0.183726248
 40
0.3495516223
 40
0.6269080488
 40
0.7423648789
 40
0.8417961542
 40
1.0
 40
1.0
 40
1.0
 40
1.0
 10
21.4819093413
 20
55.0945145076
 30
0.0
 10
21.4820949897
 20
55.1078610161
 30
0.0
 10
21.4839637262
 20
55.1332293658
 30
0.0
 10
21.490036028
 20
55.178381842
 30
0.0
 10
21.4982509984
 20
55.2181645795
 30
0.0
 10
21.5063579712
 20
55.2529923312
 30
0.0
 10
21.5116216589
 20
55.2795918058
 30
0.0
 10
21.5116087256
 20
55.2986194394
 30
0.0
 10
21.5098545978
 20
55.3099783799
 30
0.0
  0
SPLINE
  5
315
100
AcDbEntity
  8
0
100
AcDbSpline
 62
7
  6
BYLAYER
 70
0
 71
3
 72
11
 73
7
 74
0
 42
0.0000001
 43
0.0000001
 44
0.0000000001
 40
0.0
 40
0.0
 40
0.0
 40
0.0
 40
0.3304997476
 40
0.6015632673
 40
0.8182007263
 40
1.0
 40
1.0
 40
1.0
 40
1.0
 10
56.8838756168
 20
55.1667895605
 30
0.0
 10
56.8931604734
 20
55.163513306
 30
0.0
 10
56.9097390356
 20
55.1564693451
 30
0.0
 10
56.9301726971
 20
55.1428792255
 30
0.0
 10
56.943546354
 20
55.1275425195
 30
0.0
 10
56.9466207855
 20
55.1153804293
 30
0.0
 10
56.9462744673
 20
55.1099755223
 30
0.0
  0
SPLINE
  5
316
100
AcDbEntity
  8
0
100
AcDbSpline
 62
7
  6
BYLAYER
 70
0
 71
3
 72
9
 73
5
 74
0
 42
0.0000001
 43
0.0000001
 44
0.0000000001
 40
0.0
 40
0.0
 40
0.0
 40
0.0
 40
0.493159746
 40
1.0
 40
1.0
 40
1.0
 40
1.0
 10
23.9648419282
 20
36.27025581
 30
0.0
 10
24.0075424015
 20
36.2737454926
 30
0.0
 10
24.0944828973
 20
36.2757489334
 30
0.0
 10
24.1813312625
 20
36.2760511837
 30
0.0
 10
24.2253625149
 20
36.2761254124
 30
0.0
  0
SPLINE
  5
317
100
AcDbEntity
  8
0
100
AcDbSpline
 62
7
  6
BYLAYER
 70
0
 71
3
 72
11
 73
7
 74
0
 42
0.0000001
 43
0.0000001
 44
0.0000000001
 40
0.0
 40
0.0
 40
0.0
 40
0.0
 40
0.2852164748
 40
0.5471951848
 40
0.7825210555
 40
1.0
 40
1.0
 40
1.0
 40
1.0
 10
56.8844662528
 20
55.1670486314
 30
0.0
 10
56.8801918758
 20
55.1867226466
 30
0.0
 10
56.8672674818
 20
55.2236384509
 30
0.0
 10
56.8355537401
 20
55.2698065865
 30
0.0
 10
56.7940877225
 20
55.3005082055
 30
0.0
 10
56.7617090079
 20
55.3077558049
 30
0.0
 10
56.7463585532
 20
55.3075766368
 30
0.0
  0
SPLINE
  5
318
100
AcDbEntity
  8
0
100
AcDbSpline
 62
7
  6
BYLAYER
 70
0
 71
3
 72
11
 73
7
 74
0
 42
0.0000001
 43
0.0000001
 44
0.0000000001
 40
0.0
 40
0.0
 40
0.0
 40
0.0
 40
0.2479915066
 40
0.5
 40
0.7520084934
 40
1.0
 40
1.0
 40
1.0
 40
1.0
 10
27.0211051939
 20
32.5382049985
 30
0.0
 10
27.0455148516
 20
32.5398401355
 30
0.0
 10
27.0945068225
 20
32.5525884269
 30
0.0
 10
27.1564464799
 20
32.5960488778
 30
0.0
 10
27.1999069308
 20
32.6579885352
 30
0.0
 10
27.2126552221
 20
32.7069805061
 30
0.0
 10
27.2142903591
 20
32.7313901638
 30
0.0
  0
SPLINE
  5
319
100
AcDbEntity
  8
0
100
AcDbSpline
 62
7
  6
BYLAYER
 70
0
 71
3
 72
9
 73
5
 74
0
 42
0.0000001
 43
0.0000001
 44
0.0000000001
 40
0.0
 40
0.0
 40
0.0
 40
0.0
 40
0.4974445308
 40
1.0
 40
1.0
 40
1.0
 40
1.0
 10
21.8639343742
 20
36.0817461491
 30
0.0
 10
21.8244739808
 20
36.0791028039
 30
0.0
 10
21.7454011391
 20
36.0487388362
 30
0.0
 10
21.6956327068
 20
35.9804887426
 30
0.0
 10
21.6821455522
 20
35.9428787408
 30
0.0
  0
SPLINE
  5
31A
100
AcDbEntity
  8
0
100
AcDbSpline
 62
7
  6
BYLAYER
 70
0
 71
3
 72
9
 73
5
 74
0
 42
0.0000001
 43
0.0000001
 44
0.0000000001
 40
0.0
 40
0.0
 40
0.0
 40
0.0
 40
0.2518916652
 40
1.0
 40
1.0
 40
1.0
 40
1.0
 10
21.6821455522
 20
35.9428787408
 30
0.0
 10
21.6805696968
 20
35.9384843429
 30
0.0
 10
21.6749069992
 20
35.9208322873
 30
0.0
 10
21.6716759106
 20
35.902394974
 30
0.0
 10
21.6707492089
 20
35.8885609837
 30
0.0
  0
SPLINE
  5
31B
100
AcDbEntity
  8
0
100
AcDbSpline
 62
7
  6
BYLAYER
 70
0
 71
3
 72
11
 73
7
 74
0
 42
0.0000001
 43
0.0000001
 44
0.0000000001
 40
0.0
 40
0.0
 40
0.0
 40
0.0
 40
0.2479915066
 40
0.5
 40
0.7520084934
 40
1.0
 40
1.0
 40
1.0
 40
1.0
 10
21.6707492087
 20
32.7313901635
 30
0.0
 10
21.6723843457
 20
32.7069805057
 30
0.0
 10
21.6851326371
 20
32.6579885348
 30
0.0
 10
21.728593088
 20
32.5960488774
 30
0.0
 10
21.7905327454
 20
32.5525884265
 30
0.0
 10
21.8395247164
 20
32.5398401352
 30
0.0
 10
21.8639343741
 20
32.5382049982
 30
0.0
  0
SPLINE
  5
31C
100
AcDbEntity
  8
0
100
AcDbSpline
 62
7
  6
BYLAYER
 70
0
 71
3
 72
9
 73
5
 74
0
 42
0.0000001
 43
0.0000001
 44
0.0000000001
 40
0.0
 40
0.0
 40
0.0
 40
0.0
 40
0.4632018329
 40
1.0
 40
1.0
 40
1.0
 40
1.0
 10
24.0839411403
 20
36.0715280738
 30
0.0
 10
24.1037683569
 20
36.0822096022
 30
0.0
 10
24.1505743845
 20
36.0977024249
 30
0.0
 10
24.1992627693
 20
36.1028941174
 30
0.0
 10
24.2253624965
 20
36.1029203475
 30
0.0
  0
SPLINE
  5
31D
100
AcDbEntity
  8
0
100
AcDbSpline
 62
7
  6
BYLAYER
 70
0
 71
3
 72
11
 73
7
 74
0
 42
0.0000001
 43
0.0000001
 44
0.0000000001
 40
0.0
 40
0.0
 40
0.0
 40
0.0
 40
0.2157435568
 40
0.4599041326
 40
0.7260473711
 40
1.0
 40
1.0
 40
1.0
 40
1.0
 10
23.9425201253
 20
36.264713394
 30
0.0
 10
23.9600879485
 20
36.2603214387
 30
0.0
 10
23.9954448758
 20
36.2421139991
 30
0.0
 10
24.0378658951
 20
36.1972474754
 30
0.0
 10
24.0693545801
 20
36.1386873678
 30
0.0
 10
24.0808880909
 20
36.0943188839
 30
0.0
 10
24.083941465
 20
36.071528219
 30
0.0
  0
SPLINE
  5
31E
100
AcDbEntity
  8
0
100
AcDbSpline
 62
7
  6
BYLAYER
 70
0
 71
3
 72
10
 73
6
 74
0
 42
0.0000001
 43
0.0000001
 44
0.0000000001
 40
0.0
 40
0.0
 40
0.0
 40
0.0
 40
0.2755697036
 40
0.5437721353
 40
1.0
 40
1.0
 40
1.0
 40
1.0
 10
23.4010984276
 20
35.8885609839
 30
0.0
 10
23.398047567
 20
35.9113329175
 30
0.0
 10
23.3863066969
 20
35.9558048334
 30
0.0
 10
23.3474215354
 20
36.0293991384
 30
0.0
 10
23.29657898
 20
36.0725206721
 30
0.0
 10
23.2596770713
 20
36.0817461491
 30
0.0
  0
SPLINE
  5
31F
100
AcDbEntity
  8
0
100
AcDbSpline
 62
7
  6
BYLAYER
 70
0
 71
3
 72
10
 73
6
 74
0
 42
0.0000001
 43
0.0000001
 44
0.0000000001
 40
0.0
 40
0.0
 40
0.0
 40
0.0
 40
0.2755696955
 40
0.5437721215
 40
1.0
 40
1.0
 40
1.0
 40
1.0
 10
25.4839411406
 20
32.7313901637
 30
0.0
 10
25.4869920007
 20
32.7086182336
 30
0.0
 10
25.4987328678
 20
32.6641463238
 30
0.0
 10
25.537618022
 20
32.5905520279
 30
0.0
 10
25.5884605614
 20
32.5474304876
 30
0.0
 10
25.6253624653
 20
32.5382050063
 30
0.0
  0
ENDSEC
  0
SECTION
  2
OBJECTS
  0
DICTIONARY
  5
C
100
AcDbDictionary
280
0
281
1
  3
ACAD_GROUP
350
D
  3
ACAD_MLINESTYLE
350
17
  3
ACAD_LAYOUT
350
1A
  3
ACAD_PLOTSETTINGS
350
19
  3
ACAD_PLOTSTYLENAME
350
E
  0
DICTIONARY
  5
D
102
{ACAD_REACTORS
330
C
102
}
100
AcDbDictionary
280
0
281
1
  0
ACDBDICTIONARYWDFLT
  5
E
102
{ACAD_REACTORS
330
C
102
}
100
AcDbDictionary
281
1
  3
Normal
350
F
100
AcDbDictionaryWithDefault
340
F
  0
DICTIONARY
  5
17
102
{ACAD_REACTORS
330
C
102
}
100
AcDbDictionary
280
0
281
1
  3
Standard
350
18
  0
DICTIONARY
  5
19
102
{ACAD_REACTORS
330
C
102
}
100
AcDbDictionary
281
1
  0
DICTIONARY
  5
1A
102
{ACAD_REACTORS
330
C
102
}
100
AcDbDictionary
281
1
  3
Model
350
320
  3
Layout1
350
321
  0
ACDBPLACEHOLDER
  5
F
102
{ACAD_REACTORS
330
E
102
}
  0
MLINESTYLE
  5
18
102
{ACAD_REACTORS
330
17
102
}
100
AcDbMlineStyle
  2
STANDARD
 70
0
  3

 62
256
 51
90.0
 52
90.0
 71
2
 49
0.5
 62
256
  6
BYLAYER
 49
-0.5
 62
256
  6
BYLAYER
  0
LAYOUT
  5
320
102
{ACAD_REACTORS
330
1A
102
}
100
AcDbPlotSettings
  1

  2
none_device
  4

  6

 40
0.0
 41
0.0
 42
0.0
 43
0.0
 44
210.0
 45
297.0
 46
0.0
 47
0.0
 48
0.0
 49
0.0
140
0.0
141
0.0
142
1.0
143
1.0
 70
1024
 72
1
 73
0
 74
0
  7

 75
0
147
1.0
148
0.0
149
0.0
100
AcDbLayout
  1
Model
 70
0
 71
0
 10
0.0
 20
0.0
 11
210.0
 21
297.0
 12
0.0
 22
0.0
 32
0.0
 14
0.0
 24
0.0
 34
0.0
 15
0.0
 25
0.0
 35
0.0
146
0.0
 13
0.0
 23
0.0
 33
0.0
 16
1.0
 26
0.0
 36
0.0
 17
0.0
 27
1.0
 37
0.0
 76
0
330
210
345
0
346
0
  0
LAYOUT
  5
321
102
{ACAD_REACTORS
330
1A
102
}
100
AcDbPlotSettings
  1

  2
none_device
  4

  6

 40
0.0
 41
0.0
 42
0.0
 43
0.0
 44
210.0
 45
297.0
 46
0.0
 47
0.0
 48
0.0
 49
0.0
140
0.0
141
0.0
142
1.0
143
1.0
 70
0
 72
1
 73
0
 74
0
  7

 75
0
147
1.0
148
0.0
149
0.0
100
AcDbLayout
  1
Layout1
 70
0
 71
1
 10
0.0
 20
0.0
 11
210.0
 21
297.0
 12
0.0
 22
0.0
 32
0.0
 14
0.0
 24
0.0
 34
0.0
 15
0.0
 25
0.0
 35
0.0
146
0.0
 13
0.0
 23
0.0
 33
0.0
 16
1.0
 26
0.0
 36
0.0
 17
0.0
 27
1.0
 37
0.0
 76
0
330
211
345
0
346
0
  0
ENDSEC
  0
EOF
