999
DXF file: C:\Users\sesa63760\Dev\_Creo\CAD\MCADID0003823_3D-CAD\drw0001_1.dxf
999
Pro/ENGINEER 2019471 by Parametric Technology Corporation
  0
SECTION
  2
HEADER
  9
$ACADVER
  1
AC1024
  9
$DWGCODEPAGE
  3
ANSI_1252
  9
$EXTMAX
 10
43.4259232226
 20
61.4166628434
 30
0.0
  9
$EXTMIN
 10
0.0
 20
0.0
 30
0.0
  9
$LIMMIN
 10
0.0
 20
0.0
  9
$LIMMAX
 10
43.4259232226
 20
61.4166628434
  9
$VIEWCTR
 10
21.7129616113
 20
30.7083314217
  9
$VIEWSIZE
 40
61.4166628434
  9
$CLAYER
  8
0
  9
$LTSCALE
 40
4.0034565409
  9
$CELTYPE
  6
BYLAYER
  9
$DIMSCALE
 40
1.0
  9
$DIMASZ
 40
0.5169752765
  9
$DIMEXO
 40
1.0
  9
$DIMDLI
 40
2.7660245192
  9
$DIMEXE
 40
1.0
  9
$DIMCEN
 40
0.6551110703
  9
$DIMLFAC
 40
1.0
  9
$DIMBLK
  1
_FILLED
  9
$DIMALT
 70
0
  9
$DIMALTF
 40
0.0393700787
  9
$DIMTXT
 40
0.723765387
  9
$DIMTOL
 70
1
  9
$DIMLIM
 70
0
  9
$DIMTFAC
 40
1.0
  9
$DIMTP
 40
0.01
  9
$DIMTM
 40
0.01
  9
$DIMGAP
 40
0.625
  9
$DIMDSEP
 70
46
  9
$AUNITS
 70
0
  9
$PDMODE
 70
3
  9
$PDSIZE
 40
0.3125
  9
$HANDSEED
  5
289
  9
$TILEMODE
 70
1
  9
$MEASUREMENT
 70
1
  9
$INSUNITS
 70
4
  0
ENDSEC
  0
SECTION
  2
CLASSES
  0
CLASS
  1
ACDBDICTIONARYWDFLT
  2
AcDbDictionaryWithDefault
  3
AutoCAD 2000
 90
0
 91
1
280
0
281
0
  0
CLASS
  1
ACDBPLACEHOLDER
  2
AcDbPlaceHolder
  3
AutoCAD 2000
 90
0
 91
1
280
0
281
0
  0
CLASS
  1
LAYOUT
  2
AcDbLayout
  3
AutoCAD 2000
 90
0
 91
0
280
0
281
0
  0
ENDSEC
  0
SECTION
  2
TABLES
  0
TABLE
  2
VPORT
  5
8
100
AcDbSymbolTable
 70
2
  0
VPORT
  5
1F4
100
AcDbSymbolTableRecord
100
AcDbViewportTableRecord
  2
*ACTIVE
 70
0
 10
0.0
 20
0.0
 11
1.0
 21
1.0
 12
21.7129616113
 22
30.7083314217
 13
0.0
 23
0.0
 14
1.0
 24
1.0
 15
0.0
 25
0.0
 16
0.0
 26
0.0
 36
1.0
 17
0.0
 27
0.0
 37
0.0
 40
61.4166628434
 41
0.7070707071
 42
50.0
 43
0.0
 44
0.0
 50
0.0
 51
0.0
 71
0
 72
100
 73
1
 74
1
 75
0
 76
0
 77
0
 78
0
  0
ENDTAB
  0
TABLE
  2
LTYPE
  5
5
100
AcDbSymbolTable
 70
6
  0
LTYPE
  5
14
100
AcDbSymbolTableRecord
100
AcDbLinetypeTableRecord
  2
BYBLOCK
 70
0
  3

 72
65
 73
0
 40
0.0
  0
LTYPE
  5
15
100
AcDbSymbolTableRecord
100
AcDbLinetypeTableRecord
  2
BYLAYER
 70
0
  3

 72
65
 73
0
 40
0.0
  0
LTYPE
  5
16
100
AcDbSymbolTableRecord
100
AcDbLinetypeTableRecord
  2
CONTINUOUS
 70
64
  3
Solid line
 72
65
 73
0
 40
0.0
  0
LTYPE
  5
1F5
100
AcDbSymbolTableRecord
100
AcDbLinetypeTableRecord
  2
CENTER
 70
64
  3
____ _ ____ _ ____ _ ____ _ ____ _ ____ _ ____
 72
65
 73
4
 40
0.6
 49
0.375
 74
0
 49
-0.075
 74
0
 49
0.075
 74
0
 49
-0.075
 74
0
  0
LTYPE
  5
1F6
100
AcDbSymbolTableRecord
100
AcDbLinetypeTableRecord
  2
HIDDEN
 70
64
  3
- - - - - - - - - - - - - - - - - - - -
 72
65
 73
2
 40
0.2
 49
0.1
 74
0
 49
-0.1
 74
0
  0
LTYPE
  5
1F7
100
AcDbSymbolTableRecord
100
AcDbLinetypeTableRecord
  2
PHANTOM
 70
64
  3
_____ _ _ _____ _ _ _____ _ _ _____
 72
65
 73
6
 40
0.8
 49
0.45
 74
0
 49
-0.05
 74
0
 49
0.1
 74
0
 49
-0.05
 74
0
 49
0.1
 74
0
 49
-0.05
 74
0
  0
LTYPE
  5
1F8
100
AcDbSymbolTableRecord
100
AcDbLinetypeTableRecord
  2
DOT
 70
64
  3
. . . . . . . . . . . . . . . . . . . .
 72
65
 73
2
 40
0.2
 49
0.1
 74
0
 49
-0.1
 74
0
  0
LTYPE
  5
1F9
100
AcDbSymbolTableRecord
100
AcDbLinetypeTableRecord
  2
DASHED
 70
64
  3
- - - - - - - - - - - - - - - - - - - -
 72
65
 73
2
 40
0.2
 49
0.1
 74
0
 49
-0.1
 74
0
  0
ENDTAB
  0
TABLE
  2
LAYER
  5
2
100
AcDbSymbolTable
 70
36
  0
LAYER
  5
10
100
AcDbSymbolTableRecord
100
AcDbLayerTableRecord
  2
0
 70
0
 62
7
  6
CONTINUOUS
370
-3
390
F
  0
LAYER
  5
1FA
100
AcDbSymbolTableRecord
100
AcDbLayerTableRecord
  2
DEFAULT_1
 70
0
 62
7
  6
CENTER
370
-3
390
F
  0
LAYER
  5
1FB
100
AcDbSymbolTableRecord
100
AcDbLayerTableRecord
  2
DEFAULT_2
 70
0
 62
7
  6
HIDDEN
370
-3
390
F
  0
LAYER
  5
1FC
100
AcDbSymbolTableRecord
100
AcDbLayerTableRecord
  2
DEFAULT_3
 70
0
 62
7
  6
PHANTOM
370
-3
390
F
  0
LAYER
  5
1FD
100
AcDbSymbolTableRecord
100
AcDbLayerTableRecord
  2
00_COMPONENTS
 70
0
 62
7
  6
CONTINUOUS
370
-3
390
F
  0
LAYER
  5
1FE
100
AcDbSymbolTableRecord
100
AcDbLayerTableRecord
  2
01_1_DEFAULT_DATUMS
 70
0
 62
7
  6
CONTINUOUS
370
-3
390
F
  0
LAYER
  5
1FF
100
AcDbSymbolTableRecord
100
AcDbLayerTableRecord
  2
01_PLANES
 70
0
 62
7
  6
CONTINUOUS
370
-3
390
F
  0
LAYER
  5
200
100
AcDbSymbolTableRecord
100
AcDbLayerTableRecord
  2
02_COORD_SYS
 70
0
 62
7
  6
CONTINUOUS
370
-3
390
F
  0
LAYER
  5
201
100
AcDbSymbolTableRecord
100
AcDbLayerTableRecord
  2
03_AXES
 70
0
 62
7
  6
CONTINUOUS
370
-3
390
F
  0
LAYER
  5
202
100
AcDbSymbolTableRecord
100
AcDbLayerTableRecord
  2
04_POINTS
 70
0
 62
7
  6
CONTINUOUS
370
-3
390
F
  0
LAYER
  5
203
100
AcDbSymbolTableRecord
100
AcDbLayerTableRecord
  2
05_CURVES
 70
0
 62
7
  6
CONTINUOUS
370
-3
390
F
  0
LAYER
  5
204
100
AcDbSymbolTableRecord
100
AcDbLayerTableRecord
  2
06_SURFS
 70
0
 62
7
  6
CONTINUOUS
370
-3
390
F
  0
LAYER
  5
205
100
AcDbSymbolTableRecord
100
AcDbLayerTableRecord
  2
07_COSMETICS
 70
0
 62
7
  6
CONTINUOUS
370
-3
390
F
  0
LAYER
  5
206
100
AcDbSymbolTableRecord
100
AcDbLayerTableRecord
  2
10_NOTES
 70
0
 62
7
  6
CONTINUOUS
370
-3
390
F
  0
LAYER
  5
207
100
AcDbSymbolTableRecord
100
AcDbLayerTableRecord
  2
11_NOTES_PUB
 70
0
 62
7
  6
CONTINUOUS
370
-3
390
F
  0
LAYER
  5
208
100
AcDbSymbolTableRecord
100
AcDbLayerTableRecord
  2
13_REF_GTOL
 70
0
 62
7
  6
CONTINUOUS
370
-3
390
F
  0
LAYER
  5
209
100
AcDbSymbolTableRecord
100
AcDbLayerTableRecord
  2
16_MISC
 70
0
 62
7
  6
CONTINUOUS
370
-3
390
F
  0
LAYER
  5
20A
100
AcDbSymbolTableRecord
100
AcDbLayerTableRecord
  2
17_NO_PRINT
 70
0
 62
7
  6
CONTINUOUS
370
-3
390
F
  0
LAYER
  5
20B
100
AcDbSymbolTableRecord
100
AcDbLayerTableRecord
  2
18_DATUM_CAMS_JOINTS
 70
0
 62
7
  6
CONTINUOUS
370
-3
390
F
  0
LAYER
  5
20C
100
AcDbSymbolTableRecord
100
AcDbLayerTableRecord
  2
19_DATUM_FUNCTIONAL
 70
0
 62
7
  6
CONTINUOUS
370
-3
390
F
  0
LAYER
  5
20D
100
AcDbSymbolTableRecord
100
AcDbLayerTableRecord
  2
20_DATUM_KINEMATIC_SCHEME
 70
0
 62
7
  6
CONTINUOUS
370
-3
390
F
  0
ENDTAB
  0
TABLE
  2
STYLE
  5
3
100
AcDbSymbolTable
 70
1
  0
STYLE
  5
11
100
AcDbSymbolTableRecord
100
AcDbTextStyleTableRecord
  2
STANDARD
 70
0
 40
0.0
 41
1.0
 50
0.0
 71
0
 42
0.2
  3
ARIAL.TTF
  4

  0
STYLE
  5
20E
100
AcDbSymbolTableRecord
100
AcDbTextStyleTableRecord
  2
TEXTSTYLE_1
 70
0
 40
0.0
 41
0.8
 50
0.0
 71
0
 42
0.2
  3
gdt
  4

  0
ENDTAB
  0
TABLE
  2
VIEW
  5
6
100
AcDbSymbolTable
 70
0
  0
ENDTAB
  0
TABLE
  2
UCS
  5
7
100
AcDbSymbolTable
 70
0
  0
ENDTAB
  0
TABLE
  2
APPID
  5
9
100
AcDbSymbolTable
 70
1
  0
APPID
  5
20F
100
AcDbSymbolTableRecord
100
AcDbRegAppTableRecord
  2
ACAD
 70
0
  0
ENDTAB
  0
TABLE
  2
BLOCK_RECORD
  5
1
100
AcDbSymbolTable
 70
0
  0
BLOCK_RECORD
  5
210
100
AcDbSymbolTableRecord
100
AcDbBlockTableRecord
  2
*Model_Space
  0
BLOCK_RECORD
  5
211
100
AcDbSymbolTableRecord
100
AcDbBlockTableRecord
  2
*Paper_Space
  0
BLOCK_RECORD
  5
212
100
AcDbSymbolTableRecord
100
AcDbBlockTableRecord
  2
_FILLED
  0
ENDTAB
  0
TABLE
  2
DIMSTYLE
  5
A
100
AcDbSymbolTable
 70
1
100
AcDbDimStyleTable
 71
0
  0
DIMSTYLE
105
213
100
AcDbSymbolTableRecord
100
AcDbDimStyleTableRecord
  2
STANDARD
 70
0
  3

  4

 40
1.0
 41
0.5169752765
 42
1.0
 43
0.38
 44
1.0
 45
0.0
 46
0.0
 47
0.01
 48
0.01
140
0.723765387
141
0.09
142
0.0
143
25.4
144
1.0
145
0.0
146
1.0
147
0.625
 71
1
 72
0
 73
0
 74
0
 75
0
 76
0
 77
1
 78
8
 79
2
170
0
171
1
172
0
173
0
174
0
175
0
176
0
177
0
178
0
270
2
179
2
271
2
272
2
273
2
274
2
275
0
280
0
281
0
282
0
283
1
284
8
285
0
286
0
287
3
288
0
340
11
278
46
341
212
342
212
343
212
344
212
  0
ENDTAB
  0
ENDSEC
  0
SECTION
  2
BLOCKS
  0
BLOCK
  5
20
100
AcDbEntity
  8
0
100
AcDbBlockBegin
  2
*Model_Space
 70
0
 10
0.0
 20
0.0
 30
0.0
  3
*Model_Space
  1

  0
ENDBLK
  5
21
100
AcDbEntity
  8
0
100
AcDbBlockEnd
  0
BLOCK
  5
1C
100
AcDbEntity
  8
0
100
AcDbBlockBegin
  2
*Paper_Space
 70
0
 10
0.0
 20
0.0
 30
0.0
  3
*Paper_Space
  1

  0
ENDBLK
  5
1D
100
AcDbEntity
  8
0
100
AcDbBlockEnd
  0
BLOCK
  5
214
100
AcDbEntity
  8
0
100
AcDbBlockBegin
  2
_FILLED
 70
64
 10
0.0
 20
0.0
  3
_FILLED
  1

  0
SOLID
  5
215
100
AcDbEntity
  8
0
  6
BYBLOCK
 62
0
100
AcDbTrace
 10
0.0
 20
0.0
 11
-1.0
 21
0.25
 12
-1.0
 22
-0.25
 13
-1.0
 23
-0.25
  0
ENDBLK
  5
216
100
AcDbEntity
  8
0
  6
BYBLOCK
 62
0
100
AcDbBlockEnd
  0
ENDSEC
  0
SECTION
  2
ENTITIES
  0
LINE
  5
217
100
AcDbEntity
  8
0
100
AcDbLine
 62
7
  6
BYLAYER
 10
16.5764639241
 20
31.7454444694
 11
16.5764674569
 21
31.255549445
  0
LINE
  5
218
100
AcDbEntity
  8
0
100
AcDbLine
 62
7
  6
BYLAYER
 10
19.4048828056
 20
36.1545629248
 11
18.9806169705
 21
35.9096059272
  0
LINE
  5
219
100
AcDbEntity
  8
0
100
AcDbLine
 62
7
  6
BYLAYER
 10
23.0219190595
 20
23.8511254107
 11
23.4381787523
 21
23.6108032019
  0
LINE
  5
21A
100
AcDbEntity
  8
0
100
AcDbLine
 62
7
  6
BYLAYER
 10
24.9154174815
 20
22.7579383183
 11
25.3316771743
 21
22.5176161094
  0
LINE
  5
21B
100
AcDbEntity
  8
0
100
AcDbLine
 62
7
  6
BYLAYER
 10
25.1226317339
 20
22.8150199986
 11
24.7063720411
 21
23.0553422074
  0
LINE
  5
21C
100
AcDbEntity
  8
0
100
AcDbLine
 62
7
  6
BYLAYER
 10
23.2291333119
 20
23.908207091
 11
22.8128736191
 21
24.1485292999
  0
LINE
  5
21D
100
AcDbEntity
  8
0
100
AcDbLine
 62
7
  6
BYLAYER
 10
17.4049167397
 20
29.4244320495
 11
22.5431981861
 21
26.4579109849
  0
LINE
  5
21E
100
AcDbEntity
  8
0
100
AcDbLine
 62
7
  6
BYLAYER
 10
11.6987667408
 20
33.5848252647
 11
16.6572078019
 21
30.722132746
  0
LINE
  5
21F
100
AcDbEntity
  8
0
100
AcDbLine
 62
7
  6
BYLAYER
 10
5.7928426473
 20
38.4379025018
 11
11.0750123466
 21
35.388309395
  0
LINE
  5
220
100
AcDbEntity
  8
0
100
AcDbLine
 62
7
  6
BYLAYER
 10
22.8128736191
 20
28.7529848855
 11
23.2291333119
 21
28.5126626767
  0
LINE
  5
221
100
AcDbEntity
  8
0
100
AcDbLine
 62
7
  6
BYLAYER
 10
24.7063720411
 20
27.6597977931
 11
25.1226317339
 21
27.4194755842
  0
LINE
  5
222
100
AcDbEntity
  8
0
100
AcDbLine
 62
7
  6
BYLAYER
 10
25.3316771743
 20
27.9582629151
 11
24.9154174815
 21
28.198585124
  0
LINE
  5
223
100
AcDbEntity
  8
0
100
AcDbLine
 62
7
  6
BYLAYER
 10
23.4381787523
 20
29.0514500076
 11
23.0219190595
 21
29.2917722165
  0
LINE
  5
224
100
AcDbEntity
  8
0
100
AcDbLine
 62
7
  6
BYLAYER
 10
7.7928087132
 20
41.9020237085
 11
13.0753183817
 21
38.8522343249
  0
LINE
  5
225
100
AcDbEntity
  8
0
100
AcDbLine
 62
7
  6
BYLAYER
 10
14.9487115979
 20
39.2140222256
 11
19.9233425057
 21
36.3419827062
  0
LINE
  5
226
100
AcDbEntity
  8
0
100
AcDbLine
 62
7
  6
BYLAYER
 10
21.4048488716
 20
36.352674463
 11
26.3636104745
 21
33.4897968837
  0
LINE
  5
227
100
AcDbEntity
  8
0
100
AcDbLine
 62
7
  6
BYLAYER
 10
26.4752216874
 20
33.58775331
 11
26.8914813802
 21
33.3474311011
  0
LINE
  5
228
100
AcDbEntity
  8
0
100
AcDbLine
 62
7
  6
BYLAYER
 10
28.3687201094
 20
32.4945662175
 11
28.7849798022
 21
32.2542440087
  0
LINE
  5
229
100
AcDbEntity
  8
0
100
AcDbLine
 62
7
  6
BYLAYER
 10
29.203070683
 20
32.4956274504
 11
28.7868109903
 21
32.7359496593
  0
LINE
  5
22A
100
AcDbEntity
  8
0
100
AcDbLine
 62
7
  6
BYLAYER
 10
27.3095722611
 20
33.5888145429
 11
26.8933125683
 21
33.8291367517
  0
LINE
  5
22B
100
AcDbEntity
  8
0
100
AcDbLine
 62
7
  6
BYLAYER
 10
30.3466151962
 20
33.5206622596
 11
30.7628748889
 21
33.2803400507
  0
LINE
  5
22C
100
AcDbEntity
  8
0
100
AcDbLine
 62
7
  6
BYLAYER
 10
32.2401136182
 20
32.4274751671
 11
32.6563733109
 21
32.1871529583
  0
LINE
  5
22D
100
AcDbEntity
  8
0
100
AcDbLine
 62
7
  6
BYLAYER
 10
39.0625131457
 20
24.3155320856
 11
39.0625096129
 21
24.80542711
  0
LINE
  5
22E
100
AcDbEntity
  8
0
100
AcDbLine
 62
7
  6
BYLAYER
 10
36.2340942641
 20
19.9064136302
 11
36.6583600992
 21
20.1513706277
  0
ARC
  5
22F
100
AcDbEntity
  8
0
100
AcDbCircle
 62
7
  6
BYLAYER
 10
17.4987776323
 20
36.7582285052
 40
18.4851522504
100
AcDbArc
 50
309.2845855785
 51
309.7440849783
  0
ARC
  5
230
100
AcDbEntity
  8
0
100
AcDbCircle
 62
7
  6
BYLAYER
 10
13.1200534716
 20
29.3673526578
 40
18.2143238793
100
AcDbArc
 50
10.3583365993
 51
11.4493858761
  0
ARC
  5
231
100
AcDbEntity
  8
0
100
AcDbCircle
 62
7
  6
BYLAYER
 10
32.6500947028
 20
25.167348064
 40
9.9972817999
100
AcDbArc
 50
157.1378203339
 51
160.450420959
  0
ARC
  5
232
100
AcDbEntity
  8
0
100
AcDbCircle
 62
7
  6
BYLAYER
 10
34.5435931248
 20
24.0741609715
 40
9.9972817999
100
AcDbArc
 50
157.1378203339
 51
160.450420959
  0
ARC
  5
233
100
AcDbEntity
  8
0
100
AcDbCircle
 62
7
  6
BYLAYER
 10
32.1560489157
 20
25.4378506935
 40
9.9138811439
100
AcDbArc
 50
157.1238827539
 51
160.464358539
  0
ARC
  5
234
100
AcDbEntity
  8
0
100
AcDbCircle
 62
7
  6
BYLAYER
 10
34.0495473377
 20
24.3446636011
 40
9.9138811439
100
AcDbArc
 50
157.1238827539
 51
160.464358539
  0
ARC
  5
235
100
AcDbEntity
  8
0
100
AcDbCircle
 62
7
  6
BYLAYER
 10
29.7117045988
 20
28.4748801961
 40
6.0511398194
100
AcDbArc
 50
120.0204208752
 51
122.3340842692
  0
ARC
  5
236
100
AcDbEntity
  8
0
100
AcDbCircle
 62
7
  6
BYLAYER
 10
31.6052030208
 20
27.3816931036
 40
6.0511398195
100
AcDbArc
 50
120.0204208752
 51
122.3340842692
  0
ARC
  5
237
100
AcDbEntity
  8
0
100
AcDbCircle
 62
7
  6
BYLAYER
 10
26.0030624007
 20
27.5031174036
 40
5.980697485
100
AcDbArc
 50
300.006793502
 51
302.3477116424
  0
ARC
  5
238
100
AcDbEntity
  8
0
100
AcDbCircle
 62
7
  6
BYLAYER
 10
30.0914896625
 20
28.2948387567
 40
5.9806974849
100
AcDbArc
 50
120.006793502
 51
122.3477116424
  0
ARC
  5
239
100
AcDbEntity
  8
0
100
AcDbCircle
 62
7
  6
BYLAYER
 10
31.9849880845
 20
27.2016516642
 40
5.980697485
100
AcDbArc
 50
120.006793502
 51
122.3477116424
  0
ARC
  5
23A
100
AcDbEntity
  8
0
100
AcDbCircle
 62
7
  6
BYLAYER
 10
29.5010394743
 20
28.8368688221
 40
5.6323155715
100
AcDbArc
 50
117.5804580624
 51
120.0072191416
  0
ARC
  5
23B
100
AcDbEntity
  8
0
100
AcDbCircle
 62
7
  6
BYLAYER
 10
31.3945378962
 20
27.7436817297
 40
5.6323155715
100
AcDbArc
 50
117.5804580624
 51
120.0072191416
  0
ARC
  5
23C
100
AcDbEntity
  8
0
100
AcDbCircle
 62
7
  6
BYLAYER
 10
29.8841680562
 20
28.6568272343
 40
5.5635458407
100
AcDbArc
 50
117.5654574559
 51
120.0222197481
  0
ARC
  5
23D
100
AcDbEntity
  8
0
100
AcDbCircle
 62
7
  6
BYLAYER
 10
26.210384007
 20
27.1411289259
 40
5.5635458406
100
AcDbArc
 50
297.5654574558
 51
300.0222197481
  0
ARC
  5
23E
100
AcDbEntity
  8
0
100
AcDbCircle
 62
7
  6
BYLAYER
 10
31.7776664782
 20
27.5636401418
 40
5.5635458406
100
AcDbArc
 50
117.5654574558
 51
120.0222197481
  0
ARC
  5
23F
100
AcDbEntity
  8
0
100
AcDbCircle
 62
7
  6
BYLAYER
 10
29.6318001757
 20
26.5323458802
 40
5.0876837158
100
AcDbArc
 50
167.2362031086
 51
171.4885035473
  0
SPLINE
  5
240
100
AcDbEntity
  8
0
100
AcDbSpline
 62
7
  6
BYLAYER
 70
0
 71
3
 72
15
 73
11
 74
0
 42
0.0000001
 43
0.0000001
 44
0.0000000001
 40
0.0
 40
0.0
 40
0.0
 40
0.0
 40
0.1227102521
 40
0.2496796939
 40
0.3791629821
 40
0.5093013643
 40
0.6382061171
 40
0.7640459968
 40
0.8851223761
 40
1.0
 40
1.0
 40
1.0
 40
1.0
 10
24.6698374591
 20
27.6563795056
 30
0.0
 10
24.7106594121
 20
27.8374656557
 30
0.0
 10
24.8125910634
 20
28.2018730526
 30
0.0
 10
25.0173629434
 20
28.7384158045
 30
0.0
 10
25.2729172827
 20
29.2652530408
 30
0.0
 10
25.5737496905
 20
29.7709919995
 30
0.0
 10
25.9133907361
 20
30.2447867784
 30
0.0
 10
26.2845808168
 20
30.6764639932
 30
0.0
 10
26.6793036152
 20
31.0567571111
 30
0.0
 10
26.9610911322
 20
31.2772417768
 30
0.0
 10
27.104108049
 20
31.3759644967
 30
0.0
  0
SPLINE
  5
241
100
AcDbEntity
  8
0
100
AcDbSpline
 62
7
  6
BYLAYER
 70
0
 71
3
 72
11
 73
7
 74
0
 42
0.0000001
 43
0.0000001
 44
0.0000000001
 40
0.0
 40
0.0
 40
0.0
 40
0.0
 40
0.2458846193
 40
0.4944383586
 40
0.745831851
 40
1.0
 40
1.0
 40
1.0
 40
1.0
 10
23.0219190595
 20
29.2917722165
 30
0.0
 10
23.1202693966
 20
29.4928210642
 30
0.0
 10
23.3268087803
 20
29.892903204
 30
0.0
 10
23.6684874416
 20
30.4799213692
 30
0.0
 10
24.0473494947
 20
31.0528015661
 30
0.0
 10
24.3246232333
 20
31.4205189897
 30
0.0
 10
24.4695723302
 20
31.6008387146
 30
0.0
  0
SPLINE
  5
242
100
AcDbEntity
  8
0
100
AcDbSpline
 62
7
  6
BYLAYER
 70
0
 71
3
 72
11
 73
7
 74
0
 42
0.0000001
 43
0.0000001
 44
0.0000000001
 40
0.0
 40
0.0
 40
0.0
 40
0.0
 40
0.2640660456
 40
0.5181148402
 40
0.7629991888
 40
1.0
 40
1.0
 40
1.0
 40
1.0
 10
22.5338755758
 20
26.6118330441
 30
0.0
 10
22.5338755758
 20
26.802405929
 30
0.0
 10
22.5458518239
 20
27.1764638623
 30
0.0
 10
22.6012286082
 20
27.7247358432
 30
0.0
 10
22.6898901891
 20
28.2487688289
 30
0.0
 10
22.7692475495
 20
28.5876018732
 30
0.0
 10
22.8128736191
 20
28.7529848855
 30
0.0
  0
SPLINE
  5
243
100
AcDbEntity
  8
0
100
AcDbSpline
 62
7
  6
BYLAYER
 70
0
 71
3
 72
9
 73
5
 74
0
 42
0.0000001
 43
0.0000001
 44
0.0000000001
 40
0.0
 40
0.0
 40
0.0
 40
0.0
 40
0.2462147155
 40
1.0
 40
1.0
 40
1.0
 40
1.0
 10
23.0219190595
 20
23.8511254107
 30
0.0
 10
23.0029753327
 20
23.8741941156
 30
0.0
 10
22.9278339689
 20
23.9693552792
 30
0.0
 10
22.8599297092
 20
24.0701894616
 30
0.0
 10
22.8128736191
 20
24.1485292999
 30
0.0
  0
SPLINE
  5
244
100
AcDbEntity
  8
0
100
AcDbSpline
 62
7
  6
BYLAYER
 70
0
 71
3
 72
11
 73
7
 74
0
 42
0.0000001
 43
0.0000001
 44
0.0000000001
 40
0.0
 40
0.0
 40
0.0
 40
0.0
 40
0.2597211279
 40
0.513817963
 40
0.760968319
 40
1.0
 40
1.0
 40
1.0
 40
1.0
 10
22.8128736191
 20
24.1485292999
 30
0.0
 10
22.770271671
 20
24.3592213273
 30
0.0
 10
22.6927935303
 20
24.7774721654
 30
0.0
 10
22.6036069087
 20
25.4011521076
 30
0.0
 10
22.5472500572
 20
26.0115257113
 30
0.0
 10
22.5338755758
 20
26.4140005449
 30
0.0
 10
22.5338755758
 20
26.6118330441
 30
0.0
  0
SPLINE
  5
245
100
AcDbEntity
  8
0
100
AcDbSpline
 62
7
  6
BYLAYER
 70
0
 71
3
 72
9
 73
5
 74
0
 42
0.0000001
 43
0.0000001
 44
0.0000000001
 40
0.0
 40
0.0
 40
0.0
 40
0.0
 40
0.5144301871
 40
1.0
 40
1.0
 40
1.0
 40
1.0
 10
23.4381787523
 20
23.6108032019
 30
0.0
 10
23.6465945157
 20
23.5684008397
 30
0.0
 10
24.0524953094
 20
23.4896489056
 30
0.0
 10
24.4602898845
 20
23.4211274525
 30
0.0
 10
24.658819035
 20
23.3913261982
 30
0.0
  0
SPLINE
  5
246
100
AcDbEntity
  8
0
100
AcDbSpline
 62
7
  6
BYLAYER
 70
0
 71
3
 72
11
 73
7
 74
0
 42
0.0000001
 43
0.0000001
 44
0.0000000001
 40
0.0
 40
0.0
 40
0.0
 40
0.0
 40
0.2138213266
 40
0.4498136906
 40
0.7112239715
 40
1.0
 40
1.0
 40
1.0
 40
1.0
 10
26.8933125683
 20
33.8291367517
 30
0.0
 10
26.9958800446
 20
33.8419652127
 30
0.0
 10
27.212528117
 20
33.862294611
 30
0.0
 10
27.5563187138
 20
33.8743548313
 30
0.0
 10
27.9364735295
 20
33.8667889769
 30
0.0
 10
28.2019178924
 20
33.8483962464
 30
0.0
 10
28.340965839
 20
33.835975457
 30
0.0
  0
SPLINE
  5
247
100
AcDbEntity
  8
0
100
AcDbSpline
 62
7
  6
BYLAYER
 70
0
 71
3
 72
11
 73
7
 74
0
 42
0.0000001
 43
0.0000001
 44
0.0000000001
 40
0.0
 40
0.0
 40
0.0
 40
0.0
 40
0.2477719659
 40
0.4973914062
 40
0.7482964104
 40
1.0
 40
1.0
 40
1.0
 40
1.0
 10
24.4695723302
 20
31.6008387146
 30
0.0
 10
24.615909948
 20
31.7828857887
 30
0.0
 10
24.9211879109
 20
32.1392371244
 30
0.0
 10
25.4113938101
 20
32.6469828657
 30
0.0
 10
25.9304258652
 20
33.1305693042
 30
0.0
 10
26.2915700091
 20
33.4375101482
 30
0.0
 10
26.4752216874
 20
33.58775331
 30
0.0
  0
SPLINE
  5
248
100
AcDbEntity
  8
0
100
AcDbSpline
 62
7
  6
BYLAYER
 70
0
 71
3
 72
9
 73
5
 74
0
 42
0.0000001
 43
0.0000001
 44
0.0000000001
 40
0.0
 40
0.0
 40
0.0
 40
0.0
 40
0.2541432767
 40
1.0
 40
1.0
 40
1.0
 40
1.0
 10
30.9719203294
 20
32.9829361616
 30
0.0
 10
30.9560552526
 20
33.0093486312
 30
0.0
 10
30.8918272508
 20
33.1121784894
 30
0.0
 10
30.8202603923
 20
33.2104589103
 30
0.0
 10
30.7628748889
 20
33.2803400507
 30
0.0
  0
SPLINE
  5
249
100
AcDbEntity
  8
0
100
AcDbSpline
 62
7
  6
BYLAYER
 70
0
 71
3
 72
11
 73
7
 74
0
 42
0.0000001
 43
0.0000001
 44
0.0000000001
 40
0.0
 40
0.0
 40
0.0
 40
0.0
 40
0.2256301332
 40
0.4692376087
 40
0.7282925538
 40
1.0
 40
1.0
 40
1.0
 40
1.0
 10
28.340965839
 20
33.835975457
 30
0.0
 10
28.4931295296
 20
33.8223830725
 30
0.0
 10
28.8089825342
 20
33.7872154122
 30
0.0
 10
29.2969821295
 20
33.7159202992
 30
0.0
 10
29.8136134632
 20
33.6262255785
 30
0.0
 10
30.1663407671
 20
33.5573392436
 30
0.0
 10
30.3466151962
 20
33.5206622596
 30
0.0
  0
SPLINE
  5
24A
100
AcDbEntity
  8
0
100
AcDbSpline
 62
7
  6
BYLAYER
 70
0
 71
3
 72
9
 73
5
 74
0
 42
0.0000001
 43
0.0000001
 44
0.0000000001
 40
0.0
 40
0.0
 40
0.0
 40
0.0
 40
0.2541432767
 40
1.0
 40
1.0
 40
1.0
 40
1.0
 10
23.2291333119
 20
23.908207091
 30
0.0
 10
23.2449983886
 20
23.8817946214
 30
0.0
 10
23.3092263905
 20
23.7789647633
 30
0.0
 10
23.3807932489
 20
23.6806843423
 30
0.0
 10
23.4381787523
 20
23.6108032019
 30
0.0
  0
SPLINE
  5
24B
100
AcDbEntity
  8
0
100
AcDbSpline
 62
7
  6
BYLAYER
 70
0
 71
3
 72
11
 73
7
 74
0
 42
0.0000001
 43
0.0000001
 44
0.0000000001
 40
0.0
 40
0.0
 40
0.0
 40
0.0
 40
0.2138213266
 40
0.4498136906
 40
0.7112239715
 40
1.0
 40
1.0
 40
1.0
 40
1.0
 10
30.7628748889
 20
33.2803400507
 30
0.0
 10
30.6603074126
 20
33.2675115897
 30
0.0
 10
30.4436593402
 20
33.2471821915
 30
0.0
 10
30.0998687434
 20
33.2351219712
 30
0.0
 10
29.7197139278
 20
33.2426878256
 30
0.0
 10
29.4542695649
 20
33.261080556
 30
0.0
 10
29.3152216183
 20
33.2735013455
 30
0.0
  0
SPLINE
  5
24C
100
AcDbEntity
  8
0
100
AcDbSpline
 62
7
  6
BYLAYER
 70
0
 71
3
 72
11
 73
7
 74
0
 42
0.0000001
 43
0.0000001
 44
0.0000000001
 40
0.0
 40
0.0
 40
0.0
 40
0.0
 40
0.2256301332
 40
0.4692376087
 40
0.7282925538
 40
1.0
 40
1.0
 40
1.0
 40
1.0
 10
29.3152216183
 20
33.2735013455
 30
0.0
 10
29.1630579276
 20
33.28709373
 30
0.0
 10
28.847204923
 20
33.3222613903
 30
0.0
 10
28.3592053277
 20
33.3935565033
 30
0.0
 10
27.842573994
 20
33.483251224
 30
0.0
 10
27.4898466901
 20
33.5521375589
 30
0.0
 10
27.3095722611
 20
33.5888145429
 30
0.0
  0
SPLINE
  5
24D
100
AcDbEntity
  8
0
100
AcDbSpline
 62
7
  6
BYLAYER
 70
0
 71
3
 72
11
 73
7
 74
0
 42
0.0000001
 43
0.0000001
 44
0.0000000001
 40
0.0
 40
0.0
 40
0.0
 40
0.0
 40
0.2640660456
 40
0.5181148402
 40
0.7629991888
 40
1.0
 40
1.0
 40
1.0
 40
1.0
 10
23.5081313551
 20
26.0493589325
 30
0.0
 10
23.5081313551
 20
25.8587860475
 30
0.0
 10
23.4961551071
 20
25.4847281143
 30
0.0
 10
23.4407783228
 20
24.9364561333
 30
0.0
 10
23.3521167418
 20
24.4124231476
 30
0.0
 10
23.2727593814
 20
24.0735901034
 30
0.0
 10
23.2291333119
 20
23.908207091
 30
0.0
  0
SPLINE
  5
24E
100
AcDbEntity
  8
0
100
AcDbSpline
 62
7
  6
BYLAYER
 70
0
 71
3
 72
11
 73
7
 74
0
 42
0.0000001
 43
0.0000001
 44
0.0000000001
 40
0.0
 40
0.0
 40
0.0
 40
0.0
 40
0.2458846193
 40
0.4944383586
 40
0.745831851
 40
1.0
 40
1.0
 40
1.0
 40
1.0
 10
26.8914813802
 20
33.3474311011
 30
0.0
 10
26.7931310432
 20
33.1463822534
 30
0.0
 10
26.5865916594
 20
32.7463001136
 30
0.0
 10
26.2449129981
 20
32.1592819484
 30
0.0
 10
25.866050945
 20
31.5864017514
 30
0.0
 10
25.5887772064
 20
31.2186843279
 30
0.0
 10
25.4438281095
 20
31.038364603
 30
0.0
  0
SPLINE
  5
24F
100
AcDbEntity
  8
0
100
AcDbSpline
 62
7
  6
BYLAYER
 70
0
 71
3
 72
9
 73
5
 74
0
 42
0.0000001
 43
0.0000001
 44
0.0000000001
 40
0.0
 40
0.0
 40
0.0
 40
0.0
 40
0.5122257649
 40
1.0
 40
1.0
 40
1.0
 40
1.0
 10
27.3795248639
 20
25.0184860064
 30
0.0
 10
27.2953561866
 20
24.969891488
 30
0.0
 10
27.1272896399
 20
24.8813267417
 30
0.0
 10
26.952121662
 20
24.8076132841
 30
0.0
 10
26.8651477744
 20
24.7759738357
 30
0.0
  0
SPLINE
  5
250
100
AcDbEntity
  8
0
100
AcDbSpline
 62
7
  6
BYLAYER
 70
0
 71
3
 72
23
 73
19
 74
0
 42
0.0000001
 43
0.0000001
 44
0.0000000001
 40
0.0
 40
0.0
 40
0.0
 40
0.0
 40
0.0518623208
 40
0.1068432298
 40
0.164797681
 40
0.2254700295
 40
0.2885159537
 40
0.3535204544
 40
0.4200145886
 40
0.4874915816
 40
0.5554203268
 40
0.6232584034
 40
0.69046521
 40
0.7565171452
 40
0.820918397
 40
0.8832116017
 40
0.943021027
 40
1.0
 40
1.0
 40
1.0
 40
1.0
 10
30.1609090412
 20
30.4834096203
 30
0.0
 10
30.1802451507
 20
30.3736476528
 30
0.0
 10
30.2066882362
 20
30.1450247322
 30
0.0
 10
30.211370038
 20
29.7903999663
 30
0.0
 10
30.1823147425
 20
29.4179723179
 30
0.0
 10
30.1198894496
 20
29.0321727236
 30
0.0
 10
30.0248498065
 20
28.6375269553
 30
0.0
 10
29.8983233608
 20
28.238709602
 30
0.0
 10
29.7418240919
 20
27.8404470998
 30
0.0
 10
29.5572134352
 20
27.4474710769
 30
0.0
 10
29.3466815113
 20
27.0644581548
 30
0.0
 10
29.1127326327
 20
26.6959690088
 30
0.0
 10
28.8581592966
 20
26.3463823288
 30
0.0
 10
28.585983168
 20
26.0198557629
 30
0.0
 10
28.2994365091
 20
25.72028566
 30
0.0
 10
28.0018976534
 20
25.4511824844
 30
0.0
 10
27.6969162708
 20
25.2158172029
 30
0.0
 10
27.4855679301
 20
25.0797096338
 30
0.0
 10
27.3795248639
 20
25.0184860064
 30
0.0
  0
SPLINE
  5
251
100
AcDbEntity
  8
0
100
AcDbSpline
 62
7
  6
BYLAYER
 70
0
 71
3
 72
15
 73
11
 74
0
 42
0.0000001
 43
0.0000001
 44
0.0000000001
 40
0.0
 40
0.0
 40
0.0
 40
0.0
 40
0.1098775931
 40
0.2234861512
 40
0.3412133349
 40
0.4633930863
 40
0.5902737579
 40
0.722003028
 40
0.8586240371
 40
1.0
 40
1.0
 40
1.0
 40
1.0
 10
29.3152216183
 20
33.2735013455
 30
0.0
 10
29.2410000307
 20
33.2801313657
 30
0.0
 10
29.0892632651
 20
33.2859380254
 30
0.0
 10
28.8579171911
 20
33.2730627643
 30
0.0
 10
28.6203412297
 20
33.2387637575
 30
0.0
 10
28.3776013204
 20
33.1832715789
 30
0.0
 10
28.1306937632
 20
33.1068222244
 30
0.0
 10
27.8806230023
 20
33.0097690301
 30
0.0
 10
27.6285083165
 20
32.8925227576
 30
0.0
 10
27.4625584475
 20
32.8027855844
 30
0.0
 10
27.3795248639
 20
32.7548464087
 30
0.0
  0
SPLINE
  5
252
100
AcDbEntity
  8
0
100
AcDbSpline
 62
7
  6
BYLAYER
 70
0
 71
3
 72
13
 73
9
 74
0
 42
0.0000001
 43
0.0000001
 44
0.0000000001
 40
0.0
 40
0.0
 40
0.0
 40
0.0
 40
0.1142644905
 40
0.2321128125
 40
0.3532889632
 40
0.4775602415
 40
0.7343157112
 40
1.0
 40
1.0
 40
1.0
 40
1.0
 10
27.3795248639
 20
32.7548464087
 30
0.0
 10
27.293728467
 20
32.7053121316
 30
0.0
 10
27.1223123801
 20
32.5996492122
 30
0.0
 10
26.8703428195
 20
32.4252569357
 30
0.0
 10
26.6205555297
 20
32.2331562983
 30
0.0
 10
26.2882885706
 20
31.9515405989
 30
0.0
 10
25.8858164564
 20
31.5600642806
 30
0.0
 10
25.5881485117
 20
31.2179022185
 30
0.0
 10
25.4438281095
 20
31.038364603
 30
0.0
  0
SPLINE
  5
253
100
AcDbEntity
  8
0
100
AcDbSpline
 62
7
  6
BYLAYER
 70
0
 71
3
 72
17
 73
13
 74
0
 42
0.0000001
 43
0.0000001
 44
0.0000000001
 40
0.0
 40
0.0
 40
0.0
 40
0.0
 40
0.1298380129
 40
0.2611677553
 40
0.3924976382
 40
0.5223360801
 40
0.6492435119
 40
0.7718862678
 40
0.8312472101
 40
0.8891277832
 40
0.9454196043
 40
1.0
 40
1.0
 40
1.0
 40
1.0
 10
25.4438281095
 20
31.038364603
 30
0.0
 10
25.2961741482
 20
30.8546799699
 30
0.0
 10
25.0137709349
 20
30.4732233936
 30
0.0
 10
24.6342719555
 20
29.8695217819
 30
0.0
 10
24.3011849149
 20
29.2389724777
 30
0.0
 10
24.020175943
 20
28.5922743495
 30
0.0
 10
23.7959996887
 20
27.9403823881
 30
0.0
 10
23.6581971688
 20
27.3960594299
 30
0.0
 10
23.5804425474
 20
26.9674998823
 30
0.0
 10
23.5389741613
 20
26.6551235256
 30
0.0
 10
23.5139309375
 20
26.349713956
 30
0.0
 10
23.5081313551
 20
26.1484294764
 30
0.0
 10
23.5081313551
 20
26.0493589325
 30
0.0
  0
SPLINE
  5
254
100
AcDbEntity
  8
0
100
AcDbSpline
 62
7
  6
BYLAYER
 70
0
 71
3
 72
18
 73
14
 74
0
 42
0.0000001
 43
0.0000001
 44
0.0000000001
 40
0.0
 40
0.0
 40
0.0
 40
0.0
 40
0.1483963383
 40
0.2891966726
 40
0.4223785208
 40
0.5483298472
 40
0.667754038
 40
0.7253868809
 40
0.7818344617
 40
0.8372950056
 40
0.8919851557
 40
0.9461386287
 40
1.0
 40
1.0
 40
1.0
 40
1.0
 10
23.5081313551
 20
26.0493589325
 30
0.0
 10
23.5081313551
 20
25.9080449083
 30
0.0
 10
23.5194228736
 20
25.6324636285
 30
0.0
 10
23.573157318
 20
25.2332260096
 30
0.0
 10
23.6629306628
 20
24.8623131939
 30
0.0
 10
23.7879867147
 20
24.5232842179
 30
0.0
 10
23.922529885
 20
24.2668920118
 30
0.0
 10
24.0467500692
 20
24.0822515033
 30
0.0
 10
24.1467727815
 20
23.9553109441
 30
0.0
 10
24.2544818758
 20
23.8386061777
 30
0.0
 10
24.3696476546
 20
23.7324326096
 30
0.0
 10
24.49197499
 20
23.6370643404
 30
0.0
 10
24.5782237718
 20
23.5807542146
 30
0.0
 10
24.6223170294
 20
23.554552479
 30
0.0
  0
SPLINE
  5
255
100
AcDbEntity
  8
0
100
AcDbSpline
 62
7
  6
BYLAYER
 70
0
 71
3
 72
11
 73
7
 74
0
 42
0.0000001
 43
0.0000001
 44
0.0000000001
 40
0.0
 40
0.0
 40
0.0
 40
0.0
 40
0.2477719659
 40
0.4973914062
 40
0.7482964104
 40
1.0
 40
1.0
 40
1.0
 40
1.0
 10
25.4438281095
 20
31.038364603
 30
0.0
 10
25.2974904917
 20
30.8563175289
 30
0.0
 10
24.9922125288
 20
30.4999661932
 30
0.0
 10
24.5020066296
 20
29.9922204518
 30
0.0
 10
23.9829745745
 20
29.5086340134
 30
0.0
 10
23.6218304306
 20
29.2016931693
 30
0.0
 10
23.4381787523
 20
29.0514500076
 30
0.0
  0
SPLINE
  5
256
100
AcDbEntity
  8
0
100
AcDbSpline
 62
7
  6
BYLAYER
 70
0
 71
3
 72
11
 73
7
 74
0
 42
0.0000001
 43
0.0000001
 44
0.0000000001
 40
0.0
 40
0.0
 40
0.0
 40
0.0
 40
0.2597211279
 40
0.513817963
 40
0.760968319
 40
1.0
 40
1.0
 40
1.0
 40
1.0
 10
23.2291333119
 20
28.5126626767
 30
0.0
 10
23.2717352599
 20
28.3019706493
 30
0.0
 10
23.3492134007
 20
27.8837198112
 30
0.0
 10
23.4384000223
 20
27.260039869
 30
0.0
 10
23.4947568737
 20
26.6496662653
 30
0.0
 10
23.5081313551
 20
26.2471914317
 30
0.0
 10
23.5081313551
 20
26.0493589325
 30
0.0
  0
SPLINE
  5
257
100
AcDbEntity
  8
0
100
AcDbSpline
 62
7
  6
BYLAYER
 70
0
 71
3
 72
14
 73
10
 74
0
 42
0.0000001
 43
0.0000001
 44
0.0000000001
 40
0.0
 40
0.0
 40
0.0
 40
0.0
 40
0.1246565708
 40
0.2481946398
 40
0.3712211833
 40
0.4943617005
 40
0.6182506599
 40
0.743505153
 40
1.0
 40
1.0
 40
1.0
 40
1.0
 10
30.4765824449
 20
32.7548681017
 30
0.0
 10
30.4377591689
 20
32.7922247653
 30
0.0
 10
30.3573008337
 20
32.8634038053
 30
0.0
 10
30.2282819026
 20
32.9591011132
 30
0.0
 10
30.0919625016
 20
33.0428618495
 30
0.0
 10
29.9487061967
 20
33.1144332198
 30
0.0
 10
29.7988695898
 20
33.1736573806
 30
0.0
 10
29.5893275892
 20
33.2363954405
 30
0.0
 10
29.4256406003
 20
33.2636379066
 30
0.0
 10
29.3152216183
 20
33.2735013455
 30
0.0
  0
SPLINE
  5
258
100
AcDbEntity
  8
0
100
AcDbSpline
 62
7
  6
BYLAYER
 70
0
 71
3
 72
23
 73
19
 74
0
 42
0.0000001
 43
0.0000001
 44
0.0000000001
 40
0.0
 40
0.0
 40
0.0
 40
0.0
 40
0.0558381097
 40
0.1141790922
 40
0.1747829303
 40
0.237352972
 40
0.3015484011
 40
0.3669921915
 40
0.4332821682
 40
0.4999996389
 40
0.5667170728
 40
0.6330071481
 40
0.698450518
 40
0.7626465993
 40
0.825216462
 40
0.8858171017
 40
0.9441705098
 40
1.0
 40
1.0
 40
1.0
 40
1.0
 10
26.4446135247
 20
25.5583079973
 30
0.0
 10
26.4446126987
 20
25.6677308624
 30
0.0
 10
26.4543226238
 20
25.8915634868
 30
0.0
 10
26.4955471957
 20
26.2318795366
 30
0.0
 10
26.5633557354
 20
26.5813507255
 30
0.0
 10
26.6570821095
 20
26.9366243675
 30
0.0
 10
26.7758449228
 20
27.2943210202
 30
0.0
 10
26.9185031549
 20
27.6510247123
 30
0.0
 10
27.0836833791
 20
28.0033313545
 30
0.0
 10
27.2698203805
 20
28.347864395
 30
0.0
 10
27.4751267011
 20
28.68132987
 30
0.0
 10
27.6976298405
 20
29.000541835
 30
0.0
 10
27.9352163192
 20
29.3024397015
 30
0.0
 10
28.1856112987
 20
29.5841376048
 30
0.0
 10
28.4464088489
 20
29.8429513492
 30
0.0
 10
28.7151670985
 20
30.0764256805
 30
0.0
 10
28.9892880826
 20
30.2822718676
 30
0.0
 10
29.1782747919
 20
30.402615509
 30
0.0
 10
29.2730232859
 20
30.457318251
 30
0.0
  0
SPLINE
  5
259
100
AcDbEntity
  8
0
100
AcDbSpline
 62
7
  6
BYLAYER
 70
0
 71
3
 72
11
 73
7
 74
0
 42
0.0000001
 43
0.0000001
 44
0.0000000001
 40
0.0
 40
0.0
 40
0.0
 40
0.0
 40
0.2458846193
 40
0.4944383586
 40
0.745831851
 40
1.0
 40
1.0
 40
1.0
 40
1.0
 10
24.9154174815
 20
28.198585124
 30
0.0
 10
25.0137678186
 20
28.3996339717
 30
0.0
 10
25.2203072023
 20
28.7997161115
 30
0.0
 10
25.5619858636
 20
29.3867342767
 30
0.0
 10
25.9408479167
 20
29.9596144737
 30
0.0
 10
26.2181216553
 20
30.3273318972
 30
0.0
 10
26.3630707522
 20
30.5076516221
 30
0.0
  0
SPLINE
  5
25A
100
AcDbEntity
  8
0
100
AcDbSpline
 62
7
  6
BYLAYER
 70
0
 71
3
 72
11
 73
7
 74
0
 42
0.0000001
 43
0.0000001
 44
0.0000000001
 40
0.0
 40
0.0
 40
0.0
 40
0.0
 40
0.2640660456
 40
0.5181148402
 40
0.7629991888
 40
1.0
 40
1.0
 40
1.0
 40
1.0
 10
24.4273739978
 20
25.5186459516
 30
0.0
 10
24.4273739978
 20
25.7092188366
 30
0.0
 10
24.4393502459
 20
26.0832767699
 30
0.0
 10
24.4947270302
 20
26.6315487508
 30
0.0
 10
24.5833886111
 20
27.1555817365
 30
0.0
 10
24.6627459715
 20
27.4944147808
 30
0.0
 10
24.7063720411
 20
27.6597977931
 30
0.0
  0
SPLINE
  5
25B
100
AcDbEntity
  8
0
100
AcDbSpline
 62
7
  6
BYLAYER
 70
0
 71
3
 72
9
 73
5
 74
0
 42
0.0000001
 43
0.0000001
 44
0.0000000001
 40
0.0
 40
0.0
 40
0.0
 40
0.0
 40
0.2462147155
 40
1.0
 40
1.0
 40
1.0
 40
1.0
 10
24.9154174815
 20
22.7579383183
 30
0.0
 10
24.8964737547
 20
22.7810070231
 30
0.0
 10
24.8213323909
 20
22.8761681867
 30
0.0
 10
24.7534281312
 20
22.9770023691
 30
0.0
 10
24.7063720411
 20
23.0553422074
 30
0.0
  0
SPLINE
  5
25C
100
AcDbEntity
  8
0
100
AcDbSpline
 62
7
  6
BYLAYER
 70
0
 71
3
 72
11
 73
7
 74
0
 42
0.0000001
 43
0.0000001
 44
0.0000000001
 40
0.0
 40
0.0
 40
0.0
 40
0.0
 40
0.2597211279
 40
0.513817963
 40
0.760968319
 40
1.0
 40
1.0
 40
1.0
 40
1.0
 10
24.7063720411
 20
23.0553422074
 30
0.0
 10
24.663770093
 20
23.2660342349
 30
0.0
 10
24.5862919523
 20
23.6842850729
 30
0.0
 10
24.4971053307
 20
24.3079650151
 30
0.0
 10
24.4407484792
 20
24.9183386188
 30
0.0
 10
24.4273739978
 20
25.3208134524
 30
0.0
 10
24.4273739978
 20
25.5186459516
 30
0.0
  0
SPLINE
  5
25D
100
AcDbEntity
  8
0
100
AcDbSpline
 62
7
  6
BYLAYER
 70
0
 71
3
 72
11
 73
7
 74
0
 42
0.0000001
 43
0.0000001
 44
0.0000000001
 40
0.0
 40
0.0
 40
0.0
 40
0.0
 40
0.2716970013
 40
0.5307594274
 40
0.7743669934
 40
1.0
 40
1.0
 40
1.0
 40
1.0
 10
25.3316771743
 20
22.5176161094
 30
0.0
 10
25.5119446733
 20
22.4809405353
 30
0.0
 10
25.8646719206
 20
22.4120649327
 30
0.0
 10
26.3812980682
 20
22.3223516139
 30
0.0
 10
26.8693062137
 20
22.2510653032
 30
0.0
 10
27.1851609031
 20
22.2158954696
 30
0.0
 10
27.3373265315
 20
22.202302912
 30
0.0
  0
SPLINE
  5
25E
100
AcDbEntity
  8
0
100
AcDbSpline
 62
7
  6
BYLAYER
 70
0
 71
3
 72
11
 73
7
 74
0
 42
0.0000001
 43
0.0000001
 44
0.0000000001
 40
0.0
 40
0.0
 40
0.0
 40
0.0
 40
0.2138213266
 40
0.4498136906
 40
0.7112239715
 40
1.0
 40
1.0
 40
1.0
 40
1.0
 10
28.7868109903
 20
32.7359496593
 30
0.0
 10
28.8893784666
 20
32.7487781203
 30
0.0
 10
29.106026539
 20
32.7691075185
 30
0.0
 10
29.4498171358
 20
32.7811677389
 30
0.0
 10
29.8299719515
 20
32.7736018844
 30
0.0
 10
30.0954163144
 20
32.755209154
 30
0.0
 10
30.234464261
 20
32.7427883646
 30
0.0
  0
SPLINE
  5
25F
100
AcDbEntity
  8
0
100
AcDbSpline
 62
7
  6
BYLAYER
 70
0
 71
3
 72
11
 73
7
 74
0
 42
0.0000001
 43
0.0000001
 44
0.0000000001
 40
0.0
 40
0.0
 40
0.0
 40
0.0
 40
0.2477719659
 40
0.4973914062
 40
0.7482964104
 40
1.0
 40
1.0
 40
1.0
 40
1.0
 10
26.3630707522
 20
30.5076516221
 30
0.0
 10
26.50940837
 20
30.6896986963
 30
0.0
 10
26.8146863329
 20
31.0460500319
 30
0.0
 10
27.3048922321
 20
31.5537957733
 30
0.0
 10
27.8239242872
 20
32.0373822118
 30
0.0
 10
28.1850684311
 20
32.3443230558
 30
0.0
 10
28.3687201094
 20
32.4945662175
 30
0.0
  0
SPLINE
  5
260
100
AcDbEntity
  8
0
100
AcDbSpline
 62
7
  6
BYLAYER
 70
0
 71
3
 72
9
 73
5
 74
0
 42
0.0000001
 43
0.0000001
 44
0.0000000001
 40
0.0
 40
0.0
 40
0.0
 40
0.0
 40
0.2541432767
 40
1.0
 40
1.0
 40
1.0
 40
1.0
 10
32.8654187514
 20
31.8897490691
 30
0.0
 10
32.8495536746
 20
31.9161615387
 30
0.0
 10
32.7853256728
 20
32.0189913969
 30
0.0
 10
32.7137588143
 20
32.1172718178
 30
0.0
 10
32.6563733109
 20
32.1871529583
 30
0.0
  0
SPLINE
  5
261
100
AcDbEntity
  8
0
100
AcDbSpline
 62
7
  6
BYLAYER
 70
0
 71
3
 72
11
 73
7
 74
0
 42
0.0000001
 43
0.0000001
 44
0.0000000001
 40
0.0
 40
0.0
 40
0.0
 40
0.0
 40
0.2400025458
 40
0.4873951712
 40
0.7411097349
 40
1.0
 40
1.0
 40
1.0
 40
1.0
 10
33.1431823913
 20
29.5758357921
 30
0.0
 10
33.1401146899
 20
29.762499113
 30
0.0
 10
33.1223481471
 20
30.1414546624
 30
0.0
 10
33.0644901971
 20
30.7152465382
 30
0.0
 10
32.9784008215
 20
31.300289619
 30
0.0
 10
32.9053302015
 20
31.6923631576
 30
0.0
 10
32.8654187514
 20
31.8897490691
 30
0.0
  0
SPLINE
  5
262
100
AcDbEntity
  8
0
100
AcDbSpline
 62
7
  6
BYLAYER
 70
0
 71
3
 72
11
 73
7
 74
0
 42
0.0000001
 43
0.0000001
 44
0.0000000001
 40
0.0
 40
0.0
 40
0.0
 40
0.0
 40
0.2256301332
 40
0.4692376087
 40
0.7282925538
 40
1.0
 40
1.0
 40
1.0
 40
1.0
 10
30.234464261
 20
32.7427883646
 30
0.0
 10
30.3866279516
 20
32.7291959801
 30
0.0
 10
30.7024809562
 20
32.6940283197
 30
0.0
 10
31.1904805515
 20
32.6227332068
 30
0.0
 10
31.7071118852
 20
32.5330384861
 30
0.0
 10
32.0598391891
 20
32.4641521512
 30
0.0
 10
32.2401136182
 20
32.4274751671
 30
0.0
  0
SPLINE
  5
263
100
AcDbEntity
  8
0
100
AcDbSpline
 62
7
  6
BYLAYER
 70
0
 71
3
 72
11
 73
7
 74
0
 42
0.0000001
 43
0.0000001
 44
0.0000000001
 40
0.0
 40
0.0
 40
0.0
 40
0.0
 40
0.2887722498
 40
0.5501729837
 40
0.7861833094
 40
1.0
 40
1.0
 40
1.0
 40
1.0
 10
27.3373265315
 20
22.202302912
 30
0.0
 10
27.4763726752
 20
22.1898822836
 30
0.0
 10
27.7418107165
 20
22.1714858124
 30
0.0
 10
28.1219675136
 20
22.1639366348
 30
0.0
 10
28.4657613165
 20
22.1759666629
 30
0.0
 10
28.6824145375
 20
22.1963134329
 30
0.0
 10
28.7849798022
 20
22.2091416173
 30
0.0
  0
SPLINE
  5
264
100
AcDbEntity
  8
0
100
AcDbSpline
 62
7
  6
BYLAYER
 70
0
 71
3
 72
9
 73
5
 74
0
 42
0.0000001
 43
0.0000001
 44
0.0000000001
 40
0.0
 40
0.0
 40
0.0
 40
0.0
 40
0.2541432767
 40
1.0
 40
1.0
 40
1.0
 40
1.0
 10
25.1226317339
 20
22.8150199986
 30
0.0
 10
25.1384968106
 20
22.788607529
 30
0.0
 10
25.2027248125
 20
22.6857776708
 30
0.0
 10
25.2742916709
 20
22.5874972499
 30
0.0
 10
25.3316771743
 20
22.5176161094
 30
0.0
  0
SPLINE
  5
265
100
AcDbEntity
  8
0
100
AcDbSpline
 62
7
  6
BYLAYER
 70
0
 71
3
 72
11
 73
7
 74
0
 42
0.0000001
 43
0.0000001
 44
0.0000000001
 40
0.0
 40
0.0
 40
0.0
 40
0.0
 40
0.2138213266
 40
0.4498136906
 40
0.7112239715
 40
1.0
 40
1.0
 40
1.0
 40
1.0
 10
32.6563733109
 20
32.1871529583
 30
0.0
 10
32.5538058346
 20
32.1743244973
 30
0.0
 10
32.3371577622
 20
32.153995099
 30
0.0
 10
31.9933671654
 20
32.1419348787
 30
0.0
 10
31.6132123497
 20
32.1495007332
 30
0.0
 10
31.3477679868
 20
32.1678934636
 30
0.0
 10
31.2087200403
 20
32.180314253
 30
0.0
  0
SPLINE
  5
266
100
AcDbEntity
  8
0
100
AcDbSpline
 62
7
  6
BYLAYER
 70
0
 71
3
 72
11
 73
7
 74
0
 42
0.0000001
 43
0.0000001
 44
0.0000000001
 40
0.0
 40
0.0
 40
0.0
 40
0.0
 40
0.2256301332
 40
0.4692376087
 40
0.7282925538
 40
1.0
 40
1.0
 40
1.0
 40
1.0
 10
31.2087200403
 20
32.180314253
 30
0.0
 10
31.0565563496
 20
32.1939066375
 30
0.0
 10
30.740703345
 20
32.2290742979
 30
0.0
 10
30.2527037497
 20
32.3003694108
 30
0.0
 10
29.736072416
 20
32.3900641315
 30
0.0
 10
29.3833451121
 20
32.4589504664
 30
0.0
 10
29.203070683
 20
32.4956274504
 30
0.0
  0
SPLINE
  5
267
100
AcDbEntity
  8
0
100
AcDbSpline
 62
7
  6
BYLAYER
 70
0
 71
3
 72
11
 73
7
 74
0
 42
0.0000001
 43
0.0000001
 44
0.0000000001
 40
0.0
 40
0.0
 40
0.0
 40
0.0
 40
0.2640660456
 40
0.5181148402
 40
0.7629991888
 40
1.0
 40
1.0
 40
1.0
 40
1.0
 10
25.4016297771
 20
24.95617184
 30
0.0
 10
25.4016297771
 20
24.7655989551
 30
0.0
 10
25.3896535291
 20
24.3915410218
 30
0.0
 10
25.3342767448
 20
23.8432690409
 30
0.0
 10
25.2456151638
 20
23.3192360552
 30
0.0
 10
25.1662578034
 20
22.9804030109
 30
0.0
 10
25.1226317339
 20
22.8150199986
 30
0.0
  0
SPLINE
  5
268
100
AcDbEntity
  8
0
100
AcDbSpline
 62
7
  6
BYLAYER
 70
0
 71
3
 72
11
 73
7
 74
0
 42
0.0000001
 43
0.0000001
 44
0.0000000001
 40
0.0
 40
0.0
 40
0.0
 40
0.0
 40
0.2458846193
 40
0.4944383586
 40
0.745831851
 40
1.0
 40
1.0
 40
1.0
 40
1.0
 10
28.7849798022
 20
32.2542440087
 30
0.0
 10
28.6866294652
 20
32.053195161
 30
0.0
 10
28.4800900814
 20
31.6531130211
 30
0.0
 10
28.1384114201
 20
31.066094856
 30
0.0
 10
27.759549367
 20
30.493214659
 30
0.0
 10
27.4822756284
 20
30.1254972354
 30
0.0
 10
27.3373265315
 20
29.9451775105
 30
0.0
  0
SPLINE
  5
269
100
AcDbEntity
  8
0
100
AcDbSpline
 62
7
  6
BYLAYER
 70
0
 71
3
 72
28
 73
24
 74
0
 42
0.0000001
 43
0.0000001
 44
0.0000000001
 40
0.0
 40
0.0
 40
0.0
 40
0.0
 40
0.0742742384
 40
0.1447240532
 40
0.2113177417
 40
0.2432417676
 40
0.2742935357
 40
0.3339612504
 40
0.3909181466
 40
0.4186350949
 40
0.445976878
 40
0.4730635444
 40
0.5000208768
 40
0.5269783096
 40
0.5540647866
 40
0.6090785305
 40
0.6660358413
 40
0.7257029231
 40
0.7567547502
 40
0.7886811273
 40
0.8552788504
 40
0.9257118973
 40
1.0
 40
1.0
 40
1.0
 40
1.0
 10
29.2730232859
 20
23.925298914
 30
0.0
 10
29.1828127191
 20
23.8732161299
 30
0.0
 10
29.0027093285
 20
23.7789388878
 30
0.0
 10
28.728021812
 20
23.6665001055
 30
0.0
 10
28.4999983294
 20
23.6000266841
 30
0.0
 10
28.3215967994
 20
23.5649334346
 30
0.0
 10
28.1510015074
 20
23.5422729919
 30
0.0
 10
27.943335847
 20
23.5350358776
 30
0.0
 10
27.7413011465
 20
23.5575853755
 30
0.0
 10
27.5882358783
 20
23.5936034198
 30
0.0
 10
27.4784886788
 20
23.629082818
 30
0.0
 10
27.3730649715
 20
23.673178351
 30
0.0
 10
27.2722356264
 20
23.7258049091
 30
0.0
 10
27.1762473237
 20
23.7868254281
 30
0.0
 10
27.0544419115
 20
23.8795823147
 30
0.0
 10
26.9147449855
 20
24.0170373961
 30
0.0
 10
26.7714998858
 20
24.2116006535
 30
0.0
 10
26.6739053509
 20
24.3950820911
 30
0.0
 10
26.608236027
 20
24.5541522773
 30
0.0
 10
26.5494377734
 20
24.7262135537
 30
0.0
 10
26.4929930819
 20
24.9569074013
 30
0.0
 10
26.4530030971
 20
25.251012902
 30
0.0
 10
26.4446143112
 20
25.4541225187
 30
0.0
 10
26.4446135247
 20
25.5583079973
 30
0.0
  0
SPLINE
  5
26A
100
AcDbEntity
  8
0
100
AcDbSpline
 62
7
  6
BYLAYER
 70
0
 71
3
 72
44
 73
40
 74
0
 42
0.0000001
 43
0.0000001
 44
0.0000000001
 40
0.0
 40
0.0
 40
0.0
 40
0.0
 40
0.0309826069
 40
0.0603698934
 40
0.0881486357
 40
0.10146535
 40
0.1144182112
 40
0.1393078581
 40
0.1630667207
 40
0.1746285036
 40
0.1860337932
 40
0.1973326667
 40
0.2085775937
 40
0.2198225667
 40
0.2311213735
 40
0.2540697275
 40
0.277828838
 40
0.302718317
 40
0.3156712569
 40
0.3289890087
 40
0.3567695539
 40
0.3861499688
 40
0.4171384802
 40
0.4496844578
 40
0.4836892472
 40
0.5190129505
 40
0.5554826605
 40
0.5928997292
 40
0.6310444039
 40
0.6696822739
 40
0.7085693018
 40
0.7474562987
 40
0.7860941978
 40
0.8242385808
 40
0.8616559656
 40
0.8981254913
 40
0.9334472362
 40
0.9674591619
 40
1.0
 40
1.0
 40
1.0
 40
1.0
 10
29.2730232859
 20
30.457318251
 30
0.0
 10
29.3632342708
 20
30.5094012765
 30
0.0
 10
29.5433384927
 20
30.6036789104
 30
0.0
 10
29.8180272903
 20
30.7161179984
 30
0.0
 10
30.0460518138
 20
30.7825914046
 30
0.0
 10
30.2244541175
 20
30.8176844606
 30
0.0
 10
30.3950501026
 20
30.8403446013
 30
0.0
 10
30.6027165608
 20
30.847581132
 30
0.0
 10
30.8047519312
 20
30.8250307489
 30
0.0
 10
30.9578176095
 20
30.7890118345
 30
0.0
 10
31.0675650654
 20
30.7535317109
 30
0.0
 10
31.1729889697
 20
30.7094353754
 30
0.0
 10
31.2738184485
 20
30.6568079407
 30
0.0
 10
31.369806821
 20
30.5957864777
 30
0.0
 10
31.4916122616
 20
30.5030282181
 30
0.0
 10
31.6313090349
 20
30.3655712367
 30
0.0
 10
31.774553617
 20
30.1710055728
 30
0.0
 10
31.872147472
 20
29.9875219927
 30
0.0
 10
31.9378161183
 20
29.8284501878
 30
0.0
 10
31.9966135917
 20
29.6563865704
 30
0.0
 10
32.0530571148
 20
29.4256944438
 30
0.0
 10
32.0930453815
 20
29.1315680708
 30
0.0
 10
32.1059549381
 20
28.819028368
 30
0.0
 10
32.0917219672
 20
28.4910465451
 30
0.0
 10
32.0504956958
 20
28.1507099115
 30
0.0
 10
31.9826858061
 20
27.80124599
 30
0.0
 10
31.8889583574
 20
27.4459720746
 30
0.0
 10
31.7701947712
 20
27.088277555
 30
0.0
 10
31.6275360542
 20
26.7315755568
 30
0.0
 10
31.4623556294
 20
26.3792708956
 30
0.0
 10
31.2762186986
 20
26.0347398593
 30
0.0
 10
31.0709127001
 20
25.7012764206
 30
0.0
 10
30.8484101146
 20
25.3820664575
 30
0.0
 10
30.6108243957
 20
25.0801705147
 30
0.0
 10
30.3604303524
 20
24.7984744114
 30
0.0
 10
30.0996338844
 20
24.5396622991
 30
0.0
 10
29.8308768283
 20
24.3061893945
 30
0.0
 10
29.5567571137
 20
24.1003443934
 30
0.0
 10
29.3677713187
 20
23.9800013897
 30
0.0
 10
29.2730232859
 20
23.925298914
 30
0.0
  0
SPLINE
  5
26B
100
AcDbEntity
  8
0
100
AcDbSpline
 62
7
  6
BYLAYER
 70
0
 71
3
 72
15
 73
11
 74
0
 42
0.0000001
 43
0.0000001
 44
0.0000000001
 40
0.0
 40
0.0
 40
0.0
 40
0.0
 40
0.1098775931
 40
0.2234861512
 40
0.3412133349
 40
0.4633930863
 40
0.5902737579
 40
0.722003028
 40
0.8586240371
 40
1.0
 40
1.0
 40
1.0
 40
1.0
 10
31.2087200403
 20
32.180314253
 30
0.0
 10
31.1344984527
 20
32.1869442733
 30
0.0
 10
30.9827616871
 20
32.1927509329
 30
0.0
 10
30.7514156131
 20
32.1798756718
 30
0.0
 10
30.5138396517
 20
32.1455766651
 30
0.0
 10
30.2710997424
 20
32.0900844864
 30
0.0
 10
30.0241921852
 20
32.013635132
 30
0.0
 10
29.7741214243
 20
31.9165819377
 30
0.0
 10
29.5220067385
 20
31.7993356651
 30
0.0
 10
29.3560568695
 20
31.709598492
 30
0.0
 10
29.2730232859
 20
31.6616593163
 30
0.0
  0
SPLINE
  5
26C
100
AcDbEntity
  8
0
100
AcDbSpline
 62
7
  6
BYLAYER
 70
0
 71
3
 72
13
 73
9
 74
0
 42
0.0000001
 43
0.0000001
 44
0.0000000001
 40
0.0
 40
0.0
 40
0.0
 40
0.0
 40
0.1142644905
 40
0.2321128125
 40
0.3532889632
 40
0.4775602415
 40
0.7343157112
 40
1.0
 40
1.0
 40
1.0
 40
1.0
 10
29.2730232859
 20
31.6616593163
 30
0.0
 10
29.187226889
 20
31.6121250391
 30
0.0
 10
29.0158108021
 20
31.5064621197
 30
0.0
 10
28.7638412415
 20
31.3320698432
 30
0.0
 10
28.5140539517
 20
31.1399692058
 30
0.0
 10
28.1817869926
 20
30.8583535064
 30
0.0
 10
27.7793148784
 20
30.4668771881
 30
0.0
 10
27.4816469337
 20
30.124715126
 30
0.0
 10
27.3373265315
 20
29.9451775105
 30
0.0
  0
SPLINE
  5
26D
100
AcDbEntity
  8
0
100
AcDbSpline
 62
7
  6
BYLAYER
 70
0
 71
3
 72
17
 73
13
 74
0
 42
0.0000001
 43
0.0000001
 44
0.0000000001
 40
0.0
 40
0.0
 40
0.0
 40
0.0
 40
0.1298380129
 40
0.2611677553
 40
0.3924976382
 40
0.5223360801
 40
0.6492435119
 40
0.7718862678
 40
0.8312472101
 40
0.8891277832
 40
0.9454196043
 40
1.0
 40
1.0
 40
1.0
 40
1.0
 10
27.3373265315
 20
29.9451775105
 30
0.0
 10
27.1896725702
 20
29.7614928775
 30
0.0
 10
26.9072693569
 20
29.3800363012
 30
0.0
 10
26.5277703775
 20
28.7763346894
 30
0.0
 10
26.1946833369
 20
28.1457853852
 30
0.0
 10
25.913674365
 20
27.4990872571
 30
0.0
 10
25.6894981107
 20
26.8471952956
 30
0.0
 10
25.5516955908
 20
26.3028723374
 30
0.0
 10
25.4739409694
 20
25.8743127898
 30
0.0
 10
25.4324725833
 20
25.5619364331
 30
0.0
 10
25.4074293595
 20
25.2565268635
 30
0.0
 10
25.4016297771
 20
25.055242384
 30
0.0
 10
25.4016297771
 20
24.95617184
 30
0.0
  0
SPLINE
  5
26E
100
AcDbEntity
  8
0
100
AcDbSpline
 62
7
  6
BYLAYER
 70
0
 71
3
 72
23
 73
19
 74
0
 42
0.0000001
 43
0.0000001
 44
0.0000000001
 40
0.0
 40
0.0
 40
0.0
 40
0.0
 40
0.0772103336
 40
0.1518235751
 40
0.2237646168
 40
0.2930593587
 40
0.3597892382
 40
0.4240805615
 40
0.4861128697
 40
0.5461338393
 40
0.6044503639
 40
0.6614293115
 40
0.7174850172
 40
0.7730676446
 40
0.828647703
 40
0.8847057637
 40
0.9416971716
 40
1.0
 40
1.0
 40
1.0
 40
1.0
 10
25.4016297771
 20
24.95617184
 30
0.0
 10
25.4016297771
 20
24.8602915783
 30
0.0
 10
25.4068899087
 20
24.6717035694
 30
0.0
 10
25.4314075204
 20
24.3947397864
 30
0.0
 10
25.4723886143
 20
24.1296411414
 30
0.0
 10
25.5296356448
 20
23.877580429
 30
0.0
 10
25.6029543219
 20
23.6396112658
 30
0.0
 10
25.6920243385
 20
23.4167295825
 30
0.0
 10
25.7965449214
 20
23.2099194554
 30
0.0
 10
25.9160613364
 20
23.0200707108
 30
0.0
 10
26.0501311452
 20
22.8480534166
 30
0.0
 10
26.1981650885
 20
22.6946277713
 30
0.0
 10
26.3595621028
 20
22.5605483721
 30
0.0
 10
26.5335647894
 20
22.4464071234
 30
0.0
 10
26.7194100948
 20
22.352772169
 30
0.0
 10
26.9162450824
 20
22.2800344798
 30
0.0
 10
27.1231181394
 20
22.2285546221
 30
0.0
 10
27.2652128644
 20
22.2087446373
 30
0.0
 10
27.3373265315
 20
22.202302912
 30
0.0
  0
SPLINE
  5
26F
100
AcDbEntity
  8
0
100
AcDbSpline
 62
7
  6
BYLAYER
 70
0
 71
3
 72
12
 73
8
 74
0
 42
0.0000001
 43
0.0000001
 44
0.0000000001
 40
0.0
 40
0.0
 40
0.0
 40
0.0
 40
0.225293683
 40
0.3435923825
 40
0.4660018462
 40
0.7238780388
 40
1.0
 40
1.0
 40
1.0
 40
1.0
 10
27.3373265315
 20
22.202302912
 30
0.0
 10
27.4767314882
 20
22.1898502318
 30
0.0
 10
27.6916004078
 20
22.1911953807
 30
0.0
 10
27.9789046736
 20
22.2280571096
 30
0.0
 10
28.2824988514
 20
22.2909295829
 30
0.0
 10
28.6716867454
 20
22.4169450387
 30
0.0
 10
28.9729714881
 20
22.5577501738
 30
0.0
 10
29.1243523866
 20
22.6384255551
 30
0.0
  0
SPLINE
  5
270
100
AcDbEntity
  8
0
100
AcDbSpline
 62
7
  6
BYLAYER
 70
0
 71
3
 72
11
 73
7
 74
0
 42
0.0000001
 43
0.0000001
 44
0.0000000001
 40
0.0
 40
0.0
 40
0.0
 40
0.0
 40
0.2477719659
 40
0.4973914062
 40
0.7482964104
 40
1.0
 40
1.0
 40
1.0
 40
1.0
 10
27.3373265315
 20
29.9451775105
 30
0.0
 10
27.1909889137
 20
29.7631304364
 30
0.0
 10
26.8857109508
 20
29.4067791007
 30
0.0
 10
26.3955050516
 20
28.8990333594
 30
0.0
 10
25.8764729965
 20
28.4154469209
 30
0.0
 10
25.5153288526
 20
28.1085060769
 30
0.0
 10
25.3316771743
 20
27.9582629151
 30
0.0
  0
SPLINE
  5
271
100
AcDbEntity
  8
0
100
AcDbSpline
 62
7
  6
BYLAYER
 70
0
 71
3
 72
11
 73
7
 74
0
 42
0.0000001
 43
0.0000001
 44
0.0000000001
 40
0.0
 40
0.0
 40
0.0
 40
0.0
 40
0.2597211279
 40
0.513817963
 40
0.760968319
 40
1.0
 40
1.0
 40
1.0
 40
1.0
 10
25.1226317339
 20
27.4194755842
 30
0.0
 10
25.1652336819
 20
27.2087835568
 30
0.0
 10
25.2427118227
 20
26.7905327188
 30
0.0
 10
25.3318984443
 20
26.1668527766
 30
0.0
 10
25.3882552957
 20
25.5564791728
 30
0.0
 10
25.4016297771
 20
25.1540043393
 30
0.0
 10
25.4016297771
 20
24.95617184
 30
0.0
  0
SPLINE
  5
272
100
AcDbEntity
  8
0
100
AcDbSpline
 62
7
  6
BYLAYER
 70
0
 71
3
 72
21
 73
17
 74
0
 42
0.0000001
 43
0.0000001
 44
0.0000000001
 40
0.0
 40
0.0
 40
0.0
 40
0.0
 40
0.1502877632
 40
0.2902492028
 40
0.3565566648
 40
0.4205556354
 40
0.4824388021
 40
0.542457989
 40
0.6009187958
 40
0.6581781813
 40
0.7146338379
 40
0.7707120596
 40
0.8268563148
 40
0.8835163958
 40
0.9411143484
 40
1.0
 40
1.0
 40
1.0
 40
1.0
 10
33.1415525286
 20
29.596590654
 30
0.0
 10
33.1355026831
 20
29.7745691972
 30
0.0
 10
33.1050615782
 20
30.118071397
 30
0.0
 10
33.0133385666
 20
30.5320311807
 30
0.0
 10
32.9086915047
 20
30.8350171631
 30
0.0
 10
32.8170998294
 20
31.043814822
 30
0.0
 10
32.7113274438
 20
31.2373743796
 30
0.0
 10
32.5917817875
 20
31.4149220326
 30
0.0
 10
32.4588944774
 20
31.5757044645
 30
0.0
 10
32.3132010079
 20
31.7190552582
 30
0.0
 10
32.1552655042
 20
31.8443263328
 30
0.0
 10
31.985772307
 20
31.9510077732
 30
0.0
 10
31.8054089883
 20
32.0386095618
 30
0.0
 10
31.6149395585
 20
32.1067967585
 30
0.0
 10
31.4152181391
 20
32.1552564498
 30
0.0
 10
31.2782190229
 20
32.1741060906
 30
0.0
 10
31.2087200403
 20
32.180314253
 30
0.0
  0
SPLINE
  5
273
100
AcDbEntity
  8
0
100
AcDbSpline
 62
7
  6
BYLAYER
 70
0
 71
3
 72
15
 73
11
 74
0
 42
0.0000001
 43
0.0000001
 44
0.0000000001
 40
0.0
 40
0.0
 40
0.0
 40
0.0
 40
0.148541072
 40
0.2895046219
 40
0.4227341418
 40
0.548638914
 40
0.667996025
 40
0.7819381288
 40
0.8919876537
 40
1.0
 40
1.0
 40
1.0
 40
1.0
 10
19.4048828056
 20
36.1545629248
 30
0.0
 10
19.4950691515
 20
36.206631725
 30
0.0
 10
19.6751731424
 20
36.3008854368
 30
0.0
 10
19.9498697692
 20
36.41336649
 30
0.0
 10
20.2197173507
 20
36.4920200009
 30
0.0
 10
20.4820826921
 20
36.5360369454
 30
0.0
 10
20.7345600322
 20
36.5448020689
 30
0.0
 10
20.9747335047
 20
36.5180397517
 30
0.0
 10
21.2000259304
 20
36.4557268543
 30
0.0
 10
21.3392687981
 20
36.3905354237
 30
0.0
 10
21.4048451369
 20
36.3526679946
 30
0.0
  0
SPLINE
  5
274
100
AcDbEntity
  8
0
100
AcDbSpline
 62
7
  6
BYLAYER
 70
0
 71
3
 72
20
 73
16
 74
0
 42
0.0000001
 43
0.0000001
 44
0.0000000001
 40
0.0
 40
0.0
 40
0.0
 40
0.0
 40
0.0426767107
 40
0.0896633513
 40
0.1408840106
 40
0.19600459
 40
0.2545518949
 40
0.3159806299
 40
0.445286229
 40
0.5804365723
 40
0.7188825679
 40
0.7888774174
 40
0.8591267199
 40
0.9295769856
 40
1.0
 40
1.0
 40
1.0
 40
1.0
 10
5.7928298438
 20
38.4379098939
 30
0.0
 10
5.7572990134
 20
38.4584242149
 30
0.0
 10
5.6865763239
 20
38.5084708515
 30
0.0
 10
5.5879679782
 20
38.601803409
 30
0.0
 10
5.4932988931
 20
38.7151647519
 30
0.0
 10
5.4038837513
 20
38.8463101103
 30
0.0
 10
5.3210531503
 20
38.9930630817
 30
0.0
 10
5.2192278851
 20
39.21019976
 30
0.0
 10
5.1166379959
 20
39.5073650731
 30
0.0
 10
5.0405325566
 20
39.888323633
 30
0.0
 10
5.0256277353
 20
40.2201286832
 30
0.0
 10
5.0519840204
 20
40.4871671322
 30
0.0
 10
5.0934951099
 20
40.6858963454
 30
0.0
 10
5.158991079
 20
40.8785342625
 30
0.0
 10
5.218795222
 20
41.0005639295
 30
0.0
 10
5.2526460813
 20
41.0591956632
 30
0.0
  0
SPLINE
  5
275
100
AcDbEntity
  8
0
100
AcDbSpline
 62
7
  6
BYLAYER
 70
0
 71
3
 72
25
 73
21
 74
0
 42
0.0000001
 43
0.0000001
 44
0.0000000001
 40
0.0
 40
0.0
 40
0.0
 40
0.0
 40
0.0213320053
 40
0.0428926809
 40
0.0648980502
 40
0.0875435128
 40
0.1353186058
 40
0.1872193251
 40
0.2436572869
 40
0.3046047372
 40
0.3696912864
 40
0.4382877365
 40
0.5095741404
 40
0.5825983696
 40
0.6563287266
 40
0.7297052615
 40
0.8016837925
 40
0.8712705012
 40
0.9376265394
 40
1.0
 40
1.0
 40
1.0
 40
1.0
 10
11.6987684506
 20
33.5848282225
 30
0.0
 10
11.6588401942
 20
33.6078814549
 30
0.0
 10
11.5814475277
 20
33.6594554037
 30
0.0
 10
11.4752080834
 20
33.7515666583
 30
0.0
 10
11.3791335935
 20
33.8581052217
 30
0.0
 10
11.2633187699
 20
34.021345169
 30
0.0
 10
11.147348015
 20
34.261187314
 30
0.0
 10
11.0589531497
 20
34.5884256805
 30
0.0
 10
11.0195712675
 20
34.953468497
 30
0.0
 10
11.0296392825
 20
35.3487131996
 30
0.0
 10
11.0887035707
 20
35.7660357085
 30
0.0
 10
11.1954565728
 20
36.1967106486
 30
0.0
 10
11.3476240338
 20
36.6316499799
 30
0.0
 10
11.5419520869
 20
37.061617307
 30
0.0
 10
11.774286164
 20
37.4774580428
 30
0.0
 10
12.0396855377
 20
37.8703043184
 30
0.0
 10
12.3324980914
 20
38.2317436162
 30
0.0
 10
12.6465069552
 20
38.5541840522
 30
0.0
 10
12.9750248551
 20
38.8306075409
 30
0.0
 10
13.2069904355
 20
38.9856520903
 30
0.0
 10
13.3237391694
 20
39.0530566008
 30
0.0
  0
SPLINE
  5
276
100
AcDbEntity
  8
0
100
AcDbSpline
 62
7
  6
BYLAYER
 70
0
 71
3
 72
15
 73
11
 74
0
 42
0.0000001
 43
0.0000001
 44
0.0000000001
 40
0.0
 40
0.0
 40
0.0
 40
0.0
 40
0.148525313
 40
0.2894994283
 40
0.4227400566
 40
0.5486444655
 40
0.6679963041
 40
0.7819408817
 40
0.8919886821
 40
1.0
 40
1.0
 40
1.0
 40
1.0
 10
13.3237391694
 20
39.0530566008
 30
0.0
 10
13.3970076947
 20
39.0953579511
 30
0.0
 10
13.5433423405
 20
39.1719313157
 30
0.0
 10
13.7665326708
 20
39.2633321096
 30
0.0
 10
13.9857955872
 20
39.3272383946
 30
0.0
 10
14.1989695672
 20
39.3630137826
 30
0.0
 10
14.4041052169
 20
39.3701091342
 30
0.0
 10
14.5992460978
 20
39.3483885979
 30
0.0
 10
14.7822905367
 20
39.2977384751
 30
0.0
 10
14.8954276373
 20
39.2447826476
 30
0.0
 10
14.9487098882
 20
39.2140192678
 30
0.0
  0
SPLINE
  5
277
100
AcDbEntity
  8
0
100
AcDbSpline
 62
7
  6
BYLAYER
 70
0
 71
3
 72
20
 73
16
 74
0
 42
0.0000001
 43
0.0000001
 44
0.0000000001
 40
0.0
 40
0.0
 40
0.0
 40
0.0
 40
0.0558481235
 40
0.1141970646
 40
0.1748110423
 40
0.2373903566
 40
0.3669920121
 40
0.4999674881
 40
0.6329413955
 40
0.6983979707
 40
0.7626036362
 40
0.8251775952
 40
0.8858009239
 40
0.9441788648
 40
1.0
 40
1.0
 40
1.0
 40
1.0
 10
16.5764685488
 20
31.7454471401
 30
0.0
 10
16.5764679164
 20
31.8384576736
 30
0.0
 10
16.5847415317
 20
32.0287126804
 30
0.0
 10
16.6197562205
 20
32.3179802671
 30
0.0
 10
16.6774108635
 20
32.6150303116
 30
0.0
 10
16.7848639454
 20
33.0223545193
 30
0.0
 10
16.9723486481
 20
33.5319282579
 30
0.0
 10
17.2698162846
 20
34.1211611711
 30
0.0
 10
17.5728339816
 20
34.584050185
 30
0.0
 10
17.8434802134
 20
34.9279287166
 30
0.0
 10
18.0562927433
 20
35.1673918393
 30
0.0
 10
18.2779848871
 20
35.3873779764
 30
0.0
 10
18.5064476365
 20
35.5858650454
 30
0.0
 10
18.739484995
 20
35.7608140419
 30
0.0
 10
18.9001062907
 20
35.863123342
 30
0.0
 10
18.9806169705
 20
35.9096059272
 30
0.0
  0
SPLINE
  5
278
100
AcDbEntity
  8
0
100
AcDbSpline
 62
7
  6
BYLAYER
 70
0
 71
3
 72
14
 73
10
 74
0
 42
0.0000001
 43
0.0000001
 44
0.0000000001
 40
0.0
 40
0.0
 40
0.0
 40
0.0
 40
0.2903730112
 40
0.4283251983
 40
0.5597521747
 40
0.683505107
 40
0.7985360923
 40
0.9040931448
 40
1.0
 40
1.0
 40
1.0
 40
1.0
 10
6.5423329873
 20
41.9475866914
 30
0.0
 10
6.6620280774
 20
41.9787821584
 30
0.0
 10
6.8419731295
 20
42.0132708211
 30
0.0
 10
7.0797330036
 20
42.0331754473
 30
0.0
 10
7.247381718
 20
42.0345543906
 30
0.0
 10
7.4048328491
 20
42.0225485322
 30
0.0
 10
7.5496035655
 20
41.9972187105
 30
0.0
 10
7.6791021103
 20
41.958539807
 30
0.0
 10
7.7574407157
 20
41.9224440154
 30
0.0
 10
7.7928215169
 20
41.9020163163
 30
0.0
  0
SPLINE
  5
279
100
AcDbEntity
  8
0
100
AcDbSpline
 62
7
  6
BYLAYER
 70
0
 71
3
 72
13
 73
9
 74
0
 42
0.0000001
 43
0.0000001
 44
0.0000000001
 40
0.0
 40
0.0
 40
0.0
 40
0.0
 40
0.1269749569
 40
0.2539892548
 40
0.3806446122
 40
0.5068186772
 40
0.7564167954
 40
1.0
 40
1.0
 40
1.0
 40
1.0
 10
5.2526460813
 20
41.0591956632
 30
0.0
 10
5.2866355957
 20
41.1180675559
 30
0.0
 10
5.3627471084
 20
41.2313197874
 30
0.0
 10
5.4975045273
 20
41.3848702016
 30
0.0
 10
5.6496143449
 20
41.5205447457
 30
0.0
 10
5.8687891258
 20
41.6772161773
 30
0.0
 10
6.1649433576
 20
41.8302654136
 30
0.0
 10
6.4161398808
 20
41.9146976825
 30
0.0
 10
6.5423329873
 20
41.9475866914
 30
0.0
  0
SPLINE
  5
27A
100
AcDbEntity
  8
0
100
AcDbSpline
 62
7
  6
BYLAYER
 70
0
 71
3
 72
15
 73
11
 74
0
 42
0.0000001
 43
0.0000001
 44
0.0000000001
 40
0.0
 40
0.0
 40
0.0
 40
0.0
 40
0.1080123463
 40
0.2180618712
 40
0.332003975
 40
0.451361086
 40
0.5772658582
 40
0.7104953781
 40
0.851458928
 40
1.0
 40
1.0
 40
1.0
 40
1.0
 10
34.2341319329
 20
19.7083085603
 30
0.0
 10
34.2997082716
 20
19.6704411313
 30
0.0
 10
34.4389511394
 20
19.6052497007
 30
0.0
 10
34.6642435651
 20
19.5429368032
 30
0.0
 10
34.9044170376
 20
19.516174486
 30
0.0
 10
35.1568943776
 20
19.5249396096
 30
0.0
 10
35.419259719
 20
19.568956554
 30
0.0
 10
35.6891073005
 20
19.647610065
 30
0.0
 10
35.9638039274
 20
19.7600911182
 30
0.0
 10
36.1439079183
 20
19.8543448299
 30
0.0
 10
36.2340942641
 20
19.9064136302
 30
0.0
  0
SPLINE
  5
27B
100
AcDbEntity
  8
0
100
AcDbSpline
 62
7
  6
BYLAYER
 70
0
 71
3
 72
16
 73
12
 74
0
 42
0.0000001
 43
0.0000001
 44
0.0000000001
 40
0.0
 40
0.0
 40
0.0
 40
0.0
 40
0.1080063215
 40
0.218048366
 40
0.3319786943
 40
0.4513301755
 40
0.5134424923
 40
0.5773017415
 40
0.7105181524
 40
0.8514014732
 40
1.0
 40
1.0
 40
1.0
 40
1.0
 10
17.4049204744
 20
29.4244385179
 30
0.0
 10
17.3393418751
 20
29.4623072523
 30
0.0
 10
17.2132444984
 20
29.5502782999
 30
0.0
 10
17.0466470495
 20
29.7142545684
 30
0.0
 10
16.9033537384
 20
29.9088360093
 30
0.0
 10
16.8057770826
 20
30.0923197362
 30
0.0
 10
16.7401060142
 20
30.2513906196
 30
0.0
 10
16.6812850638
 20
30.4234463394
 30
0.0
 10
16.6248702055
 20
30.654149053
 30
0.0
 10
16.5848514104
 20
30.9482539005
 30
0.0
 10
16.5764768773
 20
31.1513667015
 30
0.0
 10
16.5764761271
 20
31.2555544508
 30
0.0
  0
SPLINE
  5
27C
100
AcDbEntity
  8
0
100
AcDbSpline
 62
7
  6
BYLAYER
 70
0
 71
3
 72
20
 73
16
 74
0
 42
0.0000001
 43
0.0000001
 44
0.0000000001
 40
0.0
 40
0.0
 40
0.0
 40
0.0
 40
0.0558207231
 40
0.114197438
 40
0.1748193326
 40
0.2373923585
 40
0.3015973868
 40
0.3670533143
 40
0.5000269092
 40
0.6330036947
 40
0.7626074133
 40
0.8251876539
 40
0.8858023473
 40
0.9441517107
 40
1.0
 40
1.0
 40
1.0
 40
1.0
 10
36.6583600992
 20
20.1513706277
 30
0.0
 10
36.7388701874
 20
20.1978528713
 30
0.0
 10
36.8994895687
 20
20.3001601028
 30
0.0
 10
37.1325228019
 20
20.4751060994
 30
0.0
 10
37.3609815615
 20
20.6735886197
 30
0.0
 10
37.5826707437
 20
20.893570632
 30
0.0
 10
37.7954823454
 20
21.1330296412
 30
0.0
 10
38.0661283185
 20
21.4769050281
 30
0.0
 10
38.3691483765
 20
21.939793196
 30
0.0
 10
38.666620796
 20
22.529029455
 30
0.0
 10
38.8541095881
 20
23.0386094273
 30
0.0
 10
38.9615645532
 20
23.4459395344
 30
0.0
 10
39.019220492
 20
23.7429928502
 30
0.0
 10
39.0542353525
 20
24.0322626172
 30
0.0
 10
39.0625092343
 20
24.2225186034
 30
0.0
 10
39.0625085209
 20
24.3155294161
 30
0.0
  0
SPLINE
  5
27D
100
AcDbEntity
  8
0
100
AcDbSpline
 62
7
  6
BYLAYER
 70
0
 71
3
 72
16
 73
12
 74
0
 42
0.0000001
 43
0.0000001
 44
0.0000000001
 40
0.0
 40
0.0
 40
0.0
 40
0.0
 40
0.1485985268
 40
0.2894818476
 40
0.4226982585
 40
0.4865575077
 40
0.5486698245
 40
0.6680213057
 40
0.781951634
 40
0.8919936785
 40
1.0
 40
1.0
 40
1.0
 40
1.0
 10
39.0625009427
 20
24.8054221042
 30
0.0
 10
39.0625001924
 20
24.9096098535
 30
0.0
 10
39.0541256593
 20
25.1127226545
 30
0.0
 10
39.0141068642
 20
25.4068275019
 30
0.0
 10
38.957692006
 20
25.6375302155
 30
0.0
 10
38.8988710556
 20
25.8095859354
 30
0.0
 10
38.8331999872
 20
25.9686568187
 30
0.0
 10
38.7356233313
 20
26.1521405456
 30
0.0
 10
38.5923300202
 20
26.3467219866
 30
0.0
 10
38.4257325713
 20
26.5106982551
 30
0.0
 10
38.2996351947
 20
26.5986693027
 30
0.0
 10
38.2340565954
 20
26.6365380371
 30
0.0
  0
SPLINE
  5
27E
100
AcDbEntity
  8
0
100
AcDbSpline
 62
7
  6
BYLAYER
 70
0
 71
3
 72
30
 73
26
 74
0
 42
0.0000001
 43
0.0000001
 44
0.0000000001
 40
0.0
 40
0.0
 40
0.0
 40
0.0
 40
0.0324251645
 40
0.0662556994
 40
0.1374672165
 40
0.2124024642
 40
0.2895101247
 40
0.3670789522
 40
0.4433667846
 40
0.5167183952
 40
0.585696794
 40
0.6492268477
 40
0.6787862641
 40
0.7068401686
 40
0.7586242015
 40
0.7827482617
 40
0.8059775472
 40
0.8286281848
 40
0.8510592681
 40
0.8736492769
 40
0.8967634406
 40
0.9207266039
 40
0.9457984494
 40
0.9721775577
 40
1.0
 40
1.0
 40
1.0
 40
1.0
 10
36.6583600992
 20
25.7035870642
 30
0.0
 10
36.5829319121
 20
25.66003884
 30
0.0
 10
36.4323881139
 20
25.5647272368
 30
0.0
 10
36.1353494986
 20
25.3449593834
 30
0.0
 10
35.7770934836
 20
25.0182156462
 30
0.0
 10
35.3838771696
 20
24.5638482506
 30
0.0
 10
35.0328016545
 20
24.0553137451
 30
0.0
 10
34.7355379763
 20
23.5094675292
 30
0.0
 10
34.5018862074
 20
22.9443596105
 30
0.0
 10
34.3395727654
 20
22.3785722562
 30
0.0
 10
34.2539768438
 20
21.8307253961
 30
0.0
 10
34.2489444239
 20
21.39340782
 30
0.0
 10
34.2883965019
 20
21.0699102567
 30
0.0
 10
34.351956067
 20
20.7827606718
 30
0.0
 10
34.4552296478
 20
20.5198639481
 30
0.0
 10
34.600817316
 20
20.2959786291
 30
0.0
 10
34.7253691394
 20
20.1541556661
 30
0.0
 10
34.8667355857
 20
20.0359984515
 30
0.0
 10
35.023639407
 20
19.9426821318
 30
0.0
 10
35.1945651485
 20
19.8751543941
 30
0.0
 10
35.3778334806
 20
19.83394495
 30
0.0
 10
35.5717164976
 20
19.8193565733
 30
0.0
 10
35.7744899407
 20
19.8312492608
 30
0.0
 10
35.9844241935
 20
19.8694926905
 30
0.0
 10
36.124258133
 20
19.9111027326
 30
0.0
 10
36.1947839555
 20
19.9358253485
 30
0.0
  0
SPLINE
  5
27F
100
AcDbEntity
  8
0
100
AcDbSpline
 62
7
  6
BYLAYER
 70
0
 71
3
 72
9
 73
5
 74
0
 42
0.0000001
 43
0.0000001
 44
0.0000000001
 40
0.0
 40
0.0
 40
0.0
 40
0.0
 40
0.4871305312
 40
1.0
 40
1.0
 40
1.0
 40
1.0
 10
36.1947839555
 20
19.9358253485
 30
0.0
 10
36.2732075481
 20
19.9633165041
 30
0.0
 10
36.4312645023
 20
20.0283450598
 30
0.0
 10
36.5825884392
 20
20.1076241006
 30
0.0
 10
36.6583600992
 20
20.1513706277
 30
0.0
  0
SPLINE
  5
280
100
AcDbEntity
  8
0
100
AcDbSpline
 62
7
  6
BYLAYER
 70
0
 71
3
 72
9
 73
5
 74
0
 42
0.0000001
 43
0.0000001
 44
0.0000000001
 40
0.0
 40
0.0
 40
0.0
 40
0.0
 40
0.2439417156
 40
1.0
 40
1.0
 40
1.0
 40
1.0
 10
16.5764761271
 20
31.2555544508
 30
0.0
 10
16.5764758511
 20
31.2938850634
 30
0.0
 10
16.5788658615
 20
31.4510105199
 30
0.0
 10
16.590569351
 20
31.6079587608
 30
0.0
 10
16.603996731
 20
31.7259970997
 30
0.0
  0
SPLINE
  5
281
100
AcDbEntity
  8
0
100
AcDbSpline
 62
7
  6
BYLAYER
 70
0
 71
3
 72
15
 73
11
 74
0
 42
0.0000001
 43
0.0000001
 44
0.0000000001
 40
0.0
 40
0.0
 40
0.0
 40
0.0
 40
0.1175912738
 40
0.2414453795
 40
0.3696738393
 40
0.5001396408
 40
0.6305847208
 40
0.7587569883
 40
0.882510076
 40
1.0
 40
1.0
 40
1.0
 40
1.0
 10
16.603996731
 20
31.7259970997
 30
0.0
 10
16.6259024026
 20
31.9185669891
 30
0.0
 10
16.695852238
 20
32.3113900935
 30
0.0
 10
16.8671219735
 20
32.8971572737
 30
0.0
 10
17.1035299823
 20
33.4827454753
 30
0.0
 10
17.3990110041
 20
34.0530402695
 30
0.0
 10
17.7459698498
 20
34.5934537831
 30
0.0
 10
18.1355475921
 20
35.0901054327
 30
0.0
 10
18.5576702948
 20
35.5302747156
 30
0.0
 10
18.8631336748
 20
35.786466639
 30
0.0
 10
19.0190741763
 20
35.9012745606
 30
0.0
  0
SPLINE
  5
282
100
AcDbEntity
  8
0
100
AcDbSpline
 62
7
  6
BYLAYER
 70
0
 71
3
 72
9
 73
5
 74
0
 42
0.0000001
 43
0.0000001
 44
0.0000000001
 40
0.0
 40
0.0
 40
0.0
 40
0.0
 40
0.2560879583
 40
1.0
 40
1.0
 40
1.0
 40
1.0
 10
19.0190741763
 20
35.9012745606
 30
0.0
 10
19.0508090809
 20
35.9246387181
 30
0.0
 10
19.1759034596
 20
36.0142623435
 30
0.0
 10
19.3057430681
 20
36.0973249123
 30
0.0
 10
19.4048828056
 20
36.1545629248
 30
0.0
  0
SPLINE
  5
283
100
AcDbEntity
  8
0
100
AcDbSpline
 62
7
  6
BYLAYER
 70
0
 71
3
 72
25
 73
21
 74
0
 42
0.0000001
 43
0.0000001
 44
0.0000000001
 40
0.0
 40
0.0
 40
0.0
 40
0.0
 40
0.0623762279
 40
0.1287254749
 40
0.198312566
 40
0.2702901879
 40
0.343667126
 40
0.4173987979
 40
0.4904230993
 40
0.5617095994
 40
0.6303073028
 40
0.6953955392
 40
0.7563433391
 40
0.8127807237
 40
0.8646816877
 40
0.9124572118
 40
0.9351017743
 40
0.9571074821
 40
0.9786678079
 40
1.0
 40
1.0
 40
1.0
 40
1.0
 10
36.2340942641
 20
26.4384329672
 30
0.0
 10
36.0903969398
 20
26.3554697735
 30
0.0
 10
35.8049029843
 20
26.1646604286
 30
0.0
 10
35.4005888991
 20
25.8244418569
 30
0.0
 10
35.01412509
 20
25.4276104049
 30
0.0
 10
34.653739997
 20
24.9827616789
 30
0.0
 10
34.3270833373
 20
24.4992629384
 30
0.0
 10
34.0411250587
 20
23.9874568622
 30
0.0
 10
33.8019584808
 20
23.4582578897
 30
0.0
 10
33.6146791555
 20
22.9229423593
 30
0.0
 10
33.4832739949
 20
22.3928764333
 30
0.0
 10
33.4105672011
 20
21.8792400955
 30
0.0
 10
33.3981871846
 20
21.3927798495
 30
0.0
 10
33.4466724725
 20
20.9434964625
 30
0.0
 10
33.5554644001
 20
20.540745602
 30
0.0
 10
33.6981626244
 20
20.2455316655
 30
0.0
 10
33.8407483731
 20
20.0446536797
 30
0.0
 10
33.9589638646
 20
19.91350697
 30
0.0
 10
34.0897285728
 20
19.8001436702
 30
0.0
 10
34.1849908651
 20
19.7366853488
 30
0.0
 10
34.2341319329
 20
19.7083085603
 30
0.0
  0
SPLINE
  5
284
100
AcDbEntity
  8
0
100
AcDbSpline
 62
7
  6
BYLAYER
 70
0
 71
3
 72
9
 73
5
 74
0
 42
0.0000001
 43
0.0000001
 44
0.0000000001
 40
0.0
 40
0.0
 40
0.0
 40
0.0
 40
0.2599537596
 40
1.0
 40
1.0
 40
1.0
 40
1.0
 10
39.0625085209
 20
24.3155294161
 30
0.0
 10
39.0625081811
 20
24.3598347627
 30
0.0
 10
39.0589615398
 20
24.5302286712
 30
0.0
 10
39.0408236519
 20
24.7004965275
 30
0.0
 10
39.0174502407
 20
24.8244420678
 30
0.0
  0
SPLINE
  5
285
100
AcDbEntity
  8
0
100
AcDbSpline
 62
7
  6
BYLAYER
 70
0
 71
3
 72
23
 73
19
 74
0
 42
0.0000001
 43
0.0000001
 44
0.0000000001
 40
0.0
 40
0.0
 40
0.0
 40
0.0
 40
0.0684618293
 40
0.1336171748
 40
0.1957192598
 40
0.2551677121
 40
0.3124942322
 40
0.3683596606
 40
0.423520389
 40
0.4787834614
 40
0.5349491262
 40
0.5927578796
 40
0.6528330326
 40
0.7156691993
 40
0.7816378536
 40
0.8509890786
 40
0.923813125
 40
1.0
 40
1.0
 40
1.0
 40
1.0
 10
39.0174502407
 20
24.8244420678
 30
0.0
 10
39.004490229
 20
24.8931669807
 30
0.0
 10
38.9731526846
 20
25.026268703
 30
0.0
 10
38.9078190965
 20
25.215611183
 30
0.0
 10
38.8256513711
 20
25.3882195231
 30
0.0
 10
38.7272323023
 20
25.5427709965
 30
0.0
 10
38.6131907517
 20
25.6780326734
 30
0.0
 10
38.4843288572
 20
25.7928391521
 30
0.0
 10
38.3416911985
 20
25.886255937
 30
0.0
 10
38.1863991864
 20
25.9573870453
 30
0.0
 10
38.0198076677
 20
26.0057906166
 30
0.0
 10
37.8432571146
 20
26.0310321427
 30
0.0
 10
37.6581748154
 20
26.0331522121
 30
0.0
 10
37.465945598
 20
26.0121768818
 30
0.0
 10
37.2679509112
 20
25.9683575712
 30
0.0
 10
37.0655930057
 20
25.9020570878
 30
0.0
 10
36.8604380491
 20
25.8138266142
 30
0.0
 10
36.7257609109
 20
25.7425007087
 30
0.0
 10
36.6583600992
 20
25.7035870642
 30
0.0
  0
SPLINE
  5
286
100
AcDbEntity
  8
0
100
AcDbSpline
 62
7
  6
BYLAYER
 70
0
 71
3
 72
15
 73
11
 74
0
 42
0.0000001
 43
0.0000001
 44
0.0000000001
 40
0.0
 40
0.0
 40
0.0
 40
0.0
 40
0.1080123463
 40
0.2180618712
 40
0.332003975
 40
0.451361086
 40
0.5772658582
 40
0.7104953781
 40
0.851458928
 40
1.0
 40
1.0
 40
1.0
 40
1.0
 10
38.2340565954
 20
26.6365380371
 30
0.0
 10
38.1684802566
 20
26.6744054661
 30
0.0
 10
38.0292373889
 20
26.7395968967
 30
0.0
 10
37.8039449631
 20
26.8019097941
 30
0.0
 10
37.5637714907
 20
26.8286721114
 30
0.0
 10
37.3112941506
 20
26.8199069878
 30
0.0
 10
37.0489288092
 20
26.7758900433
 30
0.0
 10
36.7790812277
 20
26.6972365324
 30
0.0
 10
36.5043846009
 20
26.5847554792
 30
0.0
 10
36.32428061
 20
26.4905017674
 30
0.0
 10
36.2340942641
 20
26.4384329672
 30
0.0
  0
ENDSEC
  0
SECTION
  2
OBJECTS
  0
DICTIONARY
  5
C
100
AcDbDictionary
280
0
281
1
  3
ACAD_GROUP
350
D
  3
ACAD_MLINESTYLE
350
17
  3
ACAD_LAYOUT
350
1A
  3
ACAD_PLOTSETTINGS
350
19
  3
ACAD_PLOTSTYLENAME
350
E
  0
DICTIONARY
  5
D
102
{ACAD_REACTORS
330
C
102
}
100
AcDbDictionary
280
0
281
1
  0
ACDBDICTIONARYWDFLT
  5
E
102
{ACAD_REACTORS
330
C
102
}
100
AcDbDictionary
281
1
  3
Normal
350
F
100
AcDbDictionaryWithDefault
340
F
  0
DICTIONARY
  5
17
102
{ACAD_REACTORS
330
C
102
}
100
AcDbDictionary
280
0
281
1
  3
Standard
350
18
  0
DICTIONARY
  5
19
102
{ACAD_REACTORS
330
C
102
}
100
AcDbDictionary
281
1
  0
DICTIONARY
  5
1A
102
{ACAD_REACTORS
330
C
102
}
100
AcDbDictionary
281
1
  3
Model
350
287
  3
Layout1
350
288
  0
ACDBPLACEHOLDER
  5
F
102
{ACAD_REACTORS
330
E
102
}
  0
MLINESTYLE
  5
18
102
{ACAD_REACTORS
330
17
102
}
100
AcDbMlineStyle
  2
STANDARD
 70
0
  3

 62
256
 51
90.0
 52
90.0
 71
2
 49
0.5
 62
256
  6
BYLAYER
 49
-0.5
 62
256
  6
BYLAYER
  0
LAYOUT
  5
287
102
{ACAD_REACTORS
330
1A
102
}
100
AcDbPlotSettings
  1

  2
none_device
  4

  6

 40
0.0
 41
0.0
 42
0.0
 43
0.0
 44
210.0
 45
297.0
 46
0.0
 47
0.0
 48
0.0
 49
0.0
140
0.0
141
0.0
142
1.0
143
1.0
 70
1024
 72
1
 73
0
 74
0
  7

 75
0
147
1.0
148
0.0
149
0.0
100
AcDbLayout
  1
Model
 70
0
 71
0
 10
0.0
 20
0.0
 11
210.0
 21
297.0
 12
0.0
 22
0.0
 32
0.0
 14
0.0
 24
0.0
 34
0.0
 15
0.0
 25
0.0
 35
0.0
146
0.0
 13
0.0
 23
0.0
 33
0.0
 16
1.0
 26
0.0
 36
0.0
 17
0.0
 27
1.0
 37
0.0
 76
0
330
210
345
0
346
0
  0
LAYOUT
  5
288
102
{ACAD_REACTORS
330
1A
102
}
100
AcDbPlotSettings
  1

  2
none_device
  4

  6

 40
0.0
 41
0.0
 42
0.0
 43
0.0
 44
210.0
 45
297.0
 46
0.0
 47
0.0
 48
0.0
 49
0.0
140
0.0
141
0.0
142
1.0
143
1.0
 70
0
 72
1
 73
0
 74
0
  7

 75
0
147
1.0
148
0.0
149
0.0
100
AcDbLayout
  1
Layout1
 70
0
 71
1
 10
0.0
 20
0.0
 11
210.0
 21
297.0
 12
0.0
 22
0.0
 32
0.0
 14
0.0
 24
0.0
 34
0.0
 15
0.0
 25
0.0
 35
0.0
146
0.0
 13
0.0
 23
0.0
 33
0.0
 16
1.0
 26
0.0
 36
0.0
 17
0.0
 27
1.0
 37
0.0
 76
0
330
211
345
0
346
0
  0
ENDSEC
  0
EOF
