999
DXF file: C:\Users\sesa63760\Dev\_Creo\CAD\MCADID0003514_3D-CAD\drw0001_5.dxf
999
Pro/ENGINEER 2019471 by Parametric Technology Corporation
  0
SECTION
  2
HEADER
  9
$ACADVER
  1
AC1024
  9
$DWGCODEPAGE
  3
ANSI_1252
  9
$EXTMAX
 10
51.3677592249
 20
72.6486880466
 30
0.0
  9
$EXTMIN
 10
0.0
 20
0.0
 30
0.0
  9
$LIMMIN
 10
0.0
 20
0.0
  9
$LIMMAX
 10
51.3677592249
 20
72.6486880466
  9
$VIEWCTR
 10
25.6838796125
 20
36.3243440233
  9
$VIEWSIZE
 40
72.6486880466
  9
$CLAYER
  8
0
  9
$LTSCALE
 40
4.7356181838
  9
$CELTYPE
  6
BYLAYER
  9
$DIMSCALE
 40
1.0
  9
$DIMASZ
 40
0.6115209432
  9
$DIMEXO
 40
1.0
  9
$DIMDLI
 40
3.2718816542
  9
$DIMEXE
 40
1.0
  9
$DIMCEN
 40
0.7749193392
  9
$DIMLFAC
 40
1.0
  9
$DIMBLK
  1
_FILLED
  9
$DIMALT
 70
0
  9
$DIMALTF
 40
0.0393700787
  9
$DIMTXT
 40
0.8561293204
  9
$DIMTOL
 70
1
  9
$DIMLIM
 70
0
  9
$DIMTFAC
 40
1.0
  9
$DIMTP
 40
0.01
  9
$DIMTM
 40
0.01
  9
$DIMGAP
 40
0.625
  9
$DIMDSEP
 70
46
  9
$AUNITS
 70
0
  9
$PDMODE
 70
3
  9
$PDSIZE
 40
0.3125
  9
$HANDSEED
  5
272
  9
$TILEMODE
 70
1
  9
$MEASUREMENT
 70
1
  9
$INSUNITS
 70
4
  0
ENDSEC
  0
SECTION
  2
CLASSES
  0
CLASS
  1
ACDBDICTIONARYWDFLT
  2
AcDbDictionaryWithDefault
  3
AutoCAD 2000
 90
0
 91
1
280
0
281
0
  0
CLASS
  1
ACDBPLACEHOLDER
  2
AcDbPlaceHolder
  3
AutoCAD 2000
 90
0
 91
1
280
0
281
0
  0
CLASS
  1
LAYOUT
  2
AcDbLayout
  3
AutoCAD 2000
 90
0
 91
0
280
0
281
0
  0
ENDSEC
  0
SECTION
  2
TABLES
  0
TABLE
  2
VPORT
  5
8
100
AcDbSymbolTable
 70
2
  0
VPORT
  5
1F4
100
AcDbSymbolTableRecord
100
AcDbViewportTableRecord
  2
*ACTIVE
 70
0
 10
0.0
 20
0.0
 11
1.0
 21
1.0
 12
25.6838796125
 22
36.3243440233
 13
0.0
 23
0.0
 14
1.0
 24
1.0
 15
0.0
 25
0.0
 16
0.0
 26
0.0
 36
1.0
 17
0.0
 27
0.0
 37
0.0
 40
72.6486880466
 41
0.7070707071
 42
50.0
 43
0.0
 44
0.0
 50
0.0
 51
0.0
 71
0
 72
100
 73
1
 74
1
 75
0
 76
0
 77
0
 78
0
  0
ENDTAB
  0
TABLE
  2
LTYPE
  5
5
100
AcDbSymbolTable
 70
6
  0
LTYPE
  5
14
100
AcDbSymbolTableRecord
100
AcDbLinetypeTableRecord
  2
BYBLOCK
 70
0
  3

 72
65
 73
0
 40
0.0
  0
LTYPE
  5
15
100
AcDbSymbolTableRecord
100
AcDbLinetypeTableRecord
  2
BYLAYER
 70
0
  3

 72
65
 73
0
 40
0.0
  0
LTYPE
  5
16
100
AcDbSymbolTableRecord
100
AcDbLinetypeTableRecord
  2
CONTINUOUS
 70
64
  3
Solid line
 72
65
 73
0
 40
0.0
  0
LTYPE
  5
1F5
100
AcDbSymbolTableRecord
100
AcDbLinetypeTableRecord
  2
CENTER
 70
64
  3
____ _ ____ _ ____ _ ____ _ ____ _ ____ _ ____
 72
65
 73
4
 40
0.6
 49
0.375
 74
0
 49
-0.075
 74
0
 49
0.075
 74
0
 49
-0.075
 74
0
  0
LTYPE
  5
1F6
100
AcDbSymbolTableRecord
100
AcDbLinetypeTableRecord
  2
HIDDEN
 70
64
  3
- - - - - - - - - - - - - - - - - - - -
 72
65
 73
2
 40
0.2
 49
0.1
 74
0
 49
-0.1
 74
0
  0
LTYPE
  5
1F7
100
AcDbSymbolTableRecord
100
AcDbLinetypeTableRecord
  2
PHANTOM
 70
64
  3
_____ _ _ _____ _ _ _____ _ _ _____
 72
65
 73
6
 40
0.8
 49
0.45
 74
0
 49
-0.05
 74
0
 49
0.1
 74
0
 49
-0.05
 74
0
 49
0.1
 74
0
 49
-0.05
 74
0
  0
LTYPE
  5
1F8
100
AcDbSymbolTableRecord
100
AcDbLinetypeTableRecord
  2
DOT
 70
64
  3
. . . . . . . . . . . . . . . . . . . .
 72
65
 73
2
 40
0.2
 49
0.1
 74
0
 49
-0.1
 74
0
  0
LTYPE
  5
1F9
100
AcDbSymbolTableRecord
100
AcDbLinetypeTableRecord
  2
DASHED
 70
64
  3
- - - - - - - - - - - - - - - - - - - -
 72
65
 73
2
 40
0.2
 49
0.1
 74
0
 49
-0.1
 74
0
  0
ENDTAB
  0
TABLE
  2
LAYER
  5
2
100
AcDbSymbolTable
 70
36
  0
LAYER
  5
10
100
AcDbSymbolTableRecord
100
AcDbLayerTableRecord
  2
0
 70
0
 62
7
  6
CONTINUOUS
370
-3
390
F
  0
LAYER
  5
1FA
100
AcDbSymbolTableRecord
100
AcDbLayerTableRecord
  2
DEFAULT_1
 70
0
 62
7
  6
CENTER
370
-3
390
F
  0
LAYER
  5
1FB
100
AcDbSymbolTableRecord
100
AcDbLayerTableRecord
  2
DEFAULT_2
 70
0
 62
7
  6
HIDDEN
370
-3
390
F
  0
LAYER
  5
1FC
100
AcDbSymbolTableRecord
100
AcDbLayerTableRecord
  2
DEFAULT_3
 70
0
 62
7
  6
PHANTOM
370
-3
390
F
  0
LAYER
  5
1FD
100
AcDbSymbolTableRecord
100
AcDbLayerTableRecord
  2
00_COMPONENTS
 70
0
 62
7
  6
CONTINUOUS
370
-3
390
F
  0
LAYER
  5
1FE
100
AcDbSymbolTableRecord
100
AcDbLayerTableRecord
  2
01_1_DEFAULT_DATUMS
 70
0
 62
7
  6
CONTINUOUS
370
-3
390
F
  0
LAYER
  5
1FF
100
AcDbSymbolTableRecord
100
AcDbLayerTableRecord
  2
01_PLANES
 70
0
 62
7
  6
CONTINUOUS
370
-3
390
F
  0
LAYER
  5
200
100
AcDbSymbolTableRecord
100
AcDbLayerTableRecord
  2
02_COORD_SYS
 70
0
 62
7
  6
CONTINUOUS
370
-3
390
F
  0
LAYER
  5
201
100
AcDbSymbolTableRecord
100
AcDbLayerTableRecord
  2
03_AXES
 70
0
 62
7
  6
CONTINUOUS
370
-3
390
F
  0
LAYER
  5
202
100
AcDbSymbolTableRecord
100
AcDbLayerTableRecord
  2
04_POINTS
 70
0
 62
7
  6
CONTINUOUS
370
-3
390
F
  0
LAYER
  5
203
100
AcDbSymbolTableRecord
100
AcDbLayerTableRecord
  2
05_CURVES
 70
0
 62
7
  6
CONTINUOUS
370
-3
390
F
  0
LAYER
  5
204
100
AcDbSymbolTableRecord
100
AcDbLayerTableRecord
  2
06_SURFS
 70
0
 62
7
  6
CONTINUOUS
370
-3
390
F
  0
LAYER
  5
205
100
AcDbSymbolTableRecord
100
AcDbLayerTableRecord
  2
07_COSMETICS
 70
0
 62
7
  6
CONTINUOUS
370
-3
390
F
  0
LAYER
  5
206
100
AcDbSymbolTableRecord
100
AcDbLayerTableRecord
  2
10_NOTES
 70
0
 62
7
  6
CONTINUOUS
370
-3
390
F
  0
LAYER
  5
207
100
AcDbSymbolTableRecord
100
AcDbLayerTableRecord
  2
11_NOTES_PUB
 70
0
 62
7
  6
CONTINUOUS
370
-3
390
F
  0
LAYER
  5
208
100
AcDbSymbolTableRecord
100
AcDbLayerTableRecord
  2
13_REF_GTOL
 70
0
 62
7
  6
CONTINUOUS
370
-3
390
F
  0
LAYER
  5
209
100
AcDbSymbolTableRecord
100
AcDbLayerTableRecord
  2
16_MISC
 70
0
 62
7
  6
CONTINUOUS
370
-3
390
F
  0
LAYER
  5
20A
100
AcDbSymbolTableRecord
100
AcDbLayerTableRecord
  2
17_NO_PRINT
 70
0
 62
7
  6
CONTINUOUS
370
-3
390
F
  0
LAYER
  5
20B
100
AcDbSymbolTableRecord
100
AcDbLayerTableRecord
  2
18_DATUM_CAMS_JOINTS
 70
0
 62
7
  6
CONTINUOUS
370
-3
390
F
  0
LAYER
  5
20C
100
AcDbSymbolTableRecord
100
AcDbLayerTableRecord
  2
19_DATUM_FUNCTIONAL
 70
0
 62
7
  6
CONTINUOUS
370
-3
390
F
  0
LAYER
  5
20D
100
AcDbSymbolTableRecord
100
AcDbLayerTableRecord
  2
20_DATUM_KINEMATIC_SCHEME
 70
0
 62
7
  6
CONTINUOUS
370
-3
390
F
  0
ENDTAB
  0
TABLE
  2
STYLE
  5
3
100
AcDbSymbolTable
 70
1
  0
STYLE
  5
11
100
AcDbSymbolTableRecord
100
AcDbTextStyleTableRecord
  2
STANDARD
 70
0
 40
0.0
 41
1.0
 50
0.0
 71
0
 42
0.2
  3
ARIAL.TTF
  4

  0
STYLE
  5
20E
100
AcDbSymbolTableRecord
100
AcDbTextStyleTableRecord
  2
TEXTSTYLE_1
 70
0
 40
0.0
 41
0.8
 50
0.0
 71
0
 42
0.2
  3
gdt
  4

  0
ENDTAB
  0
TABLE
  2
VIEW
  5
6
100
AcDbSymbolTable
 70
0
  0
ENDTAB
  0
TABLE
  2
UCS
  5
7
100
AcDbSymbolTable
 70
0
  0
ENDTAB
  0
TABLE
  2
APPID
  5
9
100
AcDbSymbolTable
 70
1
  0
APPID
  5
20F
100
AcDbSymbolTableRecord
100
AcDbRegAppTableRecord
  2
ACAD
 70
0
  0
ENDTAB
  0
TABLE
  2
BLOCK_RECORD
  5
1
100
AcDbSymbolTable
 70
0
  0
BLOCK_RECORD
  5
210
100
AcDbSymbolTableRecord
100
AcDbBlockTableRecord
  2
*Model_Space
  0
BLOCK_RECORD
  5
211
100
AcDbSymbolTableRecord
100
AcDbBlockTableRecord
  2
*Paper_Space
  0
BLOCK_RECORD
  5
212
100
AcDbSymbolTableRecord
100
AcDbBlockTableRecord
  2
_FILLED
  0
ENDTAB
  0
TABLE
  2
DIMSTYLE
  5
A
100
AcDbSymbolTable
 70
1
100
AcDbDimStyleTable
 71
0
  0
DIMSTYLE
105
213
100
AcDbSymbolTableRecord
100
AcDbDimStyleTableRecord
  2
STANDARD
 70
0
  3

  4

 40
1.0
 41
0.6115209432
 42
1.0
 43
0.38
 44
1.0
 45
0.0
 46
0.0
 47
0.01
 48
0.01
140
0.8561293204
141
0.09
142
0.0
143
25.4
144
1.0
145
0.0
146
1.0
147
0.625
 71
1
 72
0
 73
0
 74
0
 75
0
 76
0
 77
1
 78
8
 79
2
170
0
171
1
172
0
173
0
174
0
175
0
176
0
177
0
178
0
270
2
179
2
271
2
272
2
273
2
274
2
275
0
280
0
281
0
282
0
283
1
284
8
285
0
286
0
287
3
288
0
340
11
278
46
341
212
342
212
343
212
344
212
  0
ENDTAB
  0
ENDSEC
  0
SECTION
  2
BLOCKS
  0
BLOCK
  5
20
100
AcDbEntity
  8
0
100
AcDbBlockBegin
  2
*Model_Space
 70
0
 10
0.0
 20
0.0
 30
0.0
  3
*Model_Space
  1

  0
ENDBLK
  5
21
100
AcDbEntity
  8
0
100
AcDbBlockEnd
  0
BLOCK
  5
1C
100
AcDbEntity
  8
0
100
AcDbBlockBegin
  2
*Paper_Space
 70
0
 10
0.0
 20
0.0
 30
0.0
  3
*Paper_Space
  1

  0
ENDBLK
  5
1D
100
AcDbEntity
  8
0
100
AcDbBlockEnd
  0
BLOCK
  5
214
100
AcDbEntity
  8
0
100
AcDbBlockBegin
  2
_FILLED
 70
64
 10
0.0
 20
0.0
  3
_FILLED
  1

  0
SOLID
  5
215
100
AcDbEntity
  8
0
  6
BYBLOCK
 62
0
100
AcDbTrace
 10
0.0
 20
0.0
 11
-1.0
 21
0.25
 12
-1.0
 22
-0.25
 13
-1.0
 23
-0.25
  0
ENDBLK
  5
216
100
AcDbEntity
  8
0
  6
BYBLOCK
 62
0
100
AcDbBlockEnd
  0
ENDSEC
  0
SECTION
  2
ENTITIES
  0
LINE
  5
217
100
AcDbEntity
  8
0
100
AcDbLine
 62
7
  6
BYLAYER
 10
10.7255520981
 20
5.9132653061
 11
39.7255520981
 21
5.9135495038
  0
LINE
  5
218
100
AcDbEntity
  8
0
100
AcDbLine
 62
7
  6
BYLAYER
 10
34.7255520981
 20
10.9239626281
 11
31.7266290051
 21
10.9239626281
  0
LINE
  5
219
100
AcDbEntity
  8
0
100
AcDbLine
 62
7
  6
BYLAYER
 10
15.9755520981
 20
58.4132653061
 11
15.4755520981
 21
57.9132653061
  0
LINE
  5
21A
100
AcDbEntity
  8
0
100
AcDbLine
 62
7
  6
BYLAYER
 10
18.2255520981
 20
60.4132653061
 11
17.2929367818
 21
58.4132653061
  0
LINE
  5
21B
100
AcDbEntity
  8
0
100
AcDbLine
 62
7
  6
BYLAYER
 10
20.0096517871
 20
17.8472265488
 11
18.6808330214
 21
19.1767335907
  0
LINE
  5
21C
100
AcDbEntity
  8
0
100
AcDbLine
 62
7
  6
BYLAYER
 10
10.7255520981
 20
5.9132653061
 11
10.7255520981
 21
56.9131863087
  0
LINE
  5
21D
100
AcDbEntity
  8
0
100
AcDbLine
 62
7
  6
BYLAYER
 10
23.1737333325
 20
23.6682653061
 11
18.6808330214
 21
28.1611656172
  0
LINE
  5
21E
100
AcDbEntity
  8
0
100
AcDbLine
 62
7
  6
BYLAYER
 10
28.9954524091
 20
17.8472265488
 11
24.5025520981
 21
22.3401308383
  0
LINE
  5
21F
100
AcDbEntity
  8
0
100
AcDbLine
 62
7
  6
BYLAYER
 10
15.4755520981
 20
56.9132653061
 11
15.4755520981
 21
57.9132653061
  0
LINE
  5
220
100
AcDbEntity
  8
0
100
AcDbLine
 62
7
  6
BYLAYER
 10
25.8320551615
 20
23.6682653061
 11
30.3242711748
 21
19.1767335907
  0
LINE
  5
221
100
AcDbEntity
  8
0
100
AcDbLine
 62
7
  6
BYLAYER
 10
20.0096517871
 20
29.4906686806
 11
24.5025520981
 21
24.9977683696
  0
LINE
  5
222
100
AcDbEntity
  8
0
100
AcDbLine
 62
7
  6
BYLAYER
 10
19.7255520981
 20
60.4132653061
 11
19.7255520981
 21
66.4132653061
  0
LINE
  5
223
100
AcDbEntity
  8
0
100
AcDbLine
 62
7
  6
BYLAYER
 10
28.9954524091
 20
29.4906686806
 11
30.3242711748
 21
28.1611656172
  0
LINE
  5
224
100
AcDbEntity
  8
0
100
AcDbLine
 62
7
  6
BYLAYER
 10
26.7255520981
 20
60.4132653061
 11
26.7255520981
 21
66.4132653061
  0
LINE
  5
225
100
AcDbEntity
  8
0
100
AcDbLine
 62
7
  6
BYLAYER
 10
18.6808330214
 20
28.1611656172
 11
20.0096517871
 21
29.4906686806
  0
LINE
  5
226
100
AcDbEntity
  8
0
100
AcDbLine
 62
7
  6
BYLAYER
 10
30.9755520981
 20
56.9132653061
 11
30.9755520981
 21
57.9132653061
  0
LINE
  5
227
100
AcDbEntity
  8
0
100
AcDbLine
 62
7
  6
BYLAYER
 10
35.7255520981
 20
39.4252538733
 11
34.7255520981
 21
39.4252538733
  0
LINE
  5
228
100
AcDbEntity
  8
0
100
AcDbLine
 62
7
  6
BYLAYER
 10
35.7255520981
 20
39.7344667834
 11
40.7255520981
 21
39.7344667834
  0
LINE
  5
229
100
AcDbEntity
  8
0
100
AcDbLine
 62
7
  6
BYLAYER
 10
40.7255520981
 20
40.2515270407
 11
35.7255520981
 21
40.2515270407
  0
LINE
  5
22A
100
AcDbEntity
  8
0
100
AcDbLine
 62
7
  6
BYLAYER
 10
31.7266293971
 20
10.9239626281
 11
31.7266293971
 21
9.2592397345
  0
LINE
  5
22B
100
AcDbEntity
  8
0
100
AcDbLine
 62
7
  6
BYLAYER
 10
24.5025520981
 20
24.9977683696
 11
28.9954524091
 21
29.4906686806
  0
LINE
  5
22C
100
AcDbEntity
  8
0
100
AcDbLine
 62
7
  6
BYLAYER
 10
18.6808330214
 20
19.1767335907
 11
23.1737333325
 21
23.6682653061
  0
LINE
  5
22D
100
AcDbEntity
  8
0
100
AcDbLine
 62
7
  6
BYLAYER
 10
41.1173432618
 20
43.2556048594
 11
40.7255520981
 21
43.2213275742
  0
LINE
  5
22E
100
AcDbEntity
  8
0
100
AcDbLine
 62
7
  6
BYLAYER
 10
40.7255520981
 20
42.5414221587
 11
35.7255520981
 21
42.5414221587
  0
LINE
  5
22F
100
AcDbEntity
  8
0
100
AcDbLine
 62
7
  6
BYLAYER
 10
35.7255520981
 20
43.0258397915
 11
40.7255520981
 21
43.0258397915
  0
LINE
  5
230
100
AcDbEntity
  8
0
100
AcDbLine
 62
7
  6
BYLAYER
 10
34.7255520981
 20
39.4252538733
 11
34.7255520981
 21
31.3621364471
  0
LINE
  5
231
100
AcDbEntity
  8
0
100
AcDbLine
 62
7
  6
BYLAYER
 10
34.7255520981
 20
15.9750121096
 11
34.7255520981
 21
10.9239626281
  0
LINE
  5
232
100
AcDbEntity
  8
0
100
AcDbLine
 62
7
  6
BYLAYER
 10
35.5255520981
 20
56.9131863087
 11
35.5255520981
 21
52.7132653061
  0
LINE
  5
233
100
AcDbEntity
  8
0
100
AcDbLine
 62
7
  6
BYLAYER
 10
35.7255520981
 20
55.4131863087
 11
35.7255520981
 21
39.4252538733
  0
LINE
  5
234
100
AcDbEntity
  8
0
100
AcDbLine
 62
7
  6
BYLAYER
 10
24.5025520981
 20
22.3401308383
 11
20.0096517871
 21
17.8472265488
  0
LINE
  5
235
100
AcDbEntity
  8
0
100
AcDbLine
 62
7
  6
BYLAYER
 10
30.3242711748
 20
28.1611656172
 11
25.8320551615
 21
23.6682653061
  0
LINE
  5
236
100
AcDbEntity
  8
0
100
AcDbLine
 62
7
  6
BYLAYER
 10
40.7255520981
 20
43.7967416872
 11
35.7255520981
 21
43.7967416872
  0
LINE
  5
237
100
AcDbEntity
  8
0
100
AcDbLine
 62
7
  6
BYLAYER
 10
40.7269373696
 20
44.6430768439
 11
35.7255520981
 21
44.6430768439
  0
LINE
  5
238
100
AcDbEntity
  8
0
100
AcDbLine
 62
7
  6
BYLAYER
 10
41.8070526819
 20
45.1354478468
 11
42.0649476516
 21
45.1354478468
  0
LINE
  5
239
100
AcDbEntity
  8
0
100
AcDbLine
 62
7
  6
BYLAYER
 10
42.0247976592
 20
46.6910827654
 11
42.0649476516
 21
46.6910827654
  0
LINE
  5
23A
100
AcDbEntity
  8
0
100
AcDbLine
 62
7
  6
BYLAYER
 10
40.5255520981
 20
48.6227007708
 11
40.4977943955
 21
48.6227007708
  0
LINE
  5
23B
100
AcDbEntity
  8
0
100
AcDbLine
 62
7
  6
BYLAYER
 10
35.7255520981
 20
50.2105468885
 11
40.2731257337
 21
50.2105468885
  0
LINE
  5
23C
100
AcDbEntity
  8
0
100
AcDbLine
 62
7
  6
BYLAYER
 10
41.1173432618
 20
48.5709257528
 11
40.5255520981
 21
48.6227007708
  0
LINE
  5
23D
100
AcDbEntity
  8
0
100
AcDbLine
 62
7
  6
BYLAYER
 10
28.2255520981
 20
60.4132653061
 11
29.1581674144
 21
58.4132653061
  0
LINE
  5
23E
100
AcDbEntity
  8
0
100
AcDbLine
 62
7
  6
BYLAYER
 10
41.5124261924
 20
43.8728163726
 11
41.512525404
 21
43.5139321331
  0
LINE
  5
23F
100
AcDbEntity
  8
0
100
AcDbLine
 62
7
  6
BYLAYER
 10
40.5255520981
 20
48.6227007708
 11
40.5255520981
 21
48.3783214954
  0
LINE
  5
240
100
AcDbEntity
  8
0
100
AcDbLine
 62
7
  6
BYLAYER
 10
40.7255520981
 20
44.3899210205
 11
40.7255520981
 21
6.9135495038
  0
LINE
  5
241
100
AcDbEntity
  8
0
100
AcDbLine
 62
7
  6
BYLAYER
 10
41.1173432619
 20
48.5709257528
 11
41.1173432619
 21
43.2556048594
  0
LINE
  5
242
100
AcDbEntity
  8
0
100
AcDbLine
 62
7
  6
BYLAYER
 10
41.2255520981
 20
44.4792885932
 11
41.2255520981
 21
43.7014711339
  0
LINE
  5
243
100
AcDbEntity
  8
0
100
AcDbLine
 62
7
  6
BYLAYER
 10
41.5125255456
 20
48.3125982128
 11
41.5124261924
 21
44.6506338319
  0
LINE
  5
244
100
AcDbEntity
  8
0
100
AcDbLine
 62
7
  6
BYLAYER
 10
30.3242711748
 20
19.1767335907
 11
28.9954524091
 21
17.8472265488
  0
LINE
  5
245
100
AcDbEntity
  8
0
100
AcDbLine
 62
7
  6
BYLAYER
 10
40.1099870487
 20
51.1170762581
 11
35.7255520981
 21
51.1170762581
  0
LINE
  5
246
100
AcDbEntity
  8
0
100
AcDbLine
 62
7
  6
BYLAYER
 10
39.7360123652
 20
52.6586712101
 11
35.7255520981
 21
52.6586712101
  0
LINE
  5
247
100
AcDbEntity
  8
0
100
AcDbLine
 62
7
  6
BYLAYER
 10
35.5255520981
 20
52.7132653061
 11
35.7255520981
 21
52.7132653061
  0
LINE
  5
248
100
AcDbEntity
  8
0
100
AcDbLine
 62
7
  6
BYLAYER
 10
35.7255520981
 20
53.2965532519
 11
35.5255520981
 21
53.2965532519
  0
LINE
  5
249
100
AcDbEntity
  8
0
100
AcDbLine
 62
7
  6
BYLAYER
 10
35.7255520981
 20
53.4989810986
 11
38.4324226522
 21
53.4989810986
  0
LINE
  5
24A
100
AcDbEntity
  8
0
100
AcDbLine
 62
7
  6
BYLAYER
 10
10.7255520981
 20
54.2132653061
 11
35.5255520981
 21
54.2132653061
  0
LINE
  5
24B
100
AcDbEntity
  8
0
100
AcDbLine
 62
7
  6
BYLAYER
 10
35.5255520981
 20
54.7965532519
 11
10.7255520981
 21
54.7965532519
  0
LINE
  5
24C
100
AcDbEntity
  8
0
100
AcDbLine
 62
7
  6
BYLAYER
 10
30.4755520981
 20
58.4132653061
 11
30.9755520981
 21
57.9132653061
  0
LINE
  5
24D
100
AcDbEntity
  8
0
100
AcDbLine
 62
7
  6
BYLAYER
 10
35.5255520981
 20
55.4132653061
 11
35.7255520981
 21
55.4132653061
  0
LINE
  5
24E
100
AcDbEntity
  8
0
100
AcDbLine
 62
7
  6
BYLAYER
 10
10.7255520981
 20
56.9132653061
 11
15.4755520981
 21
56.9132653061
  0
LINE
  5
24F
100
AcDbEntity
  8
0
100
AcDbLine
 62
7
  6
BYLAYER
 10
30.9755520981
 20
56.9132653061
 11
35.5255520981
 21
56.9132653061
  0
LINE
  5
250
100
AcDbEntity
  8
0
100
AcDbLine
 62
7
  6
BYLAYER
 10
26.7152348465
 20
5.9132653061
 11
31.7266290051
 21
10.9239626281
  0
LINE
  5
251
100
AcDbEntity
  8
0
100
AcDbLine
 62
7
  6
BYLAYER
 10
15.4755520981
 20
57.9132653061
 11
30.9755520981
 21
57.9132653061
  0
LINE
  5
252
100
AcDbEntity
  8
0
100
AcDbLine
 62
7
  6
BYLAYER
 10
15.9755661646
 20
58.4132653061
 11
30.4755380316
 21
58.4132653061
  0
LINE
  5
253
100
AcDbEntity
  8
0
100
AcDbLine
 62
7
  6
BYLAYER
 10
18.2257473326
 20
60.4132653061
 11
28.2253568636
 21
60.4132653061
  0
LINE
  5
254
100
AcDbEntity
  8
0
100
AcDbLine
 62
7
  6
BYLAYER
 10
19.7255520981
 20
66.4132653061
 11
26.7255520981
 21
66.4132653061
  0
ARC
  5
255
100
AcDbEntity
  8
0
100
AcDbCircle
 62
7
  6
BYLAYER
 10
7.6849896906
 20
80.8485512308
 40
72.9986366494
100
AcDbArc
 50
272.3871926154
 51
280.7696666458
  0
ARC
  5
256
100
AcDbEntity
  8
0
100
AcDbCircle
 62
7
  6
BYLAYER
 10
7.6865570563
 20
-33.4863933606
 40
72.974953191
100
AcDbArc
 50
79.2280490502
 51
87.6132638663
  0
ARC
  5
257
100
AcDbEntity
  8
0
100
AcDbCircle
 62
7
  6
BYLAYER
 10
7.055965469
 20
44.7007430739
 40
33.6710212813
100
AcDbArc
 50
359.4710868843
 51
13.0414812462
  0
ARC
  5
258
100
AcDbEntity
  8
0
100
AcDbCircle
 62
7
  6
BYLAYER
 10
16.3144344033
 20
37.9747827973
 40
29.2712340633
100
AcDbArc
 50
279.8574706097
 51
298.5079395094
  0
ARC
  5
259
100
AcDbEntity
  8
0
100
AcDbCircle
 62
7
  6
BYLAYER
 10
16.3156343476
 20
9.376905745
 40
29.2578849185
100
AcDbArc
 50
61.4805354908
 51
80.1403719912
  0
ARC
  5
25A
100
AcDbEntity
  8
0
100
AcDbCircle
 62
7
  6
BYLAYER
 10
24.4958494466
 20
23.6685742783
 40
12.799910749
100
AcDbArc
 50
296.8902190654
 51
63.1097809346
  0
ARC
  5
25B
100
AcDbEntity
  8
0
100
AcDbCircle
 62
7
  6
BYLAYER
 10
23.2255520981
 20
54.4132653061
 40
12.5
100
AcDbArc
 50
73.7397952917
 51
106.2602047083
  0
CIRCLE
  5
25C
100
AcDbEntity
  8
0
100
AcDbCircle
 62
7
  6
BYLAYER
 10
24.5025520981
 20
23.6682653061
 40
9.25
  0
ARC
  5
25D
100
AcDbEntity
  8
0
100
AcDbCircle
 62
7
  6
BYLAYER
 10
37.1258181736
 20
45.9132653061
 40
5.0
100
AcDbArc
 50
11.9867078047
 51
28.6790610704
  0
ARC
  5
25E
100
AcDbEntity
  8
0
100
AcDbCircle
 62
7
  6
BYLAYER
 10
37.1258181736
 20
45.9132653061
 40
5.0
100
AcDbArc
 50
331.320938945
 51
351.0505216142
  0
ARC
  5
25F
100
AcDbEntity
  8
0
100
AcDbCircle
 62
7
  6
BYLAYER
 10
39.5100805918
 20
45.5092644959
 40
2.5866121371
100
AcDbArc
 50
8.9857708851
 51
16.2128504846
  0
ARC
  5
260
100
AcDbEntity
  8
0
100
AcDbCircle
 62
7
  6
BYLAYER
 10
39.5274323201
 20
46.2909603069
 40
2.5688678517
100
AcDbArc
 50
8.9607771052
 51
16.2378442645
  0
ARC
  5
261
100
AcDbEntity
  8
0
100
AcDbCircle
 62
7
  6
BYLAYER
 10
39.5574049805
 20
46.6195629701
 40
2.4673928113
100
AcDbArc
 50
0.0187886598
 51
9.0877658388
  0
ARC
  5
262
100
AcDbEntity
  8
0
100
AcDbCircle
 62
7
  6
BYLAYER
 10
39.5651265239
 20
46.6205662809
 40
2.459671143
100
AcDbArc
 50
350.8979690633
 51
359.9954764381
  0
ARC
  5
263
100
AcDbEntity
  8
0
100
AcDbCircle
 62
7
  6
BYLAYER
 10
39.49424327
 20
44.9206482648
 40
2.4316952483
100
AcDbArc
 50
5.0709155144
 51
9.2666954946
  0
ARC
  5
264
100
AcDbEntity
  8
0
100
AcDbCircle
 62
7
  6
BYLAYER
 10
31.7266292567
 20
7.5863946191
 40
1.6728451153
100
AcDbArc
 50
89.9999951921
 51
270.0000048079
  0
ARC
  5
265
100
AcDbEntity
  8
0
100
AcDbCircle
 62
7
  6
BYLAYER
 10
38.3887247738
 20
51.9992653061
 40
1.5
100
AcDbArc
 50
11.5198070809
 51
88.3306589794
  0
ARC
  5
266
100
AcDbEntity
  8
0
100
AcDbCircle
 62
7
  6
BYLAYER
 10
39.7255520981
 20
6.9135495038
 40
1.0
100
AcDbArc
 50
270.0
 51
360.0
  0
ARC
  5
267
100
AcDbEntity
  8
0
100
AcDbCircle
 62
7
  6
BYLAYER
 10
41.0737653905
 20
43.7537022085
 40
0.5
100
AcDbArc
 50
275.0
 51
331.3209388554
  0
ARC
  5
268
100
AcDbEntity
  8
0
100
AcDbCircle
 62
7
  6
BYLAYER
 10
41.0737653905
 20
48.0728284038
 40
0.5
100
AcDbArc
 50
28.6790611446
 51
85.0
  0
SPLINE
  5
269
100
AcDbEntity
  8
0
100
AcDbSpline
 62
7
  6
BYLAYER
 70
0
 71
3
 72
9
 73
5
 74
0
 42
0.0000001
 43
0.0000001
 44
0.0000000001
 40
0.0
 40
0.0
 40
0.0
 40
0.0
 40
0.4951030959
 40
1.0
 40
1.0
 40
1.0
 40
1.0
 10
42.0649476516
 20
45.9132653061
 30
0.0
 10
42.0465273402
 20
45.7962965985
 30
0.0
 10
41.99260802
 20
45.5624056486
 30
0.0
 10
41.9075637819
 20
45.3380402408
 30
0.0
 10
41.8576471081
 20
45.228087948
 30
0.0
  0
SPLINE
  5
26A
100
AcDbEntity
  8
0
100
AcDbSpline
 62
7
  6
BYLAYER
 70
0
 71
3
 72
9
 73
5
 74
0
 42
0.0000001
 43
0.0000001
 44
0.0000000001
 40
0.0
 40
0.0
 40
0.0
 40
0.0
 40
0.2451146883
 40
1.0
 40
1.0
 40
1.0
 40
1.0
 10
41.8576471081
 20
45.228087948
 30
0.0
 10
41.8349026172
 20
45.1779882772
 30
0.0
 10
41.7361917707
 20
44.9763106655
 30
0.0
 10
41.6144296842
 20
44.786115332
 30
0.0
 10
41.5125013728
 20
44.6507509167
 30
0.0
  0
SPLINE
  5
26B
100
AcDbEntity
  8
0
100
AcDbSpline
 62
7
  6
BYLAYER
 70
0
 71
3
 72
9
 73
5
 74
0
 42
0.0000001
 43
0.0000001
 44
0.0000000001
 40
0.0
 40
0.0
 40
0.0
 40
0.0
 40
0.4706988509
 40
1.0
 40
1.0
 40
1.0
 40
1.0
 10
41.5125013728
 20
44.6507509167
 30
0.0
 10
41.4804802586
 20
44.6082257243
 30
0.0
 10
41.3914766587
 20
44.5332724494
 30
0.0
 10
41.2838848062
 20
44.49275356
 30
0.0
 10
41.2255520981
 20
44.479315972
 30
0.0
  0
SPLINE
  5
26C
100
AcDbEntity
  8
0
100
AcDbSpline
 62
7
  6
BYLAYER
 70
0
 71
3
 72
9
 73
5
 74
0
 42
0.0000001
 43
0.0000001
 44
0.0000000001
 40
0.0
 40
0.0
 40
0.0
 40
0.0
 40
0.5293029525
 40
1.0
 40
1.0
 40
1.0
 40
1.0
 10
41.2255520981
 20
43.7014978193
 30
0.0
 10
41.2838857738
 20
43.71493563
 30
0.0
 10
41.3914810625
 20
43.7554518468
 30
0.0
 10
41.4804818853
 20
43.8304108666
 30
0.0
 10
41.5125032986
 20
43.8729364566
 30
0.0
  0
SPLINE
  5
26D
100
AcDbEntity
  8
0
100
AcDbSpline
 62
7
  6
BYLAYER
 70
0
 71
3
 72
10
 73
6
 74
0
 42
0.0000001
 43
0.0000001
 44
0.0000000001
 40
0.0
 40
0.0
 40
0.0
 40
0.0
 40
0.5116195409
 40
0.7580320666
 40
1.0
 40
1.0
 40
1.0
 40
1.0
 10
41.5125032986
 20
43.8729364566
 30
0.0
 10
41.6550900283
 20
44.0622966945
 30
0.0
 10
41.8375319899
 20
44.3674005243
 30
0.0
 10
41.997300892
 20
44.8032456846
 30
0.0
 10
42.0475078626
 20
45.0247054424
 30
0.0
 10
42.0649476516
 20
45.1354478468
 30
0.0
  0
SPLINE
  5
26E
100
AcDbEntity
  8
0
100
AcDbSpline
 62
7
  6
BYLAYER
 70
0
 71
3
 72
35
 73
31
 74
0
 42
0.0000001
 43
0.0000001
 44
0.0000000001
 40
0.0
 40
0.0
 40
0.0
 40
0.0
 40
0.0000753178
 40
0.0003012216
 40
0.0006777083
 40
0.0012047747
 40
0.0018824177
 40
0.0027106341
 40
0.0048187587
 40
0.0075281267
 40
0.0108361767
 40
0.0147402129
 40
0.0192375394
 40
0.0300012813
 40
0.0431055456
 40
0.0585191039
 40
0.0761996534
 40
0.0961042631
 40
0.1181891125
 40
0.1423990109
 40
0.1686709922
 40
0.2271472015
 40
0.2930561007
 40
0.3657648906
 40
0.4445761703
 40
0.5287370683
 40
0.617429347
 40
0.7097954341
 40
0.8049692207
 40
1.0
 40
1.0
 40
1.0
 40
1.0
 10
15.4755673421
 20
56.9132502153
 30
0.0
 10
15.4757422308
 20
56.9131647255
 30
0.0
 10
15.4765670926
 20
56.9133053389
 30
0.0
 10
15.478270305
 20
56.9130347617
 30
0.0
 10
15.4812113941
 20
56.9129782602
 30
0.0
 10
15.4852806573
 20
56.912714003
 30
0.0
 10
15.4905317973
 20
56.9124486362
 30
0.0
 10
15.4998567919
 20
56.9119381195
 30
0.0
 10
15.5144288836
 20
56.9111587441
 30
0.0
 10
15.535399094
 20
56.9100281545
 30
0.0
 10
15.5610053591
 20
56.9086559018
 30
0.0
 10
15.5912261889
 20
56.9070418084
 30
0.0
 10
15.6406902548
 20
56.9044133635
 30
0.0
 10
15.7139012798
 20
56.9005558849
 30
0.0
 10
15.8152903769
 20
56.895275158
 30
0.0
 10
15.9345368516
 20
56.8891517232
 30
0.0
 10
16.0713426503
 20
56.8822521947
 30
0.0
 10
16.225376956
 20
56.8746419022
 30
0.0
 10
16.3962755721
 20
56.8663873515
 30
0.0
 10
16.5836230573
 20
56.8575696505
 30
0.0
 10
16.8649409536
 20
56.8447150916
 30
0.0
 10
17.2539614427
 20
56.8278330127
 30
0.0
 10
17.7629603434
 20
56.8074506618
 30
0.0
 10
18.3245555948
 20
56.7870706927
 30
0.0
 10
18.9333789038
 20
56.767457603
 30
0.0
 10
19.5835781747
 20
56.7493906352
 30
0.0
 10
20.2688788355
 20
56.7335343123
 30
0.0
 10
20.9827090535
 20
56.7205370887
 30
0.0
 10
21.9714124231
 20
56.7075327258
 30
0.0
 10
22.7214786288
 20
56.7035680353
 30
0.0
 10
23.2255520981
 20
56.7035680353
 30
0.0
  0
SPLINE
  5
26F
100
AcDbEntity
  8
0
100
AcDbSpline
 62
7
  6
BYLAYER
 70
0
 71
3
 72
35
 73
31
 74
0
 42
0.0000001
 43
0.0000001
 44
0.0000000001
 40
0.0
 40
0.0
 40
0.0
 40
0.0
 40
0.1950336587
 40
0.290208294
 40
0.3825736335
 40
0.4712647496
 40
0.5554247951
 40
0.6342351104
 40
0.706943421
 40
0.772852099
 40
0.8313285076
 40
0.8576004893
 40
0.8818104899
 40
0.9038956704
 40
0.9238003652
 40
0.9414808293
 40
0.9568944294
 40
0.9699989769
 40
0.9807626156
 40
0.9852598145
 40
0.989163738
 40
0.9924717393
 40
0.9951811718
 40
0.9972894579
 40
0.998117712
 40
0.9987953631
 40
0.9993224143
 40
0.9996988687
 40
0.9999247296
 40
1.0
 40
1.0
 40
1.0
 40
1.0
 10
23.2255520981
 20
56.7035680353
 30
0.0
 10
23.7296330101
 20
56.7035680353
 30
0.0
 10
24.4797088594
 20
56.7075321052
 30
0.0
 10
25.4684199164
 20
56.7205378444
 30
0.0
 10
26.1822473941
 20
56.7335347943
 30
0.0
 10
26.8675409328
 20
56.7493902375
 30
0.0
 10
27.5177325253
 20
56.7674563908
 30
0.0
 10
28.1265498622
 20
56.7870706111
 30
0.0
 10
28.6881407787
 20
56.8074513636
 30
0.0
 10
29.1971383857
 20
56.8278336302
 30
0.0
 10
29.5861588521
 20
56.8447149454
 30
0.0
 10
29.8674775642
 20
56.8575687513
 30
0.0
 10
30.0548261853
 20
56.8663861557
 30
0.0
 10
30.2257261269
 20
56.8746410734
 30
0.0
 10
30.3797612654
 20
56.8822517341
 30
0.0
 10
30.5165671682
 20
56.8891516625
 30
0.0
 10
30.6358141873
 20
56.8952755922
 30
0.0
 10
30.7372039562
 20
56.9005572825
 30
0.0
 10
30.8104147679
 20
56.9044145192
 30
0.0
 10
30.8598785384
 20
56.9070429473
 30
0.0
 10
30.8900972827
 20
56.9086561414
 30
0.0
 10
30.9157072643
 20
56.9100301635
 30
0.0
 10
30.9366669729
 20
56.9111553499
 30
0.0
 10
30.9512648538
 20
56.9119471528
 30
0.0
 10
30.9605520553
 20
56.9124389321
 30
0.0
 10
30.9658836254
 20
56.912743483
 30
0.0
 10
30.9697454076
 20
56.9129063305
 30
0.0
 10
30.9731553621
 20
56.9131918564
 30
0.0
 10
30.9740356874
 20
56.913060429
 30
0.0
 10
30.9757116327
 20
56.9133356512
 30
0.0
 10
30.9755368541
 20
56.9132502153
 30
0.0
  0
ENDSEC
  0
SECTION
  2
OBJECTS
  0
DICTIONARY
  5
C
100
AcDbDictionary
280
0
281
1
  3
ACAD_GROUP
350
D
  3
ACAD_MLINESTYLE
350
17
  3
ACAD_LAYOUT
350
1A
  3
ACAD_PLOTSETTINGS
350
19
  3
ACAD_PLOTSTYLENAME
350
E
  0
DICTIONARY
  5
D
102
{ACAD_REACTORS
330
C
102
}
100
AcDbDictionary
280
0
281
1
  0
ACDBDICTIONARYWDFLT
  5
E
102
{ACAD_REACTORS
330
C
102
}
100
AcDbDictionary
281
1
  3
Normal
350
F
100
AcDbDictionaryWithDefault
340
F
  0
DICTIONARY
  5
17
102
{ACAD_REACTORS
330
C
102
}
100
AcDbDictionary
280
0
281
1
  3
Standard
350
18
  0
DICTIONARY
  5
19
102
{ACAD_REACTORS
330
C
102
}
100
AcDbDictionary
281
1
  0
DICTIONARY
  5
1A
102
{ACAD_REACTORS
330
C
102
}
100
AcDbDictionary
281
1
  3
Model
350
270
  3
Layout1
350
271
  0
ACDBPLACEHOLDER
  5
F
102
{ACAD_REACTORS
330
E
102
}
  0
MLINESTYLE
  5
18
102
{ACAD_REACTORS
330
17
102
}
100
AcDbMlineStyle
  2
STANDARD
 70
0
  3

 62
256
 51
90.0
 52
90.0
 71
2
 49
0.5
 62
256
  6
BYLAYER
 49
-0.5
 62
256
  6
BYLAYER
  0
LAYOUT
  5
270
102
{ACAD_REACTORS
330
1A
102
}
100
AcDbPlotSettings
  1

  2
none_device
  4

  6

 40
0.0
 41
0.0
 42
0.0
 43
0.0
 44
210.0
 45
297.0
 46
0.0
 47
0.0
 48
0.0
 49
0.0
140
0.0
141
0.0
142
1.0
143
1.0
 70
1024
 72
1
 73
0
 74
0
  7

 75
0
147
1.0
148
0.0
149
0.0
100
AcDbLayout
  1
Model
 70
0
 71
0
 10
0.0
 20
0.0
 11
210.0
 21
297.0
 12
0.0
 22
0.0
 32
0.0
 14
0.0
 24
0.0
 34
0.0
 15
0.0
 25
0.0
 35
0.0
146
0.0
 13
0.0
 23
0.0
 33
0.0
 16
1.0
 26
0.0
 36
0.0
 17
0.0
 27
1.0
 37
0.0
 76
0
330
210
345
0
346
0
  0
LAYOUT
  5
271
102
{ACAD_REACTORS
330
1A
102
}
100
AcDbPlotSettings
  1

  2
none_device
  4

  6

 40
0.0
 41
0.0
 42
0.0
 43
0.0
 44
210.0
 45
297.0
 46
0.0
 47
0.0
 48
0.0
 49
0.0
140
0.0
141
0.0
142
1.0
143
1.0
 70
0
 72
1
 73
0
 74
0
  7

 75
0
147
1.0
148
0.0
149
0.0
100
AcDbLayout
  1
Layout1
 70
0
 71
1
 10
0.0
 20
0.0
 11
210.0
 21
297.0
 12
0.0
 22
0.0
 32
0.0
 14
0.0
 24
0.0
 34
0.0
 15
0.0
 25
0.0
 35
0.0
146
0.0
 13
0.0
 23
0.0
 33
0.0
 16
1.0
 26
0.0
 36
0.0
 17
0.0
 27
1.0
 37
0.0
 76
0
330
211
345
0
346
0
  0
ENDSEC
  0
EOF
