999
DXF file: C:\Users\sesa63760\Dev\_Creo\CAD\MCADID0002485_3D-CAD\drw0001_1.dxf
999
Pro/ENGINEER 2019471 by Parametric Technology Corporation
  0
SECTION
  2
HEADER
  9
$ACADVER
  1
AC1024
  9
$DWGCODEPAGE
  3
ANSI_1252
  9
$EXTMAX
 10
84.1436739951
 20
119.0031960789
 30
0.0
  9
$EXTMIN
 10
0.0
 20
0.0
 30
0.0
  9
$LIMMIN
 10
0.0
 20
0.0
  9
$LIMMAX
 10
84.1436739951
 20
119.0031960789
  9
$VIEWCTR
 10
42.0718369976
 20
59.5015980394
  9
$VIEWSIZE
 40
119.0031960789
  9
$CLAYER
  8
0
  9
$LTSCALE
 40
7.757245374
  9
$CELTYPE
  6
BYLAYER
  9
$DIMSCALE
 40
1.0
  9
$DIMASZ
 40
1.0017104047
  9
$DIMEXO
 40
1.0
  9
$DIMDLI
 40
5.3595513493
  9
$DIMEXE
 40
1.0
  9
$DIMCEN
 40
1.2693674248
  9
$DIMLFAC
 40
1.0
  9
$DIMBLK
  1
_FILLED
  9
$DIMALT
 70
0
  9
$DIMALTF
 40
0.0393700787
  9
$DIMTXT
 40
1.4023945666
  9
$DIMTOL
 70
1
  9
$DIMLIM
 70
0
  9
$DIMTFAC
 40
1.0
  9
$DIMTP
 40
0.01
  9
$DIMTM
 40
0.01
  9
$DIMGAP
 40
0.625
  9
$DIMDSEP
 70
46
  9
$AUNITS
 70
0
  9
$PDMODE
 70
3
  9
$PDSIZE
 40
0.3125
  9
$HANDSEED
  5
2E4
  9
$TILEMODE
 70
1
  9
$MEASUREMENT
 70
1
  9
$INSUNITS
 70
4
  0
ENDSEC
  0
SECTION
  2
CLASSES
  0
CLASS
  1
ACDBDICTIONARYWDFLT
  2
AcDbDictionaryWithDefault
  3
AutoCAD 2000
 90
0
 91
1
280
0
281
0
  0
CLASS
  1
ACDBPLACEHOLDER
  2
AcDbPlaceHolder
  3
AutoCAD 2000
 90
0
 91
1
280
0
281
0
  0
CLASS
  1
LAYOUT
  2
AcDbLayout
  3
AutoCAD 2000
 90
0
 91
0
280
0
281
0
  0
ENDSEC
  0
SECTION
  2
TABLES
  0
TABLE
  2
VPORT
  5
8
100
AcDbSymbolTable
 70
2
  0
VPORT
  5
1F4
100
AcDbSymbolTableRecord
100
AcDbViewportTableRecord
  2
*ACTIVE
 70
0
 10
0.0
 20
0.0
 11
1.0
 21
1.0
 12
42.0718369976
 22
59.5015980394
 13
0.0
 23
0.0
 14
1.0
 24
1.0
 15
0.0
 25
0.0
 16
0.0
 26
0.0
 36
1.0
 17
0.0
 27
0.0
 37
0.0
 40
119.0031960789
 41
0.7070707071
 42
50.0
 43
0.0
 44
0.0
 50
0.0
 51
0.0
 71
0
 72
100
 73
1
 74
1
 75
0
 76
0
 77
0
 78
0
  0
ENDTAB
  0
TABLE
  2
LTYPE
  5
5
100
AcDbSymbolTable
 70
6
  0
LTYPE
  5
14
100
AcDbSymbolTableRecord
100
AcDbLinetypeTableRecord
  2
BYBLOCK
 70
0
  3

 72
65
 73
0
 40
0.0
  0
LTYPE
  5
15
100
AcDbSymbolTableRecord
100
AcDbLinetypeTableRecord
  2
BYLAYER
 70
0
  3

 72
65
 73
0
 40
0.0
  0
LTYPE
  5
16
100
AcDbSymbolTableRecord
100
AcDbLinetypeTableRecord
  2
CONTINUOUS
 70
64
  3
Solid line
 72
65
 73
0
 40
0.0
  0
LTYPE
  5
1F5
100
AcDbSymbolTableRecord
100
AcDbLinetypeTableRecord
  2
CENTER
 70
64
  3
____ _ ____ _ ____ _ ____ _ ____ _ ____ _ ____
 72
65
 73
4
 40
0.6
 49
0.375
 74
0
 49
-0.075
 74
0
 49
0.075
 74
0
 49
-0.075
 74
0
  0
LTYPE
  5
1F6
100
AcDbSymbolTableRecord
100
AcDbLinetypeTableRecord
  2
HIDDEN
 70
64
  3
- - - - - - - - - - - - - - - - - - - -
 72
65
 73
2
 40
0.2
 49
0.1
 74
0
 49
-0.1
 74
0
  0
LTYPE
  5
1F7
100
AcDbSymbolTableRecord
100
AcDbLinetypeTableRecord
  2
PHANTOM
 70
64
  3
_____ _ _ _____ _ _ _____ _ _ _____
 72
65
 73
6
 40
0.8
 49
0.45
 74
0
 49
-0.05
 74
0
 49
0.1
 74
0
 49
-0.05
 74
0
 49
0.1
 74
0
 49
-0.05
 74
0
  0
LTYPE
  5
1F8
100
AcDbSymbolTableRecord
100
AcDbLinetypeTableRecord
  2
DOT
 70
64
  3
. . . . . . . . . . . . . . . . . . . .
 72
65
 73
2
 40
0.2
 49
0.1
 74
0
 49
-0.1
 74
0
  0
LTYPE
  5
1F9
100
AcDbSymbolTableRecord
100
AcDbLinetypeTableRecord
  2
DASHED
 70
64
  3
- - - - - - - - - - - - - - - - - - - -
 72
65
 73
2
 40
0.2
 49
0.1
 74
0
 49
-0.1
 74
0
  0
ENDTAB
  0
TABLE
  2
LAYER
  5
2
100
AcDbSymbolTable
 70
36
  0
LAYER
  5
10
100
AcDbSymbolTableRecord
100
AcDbLayerTableRecord
  2
0
 70
0
 62
7
  6
CONTINUOUS
370
-3
390
F
  0
LAYER
  5
1FA
100
AcDbSymbolTableRecord
100
AcDbLayerTableRecord
  2
DEFAULT_1
 70
0
 62
7
  6
CENTER
370
-3
390
F
  0
LAYER
  5
1FB
100
AcDbSymbolTableRecord
100
AcDbLayerTableRecord
  2
DEFAULT_2
 70
0
 62
7
  6
HIDDEN
370
-3
390
F
  0
LAYER
  5
1FC
100
AcDbSymbolTableRecord
100
AcDbLayerTableRecord
  2
DEFAULT_3
 70
0
 62
7
  6
PHANTOM
370
-3
390
F
  0
LAYER
  5
1FD
100
AcDbSymbolTableRecord
100
AcDbLayerTableRecord
  2
00_COMPONENTS
 70
0
 62
7
  6
CONTINUOUS
370
-3
390
F
  0
LAYER
  5
1FE
100
AcDbSymbolTableRecord
100
AcDbLayerTableRecord
  2
01_1_DEFAULT_DATUMS
 70
0
 62
7
  6
CONTINUOUS
370
-3
390
F
  0
LAYER
  5
1FF
100
AcDbSymbolTableRecord
100
AcDbLayerTableRecord
  2
01_PLANES
 70
0
 62
7
  6
CONTINUOUS
370
-3
390
F
  0
LAYER
  5
200
100
AcDbSymbolTableRecord
100
AcDbLayerTableRecord
  2
02_COORD_SYS
 70
0
 62
7
  6
CONTINUOUS
370
-3
390
F
  0
LAYER
  5
201
100
AcDbSymbolTableRecord
100
AcDbLayerTableRecord
  2
03_AXES
 70
0
 62
7
  6
CONTINUOUS
370
-3
390
F
  0
LAYER
  5
202
100
AcDbSymbolTableRecord
100
AcDbLayerTableRecord
  2
04_POINTS
 70
0
 62
7
  6
CONTINUOUS
370
-3
390
F
  0
LAYER
  5
203
100
AcDbSymbolTableRecord
100
AcDbLayerTableRecord
  2
05_CURVES
 70
0
 62
7
  6
CONTINUOUS
370
-3
390
F
  0
LAYER
  5
204
100
AcDbSymbolTableRecord
100
AcDbLayerTableRecord
  2
06_SURFS
 70
0
 62
7
  6
CONTINUOUS
370
-3
390
F
  0
LAYER
  5
205
100
AcDbSymbolTableRecord
100
AcDbLayerTableRecord
  2
07_COSMETICS
 70
0
 62
7
  6
CONTINUOUS
370
-3
390
F
  0
LAYER
  5
206
100
AcDbSymbolTableRecord
100
AcDbLayerTableRecord
  2
10_NOTES
 70
0
 62
7
  6
CONTINUOUS
370
-3
390
F
  0
LAYER
  5
207
100
AcDbSymbolTableRecord
100
AcDbLayerTableRecord
  2
11_NOTES_PUB
 70
0
 62
7
  6
CONTINUOUS
370
-3
390
F
  0
LAYER
  5
208
100
AcDbSymbolTableRecord
100
AcDbLayerTableRecord
  2
13_REF_GTOL
 70
0
 62
7
  6
CONTINUOUS
370
-3
390
F
  0
LAYER
  5
209
100
AcDbSymbolTableRecord
100
AcDbLayerTableRecord
  2
16_MISC
 70
0
 62
7
  6
CONTINUOUS
370
-3
390
F
  0
LAYER
  5
20A
100
AcDbSymbolTableRecord
100
AcDbLayerTableRecord
  2
17_NO_PRINT
 70
0
 62
7
  6
CONTINUOUS
370
-3
390
F
  0
LAYER
  5
20B
100
AcDbSymbolTableRecord
100
AcDbLayerTableRecord
  2
18_DATUM_CAMS_JOINTS
 70
0
 62
7
  6
CONTINUOUS
370
-3
390
F
  0
LAYER
  5
20C
100
AcDbSymbolTableRecord
100
AcDbLayerTableRecord
  2
19_DATUM_FUNCTIONAL
 70
0
 62
7
  6
CONTINUOUS
370
-3
390
F
  0
LAYER
  5
20D
100
AcDbSymbolTableRecord
100
AcDbLayerTableRecord
  2
20_DATUM_KINEMATIC_SCHEME
 70
0
 62
7
  6
CONTINUOUS
370
-3
390
F
  0
LAYER
  5
20E
100
AcDbSymbolTableRecord
100
AcDbLayerTableRecord
  2
INTFCLR_5885
 70
0
 62
7
  6
CONTINUOUS
370
-3
390
F
  0
ENDTAB
  0
TABLE
  2
STYLE
  5
3
100
AcDbSymbolTable
 70
1
  0
STYLE
  5
11
100
AcDbSymbolTableRecord
100
AcDbTextStyleTableRecord
  2
STANDARD
 70
0
 40
0.0
 41
1.0
 50
0.0
 71
0
 42
0.2
  3
ARIAL.TTF
  4

  0
STYLE
  5
20F
100
AcDbSymbolTableRecord
100
AcDbTextStyleTableRecord
  2
TEXTSTYLE_1
 70
0
 40
0.0
 41
0.8
 50
0.0
 71
0
 42
0.2
  3
gdt
  4

  0
ENDTAB
  0
TABLE
  2
VIEW
  5
6
100
AcDbSymbolTable
 70
0
  0
ENDTAB
  0
TABLE
  2
UCS
  5
7
100
AcDbSymbolTable
 70
0
  0
ENDTAB
  0
TABLE
  2
APPID
  5
9
100
AcDbSymbolTable
 70
1
  0
APPID
  5
210
100
AcDbSymbolTableRecord
100
AcDbRegAppTableRecord
  2
ACAD
 70
0
  0
ENDTAB
  0
TABLE
  2
BLOCK_RECORD
  5
1
100
AcDbSymbolTable
 70
0
  0
BLOCK_RECORD
  5
211
100
AcDbSymbolTableRecord
100
AcDbBlockTableRecord
  2
*Model_Space
  0
BLOCK_RECORD
  5
212
100
AcDbSymbolTableRecord
100
AcDbBlockTableRecord
  2
*Paper_Space
  0
BLOCK_RECORD
  5
213
100
AcDbSymbolTableRecord
100
AcDbBlockTableRecord
  2
_FILLED
  0
ENDTAB
  0
TABLE
  2
DIMSTYLE
  5
A
100
AcDbSymbolTable
 70
1
100
AcDbDimStyleTable
 71
0
  0
DIMSTYLE
105
214
100
AcDbSymbolTableRecord
100
AcDbDimStyleTableRecord
  2
STANDARD
 70
0
  3

  4

 40
1.0
 41
1.0017104047
 42
1.0
 43
0.38
 44
1.0
 45
0.0
 46
0.0
 47
0.01
 48
0.01
140
1.4023945666
141
0.09
142
0.0
143
25.4
144
1.0
145
0.0
146
1.0
147
0.625
 71
1
 72
0
 73
0
 74
0
 75
0
 76
0
 77
1
 78
8
 79
2
170
0
171
1
172
0
173
0
174
0
175
0
176
0
177
0
178
0
270
2
179
2
271
2
272
2
273
2
274
2
275
0
280
0
281
0
282
0
283
1
284
8
285
0
286
0
287
3
288
0
340
11
278
46
341
213
342
213
343
213
344
213
  0
ENDTAB
  0
ENDSEC
  0
SECTION
  2
BLOCKS
  0
BLOCK
  5
20
100
AcDbEntity
  8
0
100
AcDbBlockBegin
  2
*Model_Space
 70
0
 10
0.0
 20
0.0
 30
0.0
  3
*Model_Space
  1

  0
ENDBLK
  5
21
100
AcDbEntity
  8
0
100
AcDbBlockEnd
  0
BLOCK
  5
1C
100
AcDbEntity
  8
0
100
AcDbBlockBegin
  2
*Paper_Space
 70
0
 10
0.0
 20
0.0
 30
0.0
  3
*Paper_Space
  1

  0
ENDBLK
  5
1D
100
AcDbEntity
  8
0
100
AcDbBlockEnd
  0
BLOCK
  5
215
100
AcDbEntity
  8
0
100
AcDbBlockBegin
  2
_FILLED
 70
64
 10
0.0
 20
0.0
  3
_FILLED
  1

  0
SOLID
  5
216
100
AcDbEntity
  8
0
  6
BYBLOCK
 62
0
100
AcDbTrace
 10
0.0
 20
0.0
 11
-1.0
 21
0.25
 12
-1.0
 22
-0.25
 13
-1.0
 23
-0.25
  0
ENDBLK
  5
217
100
AcDbEntity
  8
0
  6
BYBLOCK
 62
0
100
AcDbBlockEnd
  0
ENDSEC
  0
SECTION
  2
ENTITIES
  0
LINE
  5
218
100
AcDbEntity
  8
0
100
AcDbLine
 62
7
  6
BYLAYER
 10
9.753760296
 20
40.3276286467
 11
9.753760296
 21
44.3095476345
  0
LINE
  5
219
100
AcDbEntity
  8
0
100
AcDbLine
 62
7
  6
BYLAYER
 10
15.0723724282
 20
35.9413542897
 11
11.4924098013
 21
38.0081999177
  0
LINE
  5
21A
100
AcDbEntity
  8
0
100
AcDbLine
 62
7
  6
BYLAYER
 10
11.3243665132
 20
38.1052175605
 11
10.5822256735
 21
38.5336830809
  0
LINE
  5
21B
100
AcDbEntity
  8
0
100
AcDbLine
 62
7
  6
BYLAYER
 10
10.5822256735
 20
44.153995819
 11
10.5822256735
 21
45.7923895692
  0
LINE
  5
21C
100
AcDbEntity
  8
0
100
AcDbLine
 62
7
  6
BYLAYER
 10
15.0723724282
 20
43.200060778
 11
15.0723724282
 21
41.5616670277
  0
LINE
  5
21D
100
AcDbEntity
  8
0
100
AcDbLine
 62
7
  6
BYLAYER
 10
15.0723724282
 20
37.157377533
 11
15.0723724282
 21
35.9413542897
  0
LINE
  5
21E
100
AcDbEntity
  8
0
100
AcDbLine
 62
7
  6
BYLAYER
 10
18.0228902392
 20
77.1819242911
 11
18.5617033632
 21
77.4930063363
  0
LINE
  5
21F
100
AcDbEntity
  8
0
100
AcDbLine
 62
7
  6
BYLAYER
 10
19.533924192
 20
77.4468842177
 11
20.0819661795
 21
77.763294518
  0
LINE
  5
220
100
AcDbEntity
  8
0
100
AcDbLine
 62
7
  6
BYLAYER
 10
20.1509348368
 20
77.7945231647
 11
24.4051711143
 21
80.2506929634
  0
LINE
  5
221
100
AcDbEntity
  8
0
100
AcDbLine
 62
7
  6
BYLAYER
 10
19.2928845518
 20
77.0561326255
 11
19.8316976757
 21
77.3672146708
  0
LINE
  5
222
100
AcDbEntity
  8
0
100
AcDbLine
 62
7
  6
BYLAYER
 10
15.0723724282
 20
41.5616670277
 11
10.5822256735
 21
44.153995819
  0
LINE
  5
223
100
AcDbEntity
  8
0
100
AcDbLine
 62
7
  6
BYLAYER
 10
20.7393598347
 20
39.492642935
 11
20.9692653932
 21
39.3599099017
  0
LINE
  5
224
100
AcDbEntity
  8
0
100
AcDbLine
 62
7
  6
BYLAYER
 10
10.5822256735
 20
45.7923895692
 11
15.0723724282
 21
43.200060778
  0
LINE
  5
225
100
AcDbEntity
  8
0
100
AcDbLine
 62
7
  6
BYLAYER
 10
17.4968258499
 20
76.0191479826
 11
17.4968258499
 21
62.9534763393
  0
LINE
  5
226
100
AcDbEntity
  8
0
100
AcDbLine
 62
7
  6
BYLAYER
 10
21.088935776
 20
77.0561369427
 11
26.2974626409
 21
80.0632633801
  0
LINE
  5
227
100
AcDbEntity
  8
0
100
AcDbLine
 62
7
  6
BYLAYER
 10
20.9692653932
 20
43.3418288896
 11
19.5624817945
 21
44.1540174048
  0
LINE
  5
228
100
AcDbEntity
  8
0
100
AcDbLine
 62
7
  6
BYLAYER
 10
19.5624817945
 20
44.1540174048
 11
19.5624817945
 21
45.792411155
  0
LINE
  5
229
100
AcDbEntity
  8
0
100
AcDbLine
 62
7
  6
BYLAYER
 10
20.929760296
 20
40.3276286467
 11
20.929760296
 21
43.3646366521
  0
LINE
  5
22A
100
AcDbEntity
  8
0
100
AcDbLine
 62
7
  6
BYLAYER
 10
19.5624817945
 20
45.792411155
 11
15.0723350398
 21
48.3847399462
  0
LINE
  5
22B
100
AcDbEntity
  8
0
100
AcDbLine
 62
7
  6
BYLAYER
 10
23.0885087091
 20
44.5653672849
 11
26.5370010074
 21
42.5744243693
  0
LINE
  5
22C
100
AcDbEntity
  8
0
100
AcDbLine
 62
7
  6
BYLAYER
 10
28.2703625136
 20
42.8904783272
 11
31.1545508185
 21
41.2253291037
  0
LINE
  5
22D
100
AcDbEntity
  8
0
100
AcDbLine
 62
7
  6
BYLAYER
 10
21.4330979278
 20
53.31887351
 11
21.6204614128
 21
52.8359735104
  0
LINE
  5
22E
100
AcDbEntity
  8
0
100
AcDbLine
 62
7
  6
BYLAYER
 10
30.9289363164
 20
77.389341299
 11
41.2753302456
 21
83.3627989625
  0
LINE
  5
22F
100
AcDbEntity
  8
0
100
AcDbLine
 62
7
  6
BYLAYER
 10
32.0448504869
 20
76.7450825274
 11
43.1803217153
 21
83.1741114625
  0
LINE
  5
230
100
AcDbEntity
  8
0
100
AcDbLine
 62
7
  6
BYLAYER
 10
19.9432383715
 20
69.0857872452
 11
18.8683061892
 21
68.4651785649
  0
LINE
  5
231
100
AcDbEntity
  8
0
100
AcDbLine
 62
7
  6
BYLAYER
 10
20.9296110235
 20
40.3276285906
 11
20.7393598347
 21
39.492642935
  0
LINE
  5
232
100
AcDbEntity
  8
0
100
AcDbLine
 62
7
  6
BYLAYER
 10
21.6958305253
 20
66.0501904699
 11
20.620898343
 21
65.4295817896
  0
LINE
  5
233
100
AcDbEntity
  8
0
100
AcDbLine
 62
7
  6
BYLAYER
 10
35.0244514087
 20
45.2126806005
 11
36.5426820581
 21
44.3361495562
  0
LINE
  5
234
100
AcDbEntity
  8
0
100
AcDbLine
 62
7
  6
BYLAYER
 10
24.6735822247
 20
57.9290092892
 11
21.4330979278
 21
53.31887351
  0
LINE
  5
235
100
AcDbEntity
  8
0
100
AcDbLine
 62
7
  6
BYLAYER
 10
30.0617134643
 20
61.0398297417
 11
27.9878566206
 21
58.0894183957
  0
LINE
  5
236
100
AcDbEntity
  8
0
100
AcDbLine
 62
7
  6
BYLAYER
 10
19.292884569
 20
59.8426286577
 11
24.0771552079
 21
57.0804912043
  0
LINE
  5
237
100
AcDbEntity
  8
0
100
AcDbLine
 62
7
  6
BYLAYER
 10
40.0755536942
 20
47.8440204885
 11
60.6022346813
 21
35.9932037964
  0
LINE
  5
238
100
AcDbEntity
  8
0
100
AcDbLine
 62
7
  6
BYLAYER
 10
31.1545508185
 20
54.1873049756
 11
24.6735822247
 21
57.9290092892
  0
LINE
  5
239
100
AcDbEntity
  8
0
100
AcDbLine
 62
7
  6
BYLAYER
 10
34.3950351154
 20
45.8354648829
 11
31.1545508185
 21
54.1873049756
  0
LINE
  5
23A
100
AcDbEntity
  8
0
100
AcDbLine
 62
7
  6
BYLAYER
 10
32.950594565
 20
55.2242451264
 11
36.1910788619
 21
46.8724050337
  0
LINE
  5
23B
100
AcDbEntity
  8
0
100
AcDbLine
 62
7
  6
BYLAYER
 10
53.5974621862
 20
77.1599086669
 11
55.3935059327
 21
78.1968488178
  0
LINE
  5
23C
100
AcDbEntity
  8
0
100
AcDbLine
 62
7
  6
BYLAYER
 10
26.4696259713
 20
58.96594944
 11
32.950594565
 21
55.2242451264
  0
LINE
  5
23D
100
AcDbEntity
  8
0
100
AcDbLine
 62
7
  6
BYLAYER
 10
24.6735822247
 20
57.9290092892
 11
26.4696259713
 21
58.96594944
  0
LINE
  5
23E
100
AcDbEntity
  8
0
100
AcDbLine
 62
7
  6
BYLAYER
 10
30.0617134643
 20
61.0398297417
 11
31.8577572108
 21
62.0767698925
  0
LINE
  5
23F
100
AcDbEntity
  8
0
100
AcDbLine
 62
7
  6
BYLAYER
 10
59.3448350769
 20
75.9155994815
 11
57.5487913303
 21
74.8786593307
  0
LINE
  5
240
100
AcDbEntity
  8
0
100
AcDbLine
 62
7
  6
BYLAYER
 10
36.4550752588
 20
62.5738646796
 11
34.838635887
 21
61.6406185438
  0
LINE
  5
241
100
AcDbEntity
  8
0
100
AcDbLine
 62
7
  6
BYLAYER
 10
36.5426820581
 20
57.2981254281
 11
30.0617134643
 21
61.0398297417
  0
LINE
  5
242
100
AcDbEntity
  8
0
100
AcDbLine
 62
7
  6
BYLAYER
 10
39.783166355
 20
48.9462853354
 11
36.5426820581
 21
57.2981254281
  0
LINE
  5
243
100
AcDbEntity
  8
0
100
AcDbLine
 62
7
  6
BYLAYER
 10
35.3466336127
 20
60.7607354205
 11
34.7419455158
 21
60.411620669
  0
LINE
  5
244
100
AcDbEntity
  8
0
100
AcDbLine
 62
7
  6
BYLAYER
 10
30.3177111224
 20
57.8573029982
 11
29.3538142762
 21
57.3008002165
  0
LINE
  5
245
100
AcDbEntity
  8
0
100
AcDbLine
 62
7
  6
BYLAYER
 10
24.9295798829
 20
54.7464825457
 11
20.0829558329
 21
51.9482995487
  0
LINE
  5
246
100
AcDbEntity
  8
0
100
AcDbLine
 62
7
  6
BYLAYER
 10
20.0295618155
 20
51.6197797808
 11
14.4618262013
 21
48.4052653133
  0
LINE
  5
247
100
AcDbEntity
  8
0
100
AcDbLine
 62
7
  6
BYLAYER
 10
15.0723350398
 20
48.3847399462
 11
10.5822256735
 21
45.7923895692
  0
LINE
  5
248
100
AcDbEntity
  8
0
100
AcDbLine
 62
7
  6
BYLAYER
 10
31.8577572108
 20
62.0767698925
 11
38.3387258046
 21
58.3350655789
  0
LINE
  5
249
100
AcDbEntity
  8
0
100
AcDbLine
 62
7
  6
BYLAYER
 10
38.3387258046
 20
58.3350655789
 11
41.5792101015
 21
49.9832254862
  0
LINE
  5
24A
100
AcDbEntity
  8
0
100
AcDbLine
 62
7
  6
BYLAYER
 10
26.5370010074
 20
42.5744243693
 11
25.7407262472
 21
41.7276937673
  0
LINE
  5
24B
100
AcDbEntity
  8
0
100
AcDbLine
 62
7
  6
BYLAYER
 10
20.1728934096
 20
38.5133475988
 11
20.9692653932
 21
39.3599099017
  0
LINE
  5
24C
100
AcDbEntity
  8
0
100
AcDbLine
 62
7
  6
BYLAYER
 10
31.1545508185
 20
54.1873049756
 11
32.950594565
 21
55.2242451264
  0
LINE
  5
24D
100
AcDbEntity
  8
0
100
AcDbLine
 62
7
  6
BYLAYER
 10
36.5426820581
 20
57.2981254281
 11
38.3387258046
 21
58.3350655789
  0
LINE
  5
24E
100
AcDbEntity
  8
0
100
AcDbLine
 62
7
  6
BYLAYER
 10
31.1545508185
 20
41.2253291037
 11
34.3950351154
 21
45.8354648829
  0
LINE
  5
24F
100
AcDbEntity
  8
0
100
AcDbLine
 62
7
  6
BYLAYER
 10
36.1910788619
 20
46.8724050337
 11
32.950594565
 21
42.2622692545
  0
LINE
  5
250
100
AcDbEntity
  8
0
100
AcDbLine
 62
7
  6
BYLAYER
 10
19.5624817945
 20
45.792411155
 11
15.0723724282
 21
43.200060778
  0
LINE
  5
251
100
AcDbEntity
  8
0
100
AcDbLine
 62
7
  6
BYLAYER
 10
19.5624817945
 20
44.1540174048
 11
15.0723724282
 21
41.5616670277
  0
LINE
  5
252
100
AcDbEntity
  8
0
100
AcDbLine
 62
7
  6
BYLAYER
 10
36.5426820581
 20
44.3361495562
 11
39.783166355
 21
48.9462853354
  0
LINE
  5
253
100
AcDbEntity
  8
0
100
AcDbLine
 62
7
  6
BYLAYER
 10
41.5792101015
 20
49.9832254862
 11
38.3387258046
 21
45.373089707
  0
LINE
  5
254
100
AcDbEntity
  8
0
100
AcDbLine
 62
7
  6
BYLAYER
 10
20.9692653932
 20
43.3418288896
 11
26.5370010074
 21
46.5563433572
  0
LINE
  5
255
100
AcDbEntity
  8
0
100
AcDbLine
 62
7
  6
BYLAYER
 10
60.6022346777
 20
53.2067077564
 11
19.2928845654
 21
77.0561326177
  0
LINE
  5
256
100
AcDbEntity
  8
0
100
AcDbLine
 62
7
  6
BYLAYER
 10
19.8316976894
 20
77.3672146629
 11
61.1410478016
 21
53.5177898016
  0
LINE
  5
257
100
AcDbEntity
  8
0
100
AcDbLine
 62
7
  6
BYLAYER
 10
60.6022272013
 20
54.2436435892
 11
21.0889357918
 21
77.0561369335
  0
LINE
  5
258
100
AcDbEntity
  8
0
100
AcDbLine
 62
7
  6
BYLAYER
 10
26.5370010074
 20
42.5744243693
 11
20.9692653932
 21
39.3599099017
  0
LINE
  5
259
100
AcDbEntity
  8
0
100
AcDbLine
 62
7
  6
BYLAYER
 10
17.6208046182
 20
37.412683518
 11
15.0723724282
 21
35.9413542897
  0
LINE
  5
25A
100
AcDbEntity
  8
0
100
AcDbLine
 62
7
  6
BYLAYER
 10
25.7407262472
 20
41.7276937673
 11
20.172990633
 21
38.5131792998
  0
LINE
  5
25B
100
AcDbEntity
  8
0
100
AcDbLine
 62
7
  6
BYLAYER
 10
36.2866844
 20
47.5186762996
 11
36.003715377
 21
47.3553050333
  0
LINE
  5
25C
100
AcDbEntity
  8
0
100
AcDbLine
 62
7
  6
BYLAYER
 10
30.8985531604
 20
44.4078558471
 11
26.0519291104
 21
41.6096728501
  0
LINE
  5
25D
100
AcDbEntity
  8
0
100
AcDbLine
 62
7
  6
BYLAYER
 10
34.3950351154
 20
45.8354648829
 11
36.1910788619
 21
46.8724050337
  0
LINE
  5
25E
100
AcDbEntity
  8
0
100
AcDbLine
 62
7
  6
BYLAYER
 10
39.783166355
 20
48.9462853354
 11
41.5792101015
 21
49.9832254862
  0
LINE
  5
25F
100
AcDbEntity
  8
0
100
AcDbLine
 62
7
  6
BYLAYER
 10
71.1988374646
 20
66.9979798054
 11
60.0633662361
 21
60.5689508703
  0
LINE
  5
260
100
AcDbEntity
  8
0
100
AcDbLine
 62
7
  6
BYLAYER
 10
43.4400439878
 20
50.4754717344
 11
41.823604616
 21
49.5422255987
  0
LINE
  5
261
100
AcDbEntity
  8
0
100
AcDbLine
 62
7
  6
BYLAYER
 10
31.1545508185
 20
41.2253291037
 11
32.950594565
 21
42.2622692545
  0
LINE
  5
262
100
AcDbEntity
  8
0
100
AcDbLine
 62
7
  6
BYLAYER
 10
36.5426820581
 20
44.3361495562
 11
38.3387258046
 21
45.373089707
  0
LINE
  5
263
100
AcDbEntity
  8
0
100
AcDbLine
 62
7
  6
BYLAYER
 10
26.2974626568
 20
80.0632633709
 11
32.0448505028
 21
76.7450825182
  0
LINE
  5
264
100
AcDbEntity
  8
0
100
AcDbLine
 62
7
  6
BYLAYER
 10
60.0633662203
 20
60.5689508794
 11
65.8107540663
 21
57.2507700267
  0
LINE
  5
265
100
AcDbEntity
  8
0
100
AcDbLine
 62
7
  6
BYLAYER
 10
65.451588897
 20
57.4581294427
 11
73.8929255174
 21
62.3317083214
  0
LINE
  5
266
100
AcDbEntity
  8
0
100
AcDbLine
 62
7
  6
BYLAYER
 10
65.8107540821
 20
57.2507700175
 11
60.6022272172
 21
54.2436435801
  0
LINE
  5
267
100
AcDbEntity
  8
0
100
AcDbLine
 62
7
  6
BYLAYER
 10
59.3448350769
 20
73.8417364485
 11
59.3448350769
 21
75.9155994815
  0
LINE
  5
268
100
AcDbEntity
  8
0
100
AcDbLine
 62
7
  6
BYLAYER
 10
61.1410478188
 20
53.5177897917
 11
60.6022346949
 21
53.2067077464
  0
LINE
  5
269
100
AcDbEntity
  8
0
100
AcDbLine
 62
7
  6
BYLAYER
 10
75.6889692639
 20
58.9615766758
 11
73.8929255174
 21
59.998499558
  0
LINE
  5
26A
100
AcDbEntity
  8
0
100
AcDbLine
 62
7
  6
BYLAYER
 10
73.8929255174
 20
57.924636525
 11
75.6889692639
 21
58.9615766758
  0
LINE
  5
26B
100
AcDbEntity
  8
0
100
AcDbLine
 62
7
  6
BYLAYER
 10
62.3982933968
 20
50.0958600904
 11
62.9371065207
 21
50.4069421357
  0
LINE
  5
26C
100
AcDbEntity
  8
0
100
AcDbLine
 62
7
  6
BYLAYER
 10
58.1992887214
 20
46.9991459441
 11
57.1243565391
 21
46.3785372639
  0
LINE
  5
26D
100
AcDbEntity
  8
0
100
AcDbLine
 62
7
  6
BYLAYER
 10
75.6889692639
 20
56.7839647293
 11
73.8929255174
 21
55.7470245785
  0
LINE
  5
26E
100
AcDbEntity
  8
0
100
AcDbLine
 62
7
  6
BYLAYER
 10
64.1906833663
 20
50.1352106394
 11
68.4868815479
 21
52.6156070101
  0
LINE
  5
26F
100
AcDbEntity
  8
0
100
AcDbLine
 62
7
  6
BYLAYER
 10
63.29631527
 20
49.5773720961
 11
64.1943371433
 21
50.0958421715
  0
LINE
  5
270
100
AcDbEntity
  8
0
100
AcDbLine
 62
7
  6
BYLAYER
 10
62.3982933968
 20
37.0301884314
 11
62.3982933968
 21
50.0958600747
  0
LINE
  5
271
100
AcDbEntity
  8
0
100
AcDbLine
 62
7
  6
BYLAYER
 10
62.9371065207
 20
50.40694212
 11
62.9371065207
 21
37.3412704766
  0
LINE
  5
272
100
AcDbEntity
  8
0
100
AcDbLine
 62
7
  6
BYLAYER
 10
63.29631527
 20
38.585616575
 11
63.29631527
 21
49.5773720778
  0
LINE
  5
273
100
AcDbEntity
  8
0
100
AcDbLine
 62
7
  6
BYLAYER
 10
64.1943371433
 20
50.0958421532
 11
64.1943371433
 21
39.1040866504
  0
LINE
  5
274
100
AcDbEntity
  8
0
100
AcDbLine
 62
7
  6
BYLAYER
 10
43.1803217312
 20
83.1741114534
 11
53.5974621862
 21
77.1599086669
  0
LINE
  5
275
100
AcDbEntity
  8
0
100
AcDbLine
 62
7
  6
BYLAYER
 10
57.5487913303
 20
74.8786593307
 11
71.1988374487
 21
66.9979798146
  0
LINE
  5
276
100
AcDbEntity
  8
0
100
AcDbLine
 62
7
  6
BYLAYER
 10
59.9518808752
 20
43.9635491688
 11
58.8769486929
 21
43.3429404885
  0
LINE
  5
277
100
AcDbEntity
  8
0
100
AcDbLine
 62
7
  6
BYLAYER
 10
73.8929255174
 20
51.339952782
 11
69.7939522926
 21
48.9734236136
  0
LINE
  5
278
100
AcDbEntity
  8
0
100
AcDbLine
 62
7
  6
BYLAYER
 10
68.5580667883
 20
47.8764466663
 11
69.389297561
 21
48.356355112
  0
LINE
  5
279
100
AcDbEntity
  8
0
100
AcDbLine
 62
7
  6
BYLAYER
 10
68.4868815479
 20
46.9302084425
 11
73.1038289343
 21
49.5957883476
  0
LINE
  5
27A
100
AcDbEntity
  8
0
100
AcDbLine
 62
7
  6
BYLAYER
 10
55.3935059327
 20
78.1968488178
 11
59.3448350769
 21
75.9155994815
  0
LINE
  5
27B
100
AcDbEntity
  8
0
100
AcDbLine
 62
7
  6
BYLAYER
 10
68.4868815479
 20
52.6156069918
 11
68.4868815479
 21
41.623851489
  0
LINE
  5
27C
100
AcDbEntity
  8
0
100
AcDbLine
 62
7
  6
BYLAYER
 10
68.4868815479
 20
41.6238514707
 11
64.1943371433
 21
39.1455645965
  0
LINE
  5
27D
100
AcDbEntity
  8
0
100
AcDbLine
 62
7
  6
BYLAYER
 10
64.1943371433
 20
39.1040866321
 11
63.29631527
 21
38.5856165567
  0
LINE
  5
27E
100
AcDbEntity
  8
0
100
AcDbLine
 62
7
  6
BYLAYER
 10
62.9371065207
 20
37.3412704568
 11
62.3982933968
 21
37.0301884115
  0
LINE
  5
27F
100
AcDbEntity
  8
0
100
AcDbLine
 62
7
  6
BYLAYER
 10
63.6240798507
 20
37.536336878
 11
67.7030456087
 21
39.8913147991
  0
LINE
  5
280
100
AcDbEntity
  8
0
100
AcDbLine
 62
7
  6
BYLAYER
 10
62.8572171236
 20
37.0435226077
 11
63.4052405602
 21
37.3599221976
  0
LINE
  5
281
100
AcDbEntity
  8
0
100
AcDbLine
 62
7
  6
BYLAYER
 10
61.8722290074
 20
35.8674121229
 11
62.4110421314
 21
36.1784941682
  0
LINE
  5
282
100
AcDbEntity
  8
0
100
AcDbLine
 62
7
  6
BYLAYER
 10
73.8929255174
 20
62.3317083031
 11
73.8929255174
 21
57.924636525
  0
LINE
  5
283
100
AcDbEntity
  8
0
100
AcDbLine
 62
7
  6
BYLAYER
 10
73.8929255174
 20
55.7470245785
 11
73.8929255174
 21
51.3399528003
  0
LINE
  5
284
100
AcDbEntity
  8
0
100
AcDbLine
 62
7
  6
BYLAYER
 10
75.6889692639
 20
58.9615766758
 11
75.6889692639
 21
56.7839647293
  0
ARC
  5
285
100
AcDbEntity
  8
0
100
AcDbCircle
 62
7
  6
BYLAYER
 10
60.602504757
 20
50.0957986495
 40
3.5918323865
100
AcDbArc
 50
0.0006939578
 51
0.4930374711
  0
ARC
  5
286
100
AcDbEntity
  8
0
100
AcDbCircle
 62
7
  6
BYLAYER
 10
66.3145620994
 20
49.9769832075
 40
3.3575547788
100
AcDbArc
 50
49.4708827513
 51
50.9538974931
  0
ARC
  5
287
100
AcDbEntity
  8
0
100
AcDbCircle
 62
7
  6
BYLAYER
 10
66.4807811351
 20
50.1855857887
 40
3.0908377416
100
AcDbArc
 50
50.9109647672
 51
54.5190553203
  0
ARC
  5
288
100
AcDbEntity
  8
0
100
AcDbCircle
 62
7
  6
BYLAYER
 10
21.0855977368
 20
50.2129751418
 40
2.0041416987
100
AcDbArc
 50
120.0186156884
 51
126.9512409629
  0
ARC
  5
289
100
AcDbEntity
  8
0
100
AcDbCircle
 62
7
  6
BYLAYER
 10
25.0530162101
 20
43.3400633574
 40
1.9980042118
100
AcDbArc
 50
292.5838519525
 51
299.996808124
  0
ARC
  5
28A
100
AcDbEntity
  8
0
100
AcDbCircle
 62
7
  6
BYLAYER
 10
19.2063008071
 20
40.1917886507
 40
1.9370608914
100
AcDbArc
 50
287.4988135558
 51
299.9370926615
  0
ARC
  5
28B
100
AcDbEntity
  8
0
100
AcDbCircle
 62
7
  6
BYLAYER
 10
61.6158459837
 20
38.1638963849
 40
1.6116408236
100
AcDbArc
 50
327.0458124142
 51
328.9169199687
  0
ARC
  5
28C
100
AcDbEntity
  8
0
100
AcDbCircle
 62
7
  6
BYLAYER
 10
19.8835196264
 20
75.8116840147
 40
1.611604087
100
AcDbArc
 50
91.083772668
 51
92.9555885846
  0
ARC
  5
28D
100
AcDbEntity
  8
0
100
AcDbCircle
 62
7
  6
BYLAYER
 10
62.7607453607
 20
38.474554628
 40
1.2875198633
100
AcDbArc
 50
300.0370692558
 51
311.0229537207
  0
ARC
  5
28E
100
AcDbEntity
  8
0
100
AcDbCircle
 62
7
  6
BYLAYER
 10
20.7247158303
 20
76.64807425
 40
1.2871883017
100
AcDbArc
 50
108.9695588168
 51
116.5964582158
  0
ARC
  5
28F
100
AcDbEntity
  8
0
100
AcDbCircle
 62
7
  6
BYLAYER
 10
20.7188551003
 20
76.6601106126
 40
1.2738017414
100
AcDbArc
 50
116.6031227735
 51
119.9986520412
  0
SPLINE
  5
290
100
AcDbEntity
  8
0
100
AcDbSpline
 62
7
  6
BYLAYER
 70
0
 71
3
 72
12
 73
8
 74
0
 42
0.0000001
 43
0.0000001
 44
0.0000000001
 40
0.0
 40
0.0
 40
0.0
 40
0.0
 40
0.2895288194
 40
0.5486668261
 40
0.7816307427
 40
0.8918394607
 40
1.0
 40
1.0
 40
1.0
 40
1.0
 10
69.9416651679
 20
49.5772702183
 30
0.0
 10
69.9416651679
 20
49.4421166703
 30
0.0
 10
69.9211378387
 20
49.185089848
 30
0.0
 10
69.8172922614
 20
48.8321282048
 30
0.0
 10
69.667860708
 20
48.5886467667
 30
0.0
 10
69.5170892757
 20
48.440291586
 30
0.0
 10
69.4330198177
 20
48.3816057373
 30
0.0
 10
69.3892900212
 20
48.3563681714
 30
0.0
  0
SPLINE
  5
291
100
AcDbEntity
  8
0
100
AcDbSpline
 62
7
  6
BYLAYER
 70
0
 71
3
 72
9
 73
5
 74
0
 42
0.0000001
 43
0.0000001
 44
0.0000000001
 40
0.0
 40
0.0
 40
0.0
 40
0.0
 40
0.2710749801
 40
1.0
 40
1.0
 40
1.0
 40
1.0
 10
68.6934178299
 20
48.4314531217
 30
0.0
 10
68.6934178299
 20
48.3495002673
 30
0.0
 10
68.6810618
 20
48.04773656
 30
0.0
 10
68.6154774112
 20
47.7449456863
 30
0.0
 10
68.5259225539
 20
47.5435903024
 30
0.0
  0
SPLINE
  5
292
100
AcDbEntity
  8
0
100
AcDbSpline
 62
7
  6
BYLAYER
 70
0
 71
3
 72
13
 73
9
 74
0
 42
0.0000001
 43
0.0000001
 44
0.0000000001
 40
0.0
 40
0.0
 40
0.0
 40
0.0
 40
0.2893776721
 40
0.5483149916
 40
0.6677431634
 40
0.7817668513
 40
0.8919057347
 40
1.0
 40
1.0
 40
1.0
 40
1.0
 10
68.4868815479
 20
41.623851489
 30
0.0
 10
68.4868815478
 20
41.4320432118
 30
0.0
 10
68.4579656734
 20
41.0675148579
 30
0.0
 10
68.3313328576
 20
40.6386817559
 30
0.0
 10
68.1775875535
 20
40.3496607025
 30
0.0
 10
68.0419906081
 20
40.1655663874
 30
0.0
 10
67.8844073742
 20
40.0103799086
 30
0.0
 10
67.7650809084
 20
39.927162808
 30
0.0
 10
67.7030316989
 20
39.8913388918
 30
0.0
  0
SPLINE
  5
293
100
AcDbEntity
  8
0
100
AcDbSpline
 62
7
  6
BYLAYER
 70
0
 71
3
 72
15
 73
11
 74
0
 42
0.0000001
 43
0.0000001
 44
0.0000000001
 40
0.0
 40
0.0
 40
0.0
 40
0.0
 40
0.1141465952
 40
0.2373352438
 40
0.3669756459
 40
0.4999989181
 40
0.6330223407
 40
0.7626631822
 40
0.8858525235
 40
1.0
 40
1.0
 40
1.0
 40
1.0
 10
65.8107540663
 20
57.2507700267
 30
0.0
 10
65.993943115
 20
57.1450081726
 30
0.0
 10
66.3557990272
 20
56.8913244739
 30
0.0
 10
66.8537232388
 20
56.4255373783
 30
0.0
 10
67.312529976
 20
55.8748626447
 30
0.0
 10
67.7150465936
 20
55.2601097149
 30
0.0
 10
68.0461834149
 20
54.6041444812
 30
0.0
 10
68.2936827027
 20
53.9314679109
 30
0.0
 10
68.448109109
 20
53.2673567188
 30
0.0
 10
68.4868815478
 20
52.8271359218
 30
0.0
 10
68.4868815479
 20
52.6156069918
 30
0.0
  0
SPLINE
  5
294
100
AcDbEntity
  8
0
100
AcDbSpline
 62
7
  6
BYLAYER
 70
0
 71
3
 72
13
 73
9
 74
0
 42
0.0000001
 43
0.0000001
 44
0.0000000001
 40
0.0
 40
0.0
 40
0.0
 40
0.0
 40
0.2893776721
 40
0.5483149915
 40
0.6677431634
 40
0.7817668513
 40
0.8919057347
 40
1.0
 40
1.0
 40
1.0
 40
1.0
 10
73.8929255174
 20
51.3399528003
 30
0.0
 10
73.8929255173
 20
51.1468572192
 30
0.0
 10
73.8638155766
 20
50.7798823663
 30
0.0
 10
73.7363328762
 20
50.3481711899
 30
0.0
 10
73.5815557243
 20
50.0572103979
 30
0.0
 10
73.4450487323
 20
49.8718805505
 30
0.0
 10
73.2864078928
 20
49.7156525517
 30
0.0
 10
73.1662805783
 20
49.6318769471
 30
0.0
 10
73.1038149311
 20
49.5958126019
 30
0.0
  0
SPLINE
  5
295
100
AcDbEntity
  8
0
100
AcDbSpline
 62
7
  6
BYLAYER
 70
0
 71
3
 72
15
 73
11
 74
0
 42
0.0000001
 43
0.0000001
 44
0.0000000001
 40
0.0
 40
0.0
 40
0.0
 40
0.0
 40
0.1141465952
 40
0.2373352438
 40
0.3669756459
 40
0.4999989181
 40
0.6330223407
 40
0.7626631822
 40
0.8858525235
 40
1.0
 40
1.0
 40
1.0
 40
1.0
 10
71.1988374487
 20
66.9979798146
 30
0.0
 10
71.3832559541
 20
66.8915081494
 30
0.0
 10
71.7475404295
 20
66.6361218755
 30
0.0
 10
72.2488064143
 20
66.1672086921
 30
0.0
 10
72.7106923914
 20
65.6128381549
 30
0.0
 10
73.1159104627
 20
64.9939593666
 30
0.0
 10
73.4492696787
 20
64.3335916816
 30
0.0
 10
73.6984300356
 20
63.6564005036
 30
0.0
 10
73.8538928608
 20
62.9878321894
 30
0.0
 10
73.8929255173
 20
62.5446568904
 30
0.0
 10
73.8929255174
 20
62.3317083031
 30
0.0
  0
SPLINE
  5
296
100
AcDbEntity
  8
0
100
AcDbSpline
 62
7
  6
BYLAYER
 70
0
 71
3
 72
10
 73
6
 74
0
 42
0.0000001
 43
0.0000001
 44
0.0000000001
 40
0.0
 40
0.0
 40
0.0
 40
0.0
 40
0.242324911
 40
0.4880390768
 40
1.0
 40
1.0
 40
1.0
 40
1.0
 10
14.4618280077
 20
48.4052622801
 30
0.0
 10
14.3827108817
 20
48.3595825223
 30
0.0
 10
14.2297746557
 20
48.2558800838
 30
0.0
 10
13.9502753245
 20
48.0014978792
 30
0.0
 10
13.7809833169
 20
47.7662204018
 30
0.0
 10
13.6869397498
 20
47.5976705256
 30
0.0
  0
SPLINE
  5
297
100
AcDbEntity
  8
0
100
AcDbSpline
 62
7
  6
BYLAYER
 70
0
 71
3
 72
9
 73
5
 74
0
 42
0.0000001
 43
0.0000001
 44
0.0000000001
 40
0.0
 40
0.0
 40
0.0
 40
0.0
 40
0.5084190086
 40
1.0
 40
1.0
 40
1.0
 40
1.0
 10
25.1052896734
 20
41.3344609519
 30
0.0
 10
25.2297163893
 20
41.3418290824
 30
0.0
 10
25.4738214332
 20
41.3750410765
 30
0.0
 10
25.7090506674
 20
41.4489722293
 30
0.0
 10
25.8203199833
 20
41.4952691277
 30
0.0
  0
SPLINE
  5
298
100
AcDbEntity
  8
0
100
AcDbSpline
 62
7
  6
BYLAYER
 70
0
 71
3
 72
9
 73
5
 74
0
 42
0.0000001
 43
0.0000001
 44
0.0000000001
 40
0.0
 40
0.0
 40
0.0
 40
0.0
 40
0.4936837022
 40
1.0
 40
1.0
 40
1.0
 40
1.0
 10
19.8808376923
 20
51.8145797071
 30
0.0
 10
19.8006977714
 20
51.7543096524
 30
0.0
 10
19.6472934189
 20
51.6199277497
 30
0.0
 10
19.5147817156
 20
51.4650380828
 30
0.0
 10
19.4531988749
 20
51.3826754611
 30
0.0
  0
SPLINE
  5
299
100
AcDbEntity
  8
0
100
AcDbSpline
 62
7
  6
BYLAYER
 70
0
 71
3
 72
9
 73
5
 74
0
 42
0.0000001
 43
0.0000001
 44
0.0000000001
 40
0.0
 40
0.0
 40
0.0
 40
0.0
 40
0.2429575665
 40
1.0
 40
1.0
 40
1.0
 40
1.0
 10
19.4531988749
 20
51.3826754611
 30
0.0
 10
19.4238506597
 20
51.3434243334
 30
0.0
 10
19.308112454
 20
51.1781113105
 30
0.0
 10
19.2128016016
 20
50.9987990419
 30
0.0
 10
19.1517493149
 20
50.858821879
 30
0.0
  0
SPLINE
  5
29A
100
AcDbEntity
  8
0
100
AcDbSpline
 62
7
  6
BYLAYER
 70
0
 71
3
 72
9
 73
5
 74
0
 42
0.0000001
 43
0.0000001
 44
0.0000000001
 40
0.0
 40
0.0
 40
0.0
 40
0.0
 40
0.4911735491
 40
1.0
 40
1.0
 40
1.0
 40
1.0
 10
34.8386400762
 20
61.6406112865
 30
0.0
 10
34.6786978379
 20
61.5482704391
 30
0.0
 10
34.3747461121
 20
61.3201844899
 30
0.0
 10
34.1317680399
 20
61.0288337658
 30
0.0
 10
34.0246060978
 20
60.8703394336
 30
0.0
  0
SPLINE
  5
29B
100
AcDbEntity
  8
0
100
AcDbSpline
 62
7
  6
BYLAYER
 70
0
 71
3
 72
11
 73
7
 74
0
 42
0.0000001
 43
0.0000001
 44
0.0000000001
 40
0.0
 40
0.0
 40
0.0
 40
0.0
 40
0.2898028138
 40
0.5490576158
 40
0.7822262567
 40
1.0
 40
1.0
 40
1.0
 40
1.0
 10
19.7445705319
 20
65.5164210645
 30
0.0
 10
19.8215022831
 20
65.4720032351
 30
0.0
 10
19.9744593458
 20
65.3991653918
 30
0.0
 10
20.2096284757
 20
65.3424334209
 30
0.0
 10
20.4302293932
 20
65.3480025347
 30
0.0
 10
20.5630888823
 20
65.3962015815
 30
0.0
 10
20.6208860316
 20
65.4296031068
 30
0.0
  0
SPLINE
  5
29C
100
AcDbEntity
  8
0
100
AcDbSpline
 62
7
  6
BYLAYER
 70
0
 71
3
 72
11
 73
7
 74
0
 42
0.0000001
 43
0.0000001
 44
0.0000000001
 40
0.0
 40
0.0
 40
0.0
 40
0.0
 40
0.217774097
 40
0.4509020802
 40
0.7103645465
 40
1.0
 40
1.0
 40
1.0
 40
1.0
 10
18.8683185006
 20
68.4651572477
 30
0.0
 10
18.810522626
 20
68.4317564591
 30
0.0
 10
18.702303577
 20
68.3409038997
 30
0.0
 10
18.5871660844
 20
68.1525635597
 30
0.0
 10
18.5188137531
 20
67.9205243458
 30
0.0
 10
18.5053217618
 20
67.7516432857
 30
0.0
 10
18.5053217618
 20
67.6628629236
 30
0.0
  0
SPLINE
  5
29D
100
AcDbEntity
  8
0
100
AcDbSpline
 62
7
  6
BYLAYER
 70
0
 71
3
 72
11
 73
7
 74
0
 42
0.0000001
 43
0.0000001
 44
0.0000000001
 40
0.0
 40
0.0
 40
0.0
 40
0.0
 40
0.2853953963
 40
0.5451493445
 40
0.7812600352
 40
1.0
 40
1.0
 40
1.0
 40
1.0
 10
64.1943371433
 20
39.1040866504
 30
0.0
 10
64.1943371432
 20
38.9371690208
 30
0.0
 10
64.1722378839
 20
38.6175807992
 30
0.0
 10
64.0621881011
 20
38.1712810814
 30
0.0
 10
63.8778980143
 20
37.7922127718
 30
0.0
 10
63.7023706723
 20
37.587127462
 30
0.0
 10
63.6058236062
 20
37.5031895281
 30
0.0
  0
SPLINE
  5
29E
100
AcDbEntity
  8
0
100
AcDbSpline
 62
7
  6
BYLAYER
 70
0
 71
3
 72
15
 73
11
 74
0
 42
0.0000001
 43
0.0000001
 44
0.0000000001
 40
0.0
 40
0.0
 40
0.0
 40
0.0
 40
0.1140233952
 40
0.2370401103
 40
0.3664975015
 40
0.499376194
 40
0.6323404967
 40
0.7620503124
 40
0.8854576888
 40
1.0
 40
1.0
 40
1.0
 40
1.0
 10
61.5002490905
 20
54.7621136534
 30
0.0
 10
61.6834554632
 20
54.6563417975
 30
0.0
 10
62.0454081971
 20
54.4028926416
 30
0.0
 10
62.5438590316
 20
53.9378232255
 30
0.0
 10
63.0036422326
 20
53.3880990773
 30
0.0
 10
63.4077640151
 20
52.77424845
 30
0.0
 10
63.7412628288
 20
52.1188158971
 30
0.0
 10
63.9919282442
 20
51.4459957136
 30
0.0
 10
64.1503652263
 20
50.7807385788
 30
0.0
 10
64.1923780718
 20
50.3392086412
 30
0.0
 10
64.19420416
 20
50.1267064426
 30
0.0
  0
SPLINE
  5
29F
100
AcDbEntity
  8
0
100
AcDbSpline
 62
7
  6
BYLAYER
 70
0
 71
3
 72
11
 73
7
 74
0
 42
0.0000001
 43
0.0000001
 44
0.0000000001
 40
0.0
 40
0.0
 40
0.0
 40
0.0
 40
0.2898028138
 40
0.5490576158
 40
0.7822262567
 40
1.0
 40
1.0
 40
1.0
 40
1.0
 10
58.0006208818
 20
43.4297797634
 30
0.0
 10
58.077552633
 20
43.385361934
 30
0.0
 10
58.2305096957
 20
43.3125240907
 30
0.0
 10
58.4656788256
 20
43.2557921198
 30
0.0
 10
58.6862797431
 20
43.2613612336
 30
0.0
 10
58.8191392322
 20
43.3095602804
 30
0.0
 10
58.8769363815
 20
43.3429618057
 30
0.0
  0
SPLINE
  5
2A0
100
AcDbEntity
  8
0
100
AcDbSpline
 62
7
  6
BYLAYER
 70
0
 71
3
 72
11
 73
7
 74
0
 42
0.0000001
 43
0.0000001
 44
0.0000000001
 40
0.0
 40
0.0
 40
0.0
 40
0.0
 40
0.217774097
 40
0.4509020802
 40
0.7103645465
 40
1.0
 40
1.0
 40
1.0
 40
1.0
 10
57.1243688505
 20
46.3785159467
 30
0.0
 10
57.0665729759
 20
46.345115158
 30
0.0
 10
56.9583539269
 20
46.2542625986
 30
0.0
 10
56.8432164343
 20
46.0659222586
 30
0.0
 10
56.774864103
 20
45.8338830447
 30
0.0
 10
56.7613721117
 20
45.6650019847
 30
0.0
 10
56.7613721117
 20
45.5762216226
 30
0.0
  0
SPLINE
  5
2A1
100
AcDbEntity
  8
0
100
AcDbSpline
 62
7
  6
BYLAYER
 70
0
 71
3
 72
11
 73
7
 74
0
 42
0.0000001
 43
0.0000001
 44
0.0000000001
 40
0.0
 40
0.0
 40
0.0
 40
0.0
 40
0.2177843135
 40
0.4509117635
 40
0.7102976702
 40
1.0
 40
1.0
 40
1.0
 40
1.0
 10
18.5617097003
 20
77.4929953601
 30
0.0
 10
18.6454937953
 20
77.5413678042
 30
0.0
 10
18.8380007797
 20
77.6112301651
 30
0.0
 10
19.1577516001
 20
77.6193261927
 30
0.0
 10
19.4985310372
 20
77.5370340321
 30
0.0
 10
19.7202454751
 20
77.431560173
 30
0.0
 10
19.8316976894
 20
77.3672146629
 30
0.0
  0
SPLINE
  5
2A2
100
AcDbEntity
  8
0
100
AcDbSpline
 62
7
  6
BYLAYER
 70
0
 71
3
 72
11
 73
7
 74
0
 42
0.0000001
 43
0.0000001
 44
0.0000000001
 40
0.0
 40
0.0
 40
0.0
 40
0.0
 40
0.2177833595
 40
0.4509104085
 40
0.7102966711
 40
1.0
 40
1.0
 40
1.0
 40
1.0
 10
18.0228965763
 20
77.1819133149
 30
0.0
 10
17.9391106308
 20
77.1335397504
 30
0.0
 10
17.7823505706
 20
77.00175188
 30
0.0
 10
17.6154609086
 20
76.7288796801
 30
0.0
 10
17.5163382651
 20
76.3925996845
 30
0.0
 10
17.49682585
 20
76.147845071
 30
0.0
 10
17.4968258499
 20
76.0191479826
 30
0.0
  0
SPLINE
  5
2A3
100
AcDbEntity
  8
0
100
AcDbSpline
 62
7
  6
BYLAYER
 70
0
 71
3
 72
11
 73
7
 74
0
 42
0.0000001
 43
0.0000001
 44
0.0000000001
 40
0.0
 40
0.0
 40
0.0
 40
0.0
 40
0.2187405374
 40
0.4548511283
 40
0.714604759
 40
1.0
 40
1.0
 40
1.0
 40
1.0
 10
20.3062949924
 20
77.8653571779
 30
0.0
 10
20.4272591644
 20
77.9070030742
 30
0.0
 10
20.692628825
 20
77.9564773278
 30
0.0
 10
21.1130537694
 20
77.9265511772
 30
0.0
 10
21.5545833038
 20
77.7987147513
 30
0.0
 10
21.8424032694
 20
77.658063638
 30
0.0
 10
21.9869576492
 20
77.574607016
 30
0.0
  0
SPLINE
  5
2A4
100
AcDbEntity
  8
0
100
AcDbSpline
 62
7
  6
BYLAYER
 70
0
 71
3
 72
11
 73
7
 74
0
 42
0.0000001
 43
0.0000001
 44
0.0000000001
 40
0.0
 40
0.0
 40
0.0
 40
0.0
 40
0.2897033281
 40
0.5490895201
 40
0.7822165956
 40
1.0
 40
1.0
 40
1.0
 40
1.0
 10
62.9371065207
 20
37.3412704766
 30
0.0
 10
62.9371065206
 20
37.2125733883
 30
0.0
 10
62.9175941494
 20
36.9678188022
 30
0.0
 10
62.8184714808
 20
36.6315388263
 30
0.0
 10
62.6515818244
 20
36.3586666426
 30
0.0
 10
62.4948217799
 20
36.22687868
 30
0.0
 10
62.4110357943
 20
36.1785051444
 30
0.0
  0
SPLINE
  5
2A5
100
AcDbEntity
  8
0
100
AcDbSpline
 62
7
  6
BYLAYER
 70
0
 71
3
 72
15
 73
11
 74
0
 42
0.0000001
 43
0.0000001
 44
0.0000000001
 40
0.0
 40
0.0
 40
0.0
 40
0.0
 40
0.1141232786
 40
0.2373467933
 40
0.3669716249
 40
0.4999988492
 40
0.6330262331
 40
0.7626515288
 40
0.885875802
 40
1.0
 40
1.0
 40
1.0
 40
1.0
 10
61.1410478016
 20
53.5177898016
 30
0.0
 10
61.2639680716
 20
53.446823356
 30
0.0
 10
61.5068121176
 20
53.2765270579
 30
0.0
 10
61.8410220898
 20
52.9639633797
 30
0.0
 10
62.1489457416
 20
52.5943449493
 30
0.0
 10
62.4191072397
 20
52.1817826641
 30
0.0
 10
62.6413183089
 20
51.7415353693
 30
0.0
 10
62.8074584486
 20
51.2900557371
 30
0.0
 10
62.9110449713
 20
50.8443376516
 30
0.0
 10
62.9371065206
 20
50.5488785627
 30
0.0
 10
62.9371065207
 20
50.40694212
 30
0.0
  0
SPLINE
  5
2A6
100
AcDbEntity
  8
0
100
AcDbSpline
 62
7
  6
BYLAYER
 70
0
 71
3
 72
13
 73
9
 74
0
 42
0.0000001
 43
0.0000001
 44
0.0000000001
 40
0.0
 40
0.0
 40
0.0
 40
0.0
 40
0.1080947723
 40
0.2182340857
 40
0.3322580582
 40
0.4516863353
 40
0.7106233083
 40
1.0
 40
1.0
 40
1.0
 40
1.0
 10
24.4051850242
 20
80.2506688707
 30
0.0
 10
24.467232863
 20
80.2864919955
 30
0.0
 10
24.5989614265
 20
80.3482213633
 30
0.0
 10
24.8121434954
 20
80.4070979011
 30
0.0
 10
25.03936666
 20
80.4324813052
 30
0.0
 10
25.3665301894
 20
80.4211202654
 30
0.0
 10
25.801215292
 20
80.3163775435
 30
0.0
 10
26.1313558877
 20
80.1591629891
 30
0.0
 10
26.2974626568
 20
80.0632633709
 30
0.0
  0
SPLINE
  5
2A7
100
AcDbEntity
  8
0
100
AcDbSpline
 62
7
  6
BYLAYER
 70
0
 71
3
 72
13
 73
9
 74
0
 42
0.0000001
 43
0.0000001
 44
0.0000000001
 40
0.0
 40
0.0
 40
0.0
 40
0.0
 40
0.1080947723
 40
0.2182340857
 40
0.3322580582
 40
0.4516863353
 40
0.7106233083
 40
1.0
 40
1.0
 40
1.0
 40
1.0
 10
41.2753442488
 20
83.3627747081
 30
0.0
 10
41.3378085161
 20
83.3988382566
 30
0.0
 10
41.4704211639
 20
83.4609819154
 30
0.0
 10
41.685033985
 20
83.5202535978
 30
0.0
 10
41.9137821372
 20
83.5458073603
 30
0.0
 10
42.243141395
 20
83.5343700719
 30
0.0
 10
42.6807438472
 20
83.4289243788
 30
0.0
 10
43.0131001516
 20
83.2706546931
 30
0.0
 10
43.1803217312
 20
83.1741114534
 30
0.0
  0
SPLINE
  5
2A8
100
AcDbEntity
  8
0
100
AcDbSpline
 62
7
  6
BYLAYER
 70
0
 71
3
 72
9
 73
5
 74
0
 42
0.0000001
 43
0.0000001
 44
0.0000000001
 40
0.0
 40
0.0
 40
0.0
 40
0.0
 40
0.5188858037
 40
1.0
 40
1.0
 40
1.0
 40
1.0
 10
68.5278024341
 20
49.5063013159
 30
0.0
 10
68.5807094952
 20
49.3253067222
 30
0.0
 10
68.6619607642
 20
48.969987069
 30
0.0
 10
68.6934178299
 20
48.6062953238
 30
0.0
 10
68.6934178299
 20
48.4314531217
 30
0.0
  0
SPLINE
  5
2A9
100
AcDbEntity
  8
0
100
AcDbSpline
 62
7
  6
BYLAYER
 70
0
 71
3
 72
12
 73
8
 74
0
 42
0.0000001
 43
0.0000001
 44
0.0000000001
 40
0.0
 40
0.0
 40
0.0
 40
0.0
 40
0.250125391
 40
0.5125515624
 40
0.7681813736
 40
0.888058392
 40
1.0
 40
1.0
 40
1.0
 40
1.0
 10
68.496416683
 20
52.52897942
 30
0.0
 10
68.7102014627
 20
52.3462347871
 30
0.0
 10
69.1037463714
 20
51.9180646603
 30
0.0
 10
69.5580190554
 20
51.1783269951
 30
0.0
 10
69.8145542163
 20
50.5024571307
 30
0.0
 10
69.922177304
 20
49.9640208052
 30
0.0
 10
69.9416651679
 20
49.7031397801
 30
0.0
 10
69.9416651679
 20
49.5772702183
 30
0.0
  0
SPLINE
  5
2AA
100
AcDbEntity
  8
0
100
AcDbSpline
 62
7
  6
BYLAYER
 70
0
 71
3
 72
15
 73
11
 74
0
 42
0.0000001
 43
0.0000001
 44
0.0000000001
 40
0.0
 40
0.0
 40
0.0
 40
0.0
 40
0.1141241598
 40
0.2373483675
 40
0.3669736386
 40
0.5000010134
 40
0.6330282467
 40
0.762653103
 40
0.8858766831
 40
1.0
 40
1.0
 40
1.0
 40
1.0
 10
17.4968258499
 20
62.9534763393
 30
0.0
 10
17.49682585
 20
62.8115399441
 30
0.0
 10
17.5228873433
 20
62.5160809807
 30
0.0
 10
17.6264738363
 20
62.0703630513
 30
0.0
 10
17.7926138795
 20
61.618883518
 30
0.0
 10
18.0148248835
 20
61.1786362238
 30
0.0
 10
18.2849863494
 20
60.7660738817
 30
0.0
 10
18.5929100386
 20
60.3964553184
 30
0.0
 10
18.9271201311
 20
60.0838915363
 30
0.0
 10
19.1699642578
 20
59.9135951271
 30
0.0
 10
19.292884569
 20
59.8426286577
 30
0.0
  0
SPLINE
  5
2AB
100
AcDbEntity
  8
0
100
AcDbSpline
 62
7
  6
BYLAYER
 70
0
 71
3
 72
11
 73
7
 74
0
 42
0.0000001
 43
0.0000001
 44
0.0000000001
 40
0.0
 40
0.0
 40
0.0
 40
0.0
 40
0.2897023289
 40
0.5490881651
 40
0.7822156417
 40
1.0
 40
1.0
 40
1.0
 40
1.0
 10
60.6022346813
 20
35.9932037964
 30
0.0
 10
60.7136868955
 20
35.9288582863
 30
0.0
 10
60.9354012878
 20
35.8233844029
 30
0.0
 10
61.2761807203
 20
35.7410922739
 30
0.0
 10
61.5959315239
 20
35.7491883047
 30
0.0
 10
61.7884385803
 20
35.819050606
 30
0.0
 10
61.8722226703
 20
35.8674230992
 30
0.0
  0
SPLINE
  5
2AC
100
AcDbEntity
  8
0
100
AcDbSpline
 62
7
  6
BYLAYER
 70
0
 71
3
 72
13
 73
9
 74
0
 42
0.0000001
 43
0.0000001
 44
0.0000000001
 40
0.0
 40
0.0
 40
0.0
 40
0.0
 40
0.1142085625
 40
0.2375728082
 40
0.5000058966
 40
0.7624613834
 40
0.8857466025
 40
1.0
 40
1.0
 40
1.0
 40
1.0
 10
56.7613736297
 20
45.3657236483
 30
0.0
 10
56.7613736297
 20
45.2822087725
 30
0.0
 10
56.7767213734
 20
45.1083139184
 30
0.0
 10
56.8597397151
 20
44.751336594
 30
0.0
 10
57.0528437239
 20
44.3135001815
 30
0.0
 10
57.3354642059
 20
43.9274408854
 30
0.0
 10
57.6030307737
 20
43.6769808944
 30
0.0
 10
57.7459736719
 20
43.5768110028
 30
0.0
 10
57.8183271193
 20
43.5350355272
 30
0.0
  0
SPLINE
  5
2AD
100
AcDbEntity
  8
0
100
AcDbSpline
 62
7
  6
BYLAYER
 70
0
 71
3
 72
13
 73
9
 74
0
 42
0.0000001
 43
0.0000001
 44
0.0000000001
 40
0.0
 40
0.0
 40
0.0
 40
0.0
 40
0.1142085625
 40
0.2375728082
 40
0.5000058966
 40
0.7624613834
 40
0.8857466025
 40
1.0
 40
1.0
 40
1.0
 40
1.0
 10
18.5053232798
 20
67.4523649494
 30
0.0
 10
18.5053232798
 20
67.3688500735
 30
0.0
 10
18.5206710235
 20
67.1949552195
 30
0.0
 10
18.6036893652
 20
66.8379778951
 30
0.0
 10
18.796793374
 20
66.4001414826
 30
0.0
 10
19.079413856
 20
66.0140821865
 30
0.0
 10
19.3469804238
 20
65.7636221954
 30
0.0
 10
19.489923322
 20
65.6634523038
 30
0.0
 10
19.5622767694
 20
65.6216768283
 30
0.0
  0
SPLINE
  5
2AE
100
AcDbEntity
  8
0
100
AcDbSpline
 62
7
  6
BYLAYER
 70
0
 71
3
 72
9
 73
5
 74
0
 42
0.0000001
 43
0.0000001
 44
0.0000000001
 40
0.0
 40
0.0
 40
0.0
 40
0.0
 40
0.5030045075
 40
1.0
 40
1.0
 40
1.0
 40
1.0
 10
41.2362730749
 20
49.3018186303
 30
0.0
 10
41.3394210106
 20
49.3289050912
 30
0.0
 10
41.5412694561
 20
49.3959898356
 30
0.0
 10
41.7323459458
 20
49.4895481107
 30
0.0
 10
41.8236004267
 20
49.542232856
 30
0.0
  0
SPLINE
  5
2AF
100
AcDbEntity
  8
0
100
AcDbSpline
 62
7
  6
BYLAYER
 70
0
 71
3
 72
9
 73
5
 74
0
 42
0.0000001
 43
0.0000001
 44
0.0000000001
 40
0.0
 40
0.0
 40
0.0
 40
0.0
 40
0.2616839818
 40
1.0
 40
1.0
 40
1.0
 40
1.0
 10
11.3904640536
 20
38.0463603148
 30
0.0
 10
11.31596157
 20
38.0893733707
 30
0.0
 10
11.035427303
 20
38.2607068659
 30
0.0
 10
10.7717914831
 20
38.4608730745
 30
0.0
 10
10.5940586241
 20
38.6261706345
 30
0.0
  0
SPLINE
  5
2B0
100
AcDbEntity
  8
0
100
AcDbSpline
 62
7
  6
BYLAYER
 70
0
 71
3
 72
11
 73
7
 74
0
 42
0.0000001
 43
0.0000001
 44
0.0000000001
 40
0.0
 40
0.0
 40
0.0
 40
0.0
 40
0.2752180731
 40
0.530017229
 40
0.769273725
 40
1.0
 40
1.0
 40
1.0
 40
1.0
 10
10.5940586241
 20
38.6261706345
 30
0.0
 10
10.4630831565
 20
38.7479822417
 30
0.0
 10
10.2275403588
 20
39.0018513478
 30
0.0
 10
9.9574206187
 20
39.4262555726
 30
0.0
 10
9.7913554823
 20
39.8710587064
 30
0.0
 10
9.7538014923
 20
40.1776791506
 30
0.0
 10
9.7537855801
 20
40.3276286937
 30
0.0
  0
SPLINE
  5
2B1
100
AcDbEntity
  8
0
100
AcDbSpline
 62
7
  6
BYLAYER
 70
0
 71
3
 72
9
 73
5
 74
0
 42
0.0000001
 43
0.0000001
 44
0.0000000001
 40
0.0
 40
0.0
 40
0.0
 40
0.0
 40
0.4797687199
 40
1.0
 40
1.0
 40
1.0
 40
1.0
 10
20.7393598347
 20
39.492642935
 30
0.0
 10
20.6664918435
 20
39.3356338651
 30
0.0
 10
20.4762496994
 20
39.0255034122
 30
0.0
 10
20.230967625
 20
38.7582037757
 30
0.0
 10
20.0937352428
 20
38.6301578575
 30
0.0
  0
SPLINE
  5
2B2
100
AcDbEntity
  8
0
100
AcDbSpline
 62
7
  6
BYLAYER
 70
0
 71
3
 72
15
 73
11
 74
0
 42
0.0000001
 43
0.0000001
 44
0.0000000001
 40
0.0
 40
0.0
 40
0.0
 40
0.0
 40
0.1047413346
 40
0.2220003391
 40
0.3495300062
 40
0.4837477812
 40
0.6203170861
 40
0.754660885
 40
0.8824216433
 40
1.0
 40
1.0
 40
1.0
 40
1.0
 10
20.0937352428
 20
38.6301578575
 30
0.0
 10
19.8589450714
 20
38.4110847595
 30
0.0
 10
19.299381401
 20
38.011979731
 30
0.0
 10
18.3197364641
 20
37.5662059505
 30
0.0
 10
17.1955031026
 20
37.2557535218
 30
0.0
 10
15.9812712299
 20
37.095706163
 30
0.0
 10
14.7357972131
 20
37.093512871
 30
0.0
 10
13.5197875927
 20
37.2494720572
 30
0.0
 10
12.392864687
 20
37.555680872
 30
0.0
 10
11.7026495035
 20
37.8661240388
 30
0.0
 10
11.3904640536
 20
38.0463603148
 30
0.0
  0
SPLINE
  5
2B3
100
AcDbEntity
  8
0
100
AcDbSpline
 62
7
  6
BYLAYER
 70
0
 71
3
 72
11
 73
7
 74
0
 42
0.0000001
 43
0.0000001
 44
0.0000000001
 40
0.0
 40
0.0
 40
0.0
 40
0.0
 40
0.2757867466
 40
0.5355613154
 40
0.7772818435
 40
1.0
 40
1.0
 40
1.0
 40
1.0
 10
12.8520079865
 20
47.1978031324
 30
0.0
 10
12.6103109366
 20
47.128379507
 30
0.0
 10
12.147009745
 20
46.9708558169
 30
0.0
 10
11.5033911665
 20
46.6703424763
 30
0.0
 10
10.942649663
 20
46.3181486373
 30
0.0
 10
10.6188714073
 20
46.041860116
 30
0.0
 10
10.4768092472
 20
45.8967393704
 30
0.0
  0
SPLINE
  5
2B4
100
AcDbEntity
  8
0
100
AcDbSpline
 62
7
  6
BYLAYER
 70
0
 71
3
 72
11
 73
7
 74
0
 42
0.0000001
 43
0.0000001
 44
0.0000000001
 40
0.0
 40
0.0
 40
0.0
 40
0.0
 40
0.2724320186
 40
0.5265907829
 40
0.7670050684
 40
1.0
 40
1.0
 40
1.0
 40
1.0
 10
10.4768092472
 20
45.8967393704
 30
0.0
 10
10.3633146774
 20
45.7808012727
 30
0.0
 10
10.1596390605
 20
45.540285741
 30
0.0
 10
9.9276638885
 20
45.1437934724
 30
0.0
 10
9.7858571174
 20
44.7311670454
 30
0.0
 10
9.7537708558
 20
44.4483041408
 30
0.0
 10
9.7537855801
 20
44.3095476816
 30
0.0
  0
SPLINE
  5
2B5
100
AcDbEntity
  8
0
100
AcDbSpline
 62
7
  6
BYLAYER
 70
0
 71
3
 72
14
 73
10
 74
0
 42
0.0000001
 43
0.0000001
 44
0.0000000001
 40
0.0
 40
0.0
 40
0.0
 40
0.0
 40
0.1080455001
 40
0.2181301531
 40
0.3321083266
 40
0.4514891562
 40
0.5774332982
 40
0.7107341292
 40
1.0
 40
1.0
 40
1.0
 40
1.0
 10
9.7537855801
 20
44.3095476816
 30
0.0
 10
9.7537968059
 20
44.2037607705
 30
0.0
 10
9.7721532537
 20
43.989761821
 30
0.0
 10
9.8541522269
 20
43.6736687987
 30
0.0
 10
9.9895379412
 20
43.364418814
 30
0.0
 10
10.1764516083
 20
43.0650794633
 30
0.0
 10
10.4130106211
 20
42.7783710539
 30
0.0
 10
10.8016636963
 20
42.4064170369
 30
0.0
 10
11.1451877804
 20
42.1698864214
 30
0.0
 10
11.3904640536
 20
42.0282793027
 30
0.0
  0
SPLINE
  5
2B6
100
AcDbEntity
  8
0
100
AcDbSpline
 62
7
  6
BYLAYER
 70
0
 71
3
 72
14
 73
10
 74
0
 42
0.0000001
 43
0.0000001
 44
0.0000000001
 40
0.0
 40
0.0
 40
0.0
 40
0.0
 40
0.1080444936
 40
0.2181267122
 40
0.3321074125
 40
0.4514969482
 40
0.5774420774
 40
0.7107271104
 40
1.0
 40
1.0
 40
1.0
 40
1.0
 10
41.8236004267
 20
49.542232856
 30
0.0
 10
41.9381205193
 20
49.6083497399
 30
0.0
 10
42.1582749367
 20
49.7620227084
 30
0.0
 10
42.4492621942
 20
50.0482984522
 30
0.0
 10
42.6994037426
 20
50.3881824099
 30
0.0
 10
42.9066455539
 20
50.7776263789
 30
0.0
 10
43.0691659024
 20
51.2129071441
 30
0.0
 10
43.2289474592
 20
51.8661056879
 30
0.0
 10
43.2702816816
 20
52.3858190551
 30
0.0
 10
43.2702816816
 20
52.7398604009
 30
0.0
  0
SPLINE
  5
2B7
100
AcDbEntity
  8
0
100
AcDbSpline
 62
7
  6
BYLAYER
 70
0
 71
3
 72
9
 73
5
 74
0
 42
0.0000001
 43
0.0000001
 44
0.0000000001
 40
0.0
 40
0.0
 40
0.0
 40
0.0
 40
0.2590275737
 40
1.0
 40
1.0
 40
1.0
 40
1.0
 10
19.5622767694
 20
65.6216768283
 30
0.0
 10
19.5776821855
 20
65.6127820401
 30
0.0
 10
19.6377922669
 20
65.579570967
 30
0.0
 10
19.7005384758
 20
65.5510173439
 30
0.0
 10
19.7482512946
 20
65.5333270556
 30
0.0
  0
SPLINE
  5
2B8
100
AcDbEntity
  8
0
100
AcDbSpline
 62
7
  6
BYLAYER
 70
0
 71
3
 72
15
 73
11
 74
0
 42
0.0000001
 43
0.0000001
 44
0.0000000001
 40
0.0
 40
0.0
 40
0.0
 40
0.0
 40
0.1347100225
 40
0.2569215555
 40
0.3702693473
 40
0.4804061995
 40
0.5938271662
 40
0.7162031269
 40
0.8512716155
 40
1.0
 40
1.0
 40
1.0
 40
1.0
 10
19.7482512946
 20
65.5333270556
 30
0.0
 10
19.8056653453
 20
65.5120398808
 30
0.0
 10
19.9190987487
 20
65.480682645
 30
0.0
 10
20.0888462199
 20
65.4726039963
 30
0.0
 10
20.2443293427
 20
65.5075285161
 30
0.0
 10
20.3788460034
 20
65.5857075268
 30
0.0
 10
20.4864806368
 20
65.7033192076
 30
0.0
 10
20.5639422134
 20
65.8549565354
 30
0.0
 10
20.6099935967
 20
66.034962146
 30
0.0
 10
20.6192843719
 20
66.1642911186
 30
0.0
 10
20.6192843719
 20
66.2318965545
 30
0.0
  0
SPLINE
  5
2B9
100
AcDbEntity
  8
0
100
AcDbSpline
 62
7
  6
BYLAYER
 70
0
 71
3
 72
17
 73
13
 74
0
 42
0.0000001
 43
0.0000001
 44
0.0000000001
 40
0.0
 40
0.0
 40
0.0
 40
0.0
 40
0.042857965
 40
0.0874854797
 40
0.1353180708
 40
0.1872814984
 40
0.3045423159
 40
0.4382097446
 40
0.5825520305
 40
0.7297107839
 40
0.8713099826
 40
1.0
 40
1.0
 40
1.0
 40
1.0
 10
19.9432540924
 20
69.0857601279
 30
0.0
 10
19.9864500213
 20
69.1107223037
 30
0.0
 10
20.0817012856
 20
69.1502908682
 30
0.0
 10
20.2389108623
 20
69.1733486332
 30
0.0
 10
20.4077469536
 20
69.1609072497
 30
0.0
 10
20.6530671733
 20
69.0956753294
 30
0.0
 10
20.9666716574
 20
68.9241956955
 30
0.0
 10
21.3131529549
 20
68.6173538621
 30
0.0
 10
21.6194284695
 20
68.2253358383
 30
0.0
 10
21.8604797716
 20
67.7798085141
 30
0.0
 10
22.016902198
 20
67.3173061239
 30
0.0
 10
22.0588149527
 20
67.0023108775
 30
0.0
 10
22.0588149527
 20
66.8525061112
 30
0.0
  0
SPLINE
  5
2BA
100
AcDbEntity
  8
0
100
AcDbSpline
 62
7
  6
BYLAYER
 70
0
 71
3
 72
23
 73
19
 74
0
 42
0.0000001
 43
0.0000001
 44
0.0000000001
 40
0.0
 40
0.0
 40
0.0
 40
0.0
 40
0.0428140535
 40
0.087396008
 40
0.1351793987
 40
0.187089269
 40
0.2435347212
 40
0.3044908961
 40
0.3695886467
 40
0.4381954839
 40
0.5094922773
 40
0.5825284648
 40
0.6562699389
 40
0.7296592341
 40
0.8016493841
 40
0.8712467746
 40
0.9376205045
 40
1.0
 40
1.0
 40
1.0
 40
1.0
 10
24.9295903736
 20
54.7464643757
 30
0.0
 10
25.0767396954
 20
54.8314404886
 30
0.0
 10
25.4011518591
 20
54.9662086464
 30
0.0
 10
25.9366100145
 20
55.0447449345
 30
0.0
 10
26.511634905
 20
55.0024070265
 30
0.0
 10
27.1134131361
 20
54.8424887732
 30
0.0
 10
27.7301581158
 20
54.569934228
 30
0.0
 10
28.349588667
 20
54.1909961801
 30
0.0
 10
28.9590911497
 20
53.7137965351
 30
0.0
 10
29.5460533534
 20
53.1485057717
 30
0.0
 10
30.0981291762
 20
52.5070984074
 30
0.0
 10
30.6035526961
 20
51.8031735816
 30
0.0
 10
31.0515978268
 20
51.0517582654
 30
0.0
 10
31.43271029
 20
50.2688731425
 30
0.0
 10
31.7387348076
 20
49.4712416087
 30
0.0
 10
31.9632341483
 20
48.6756703022
 30
0.0
 10
32.1011922689
 20
47.8992947627
 30
0.0
 10
32.134804471
 20
47.3879557975
 30
0.0
 10
32.134804471
 20
47.1403801327
 30
0.0
  0
SPLINE
  5
2BB
100
AcDbEntity
  8
0
100
AcDbSpline
 62
7
  6
BYLAYER
 70
0
 71
3
 72
11
 73
7
 74
0
 42
0.0000001
 43
0.0000001
 44
0.0000000001
 40
0.0
 40
0.0
 40
0.0
 40
0.0
 40
0.217774097
 40
0.4509020802
 40
0.7103645465
 40
1.0
 40
1.0
 40
1.0
 40
1.0
 10
20.6208860316
 20
65.4296031068
 30
0.0
 10
20.6786819062
 20
65.4630038954
 30
0.0
 10
20.7869009552
 20
65.5538564549
 30
0.0
 10
20.9020384478
 20
65.7421967949
 30
0.0
 10
20.9703907791
 20
65.9742360088
 30
0.0
 10
20.9838827704
 20
66.1431170688
 30
0.0
 10
20.9838827704
 20
66.2318974309
 30
0.0
  0
SPLINE
  5
2BC
100
AcDbEntity
  8
0
100
AcDbSpline
 62
7
  6
BYLAYER
 70
0
 71
3
 72
14
 73
10
 74
0
 42
0.0000001
 43
0.0000001
 44
0.0000000001
 40
0.0
 40
0.0
 40
0.0
 40
0.0
 40
0.1080478072
 40
0.2181343416
 40
0.3321142811
 40
0.4514964914
 40
0.5774408518
 40
0.7107392346
 40
1.0
 40
1.0
 40
1.0
 40
1.0
 10
26.0519219203
 20
41.6096853027
 30
0.0
 10
26.1497809171
 20
41.6661983654
 30
0.0
 10
26.3379486374
 20
41.7974815302
 30
0.0
 10
26.5865759233
 20
42.0421669843
 30
0.0
 10
26.8003525256
 20
42.3325895606
 30
0.0
 10
26.9774425951
 20
42.6653828597
 30
0.0
 10
27.1163272341
 20
43.0373542299
 30
0.0
 10
27.2528439352
 20
43.5955485906
 30
0.0
 10
27.288180421
 20
44.0396654379
 30
0.0
 10
27.288180421
 20
44.3421971357
 30
0.0
  0
SPLINE
  5
2BD
100
AcDbEntity
  8
0
100
AcDbSpline
 62
7
  6
BYLAYER
 70
0
 71
3
 72
23
 73
19
 74
0
 42
0.0000001
 43
0.0000001
 44
0.0000000001
 40
0.0
 40
0.0
 40
0.0
 40
0.0
 40
0.0428140535
 40
0.087396008
 40
0.1351793987
 40
0.187089269
 40
0.2435347212
 40
0.3044908961
 40
0.3695886467
 40
0.4381954839
 40
0.5094922773
 40
0.5825284648
 40
0.6562699389
 40
0.7296592341
 40
0.8016493841
 40
0.8712467746
 40
0.9376205045
 40
1.0
 40
1.0
 40
1.0
 40
1.0
 10
30.3177216132
 20
57.8572848282
 30
0.0
 10
30.464870935
 20
57.9422609411
 30
0.0
 10
30.7892830987
 20
58.0770290989
 30
0.0
 10
31.3247412541
 20
58.155565387
 30
0.0
 10
31.8997661446
 20
58.113227479
 30
0.0
 10
32.5015443757
 20
57.9533092258
 30
0.0
 10
33.1182893553
 20
57.6807546805
 30
0.0
 10
33.7377199066
 20
57.3018166326
 30
0.0
 10
34.3472223893
 20
56.8246169876
 30
0.0
 10
34.934184593
 20
56.2593262242
 30
0.0
 10
35.4862604158
 20
55.6179188599
 30
0.0
 10
35.9916839357
 20
54.9139940341
 30
0.0
 10
36.4397290664
 20
54.1625787179
 30
0.0
 10
36.8208415296
 20
53.379693595
 30
0.0
 10
37.1268660472
 20
52.5820620612
 30
0.0
 10
37.3513653879
 20
51.7864907547
 30
0.0
 10
37.4893235084
 20
51.0101152152
 30
0.0
 10
37.5229357106
 20
50.49877625
 30
0.0
 10
37.5229357106
 20
50.2512005852
 30
0.0
  0
SPLINE
  5
2BE
100
AcDbEntity
  8
0
100
AcDbSpline
 62
7
  6
BYLAYER
 70
0
 71
3
 72
9
 73
5
 74
0
 42
0.0000001
 43
0.0000001
 44
0.0000000001
 40
0.0
 40
0.0
 40
0.0
 40
0.0
 40
0.484778167
 40
1.0
 40
1.0
 40
1.0
 40
1.0
 10
39.974210775
 20
65.7806121483
 30
0.0
 10
40.2739155052
 20
65.6498853712
 30
0.0
 10
40.8757651609
 20
65.3417699412
 30
0.0
 10
41.4416483538
 20
64.972575954
 30
0.0
 10
41.7237168079
 20
64.7695994559
 30
0.0
  0
SPLINE
  5
2BF
100
AcDbEntity
  8
0
100
AcDbSpline
 62
7
  6
BYLAYER
 70
0
 71
3
 72
11
 73
7
 74
0
 42
0.0000001
 43
0.0000001
 44
0.0000000001
 40
0.0
 40
0.0
 40
0.0
 40
0.0
 40
0.2897023289
 40
0.5490881651
 40
0.7822156417
 40
1.0
 40
1.0
 40
1.0
 40
1.0
 10
19.2928845654
 20
77.0561326177
 30
0.0
 10
19.1814323512
 20
77.1204781277
 30
0.0
 10
18.9597179589
 20
77.2259520111
 30
0.0
 10
18.6189385263
 20
77.3082441401
 30
0.0
 10
18.2991877228
 20
77.3001481093
 30
0.0
 10
18.1066806664
 20
77.2302858081
 30
0.0
 10
18.0228965763
 20
77.1819133149
 30
0.0
  0
SPLINE
  5
2C0
100
AcDbEntity
  8
0
100
AcDbSpline
 62
7
  6
BYLAYER
 70
0
 71
3
 72
15
 73
11
 74
0
 42
0.0000001
 43
0.0000001
 44
0.0000000001
 40
0.0
 40
0.0
 40
0.0
 40
0.0
 40
0.1141241598
 40
0.2373483675
 40
0.3669736386
 40
0.5000010134
 40
0.6330282467
 40
0.762653103
 40
0.8858766831
 40
1.0
 40
1.0
 40
1.0
 40
1.0
 10
62.3982933968
 20
50.0958600747
 30
0.0
 10
62.3982933966
 20
50.2377964699
 30
0.0
 10
62.3722319033
 20
50.5332554333
 30
0.0
 10
62.2686454103
 20
50.9789733627
 30
0.0
 10
62.1025053672
 20
51.430452896
 30
0.0
 10
61.8802943632
 20
51.8707001902
 30
0.0
 10
61.6101328973
 20
52.2832625323
 30
0.0
 10
61.3022092081
 20
52.6528810956
 30
0.0
 10
60.9679991155
 20
52.9654448777
 30
0.0
 10
60.7251549888
 20
53.135741287
 30
0.0
 10
60.6022346777
 20
53.2067077564
 30
0.0
  0
SPLINE
  5
2C1
100
AcDbEntity
  8
0
100
AcDbSpline
 62
7
  6
BYLAYER
 70
0
 71
3
 72
9
 73
5
 74
0
 42
0.0000001
 43
0.0000001
 44
0.0000000001
 40
0.0
 40
0.0
 40
0.0
 40
0.0
 40
0.2590275737
 40
1.0
 40
1.0
 40
1.0
 40
1.0
 10
57.8183271193
 20
43.5350355272
 30
0.0
 10
57.8337325354
 20
43.5261407391
 30
0.0
 10
57.8938426168
 20
43.4929296659
 30
0.0
 10
57.9565888257
 20
43.4643760428
 30
0.0
 10
58.0043016445
 20
43.4466857545
 30
0.0
  0
SPLINE
  5
2C2
100
AcDbEntity
  8
0
100
AcDbSpline
 62
7
  6
BYLAYER
 70
0
 71
3
 72
15
 73
11
 74
0
 42
0.0000001
 43
0.0000001
 44
0.0000000001
 40
0.0
 40
0.0
 40
0.0
 40
0.0
 40
0.1347100225
 40
0.2569215555
 40
0.3702693473
 40
0.4804061995
 40
0.5938271662
 40
0.7162031269
 40
0.8512716155
 40
1.0
 40
1.0
 40
1.0
 40
1.0
 10
58.0043016445
 20
43.4466857545
 30
0.0
 10
58.0617156952
 20
43.4253985798
 30
0.0
 10
58.1751490986
 20
43.3940413439
 30
0.0
 10
58.3448965699
 20
43.3859626952
 30
0.0
 10
58.5003796926
 20
43.420887215
 30
0.0
 10
58.6348963533
 20
43.4990662257
 30
0.0
 10
58.7425309867
 20
43.6166779066
 30
0.0
 10
58.8199925633
 20
43.7683152343
 30
0.0
 10
58.8660439466
 20
43.948320845
 30
0.0
 10
58.8753347218
 20
44.0776498176
 30
0.0
 10
58.8753347218
 20
44.1452552534
 30
0.0
  0
SPLINE
  5
2C3
100
AcDbEntity
  8
0
100
AcDbSpline
 62
7
  6
BYLAYER
 70
0
 71
3
 72
11
 73
7
 74
0
 42
0.0000001
 43
0.0000001
 44
0.0000000001
 40
0.0
 40
0.0
 40
0.0
 40
0.0
 40
0.2896413964
 40
0.5491107671
 40
0.7822355978
 40
1.0
 40
1.0
 40
1.0
 40
1.0
 10
60.3148653026
 20
44.7658648101
 30
0.0
 10
60.3148653026
 20
44.6770829735
 30
0.0
 10
60.3013704306
 20
44.5081989058
 30
0.0
 10
60.2330166213
 20
44.2761576247
 30
0.0
 10
60.1178748842
 20
44.087823127
 30
0.0
 10
60.0096589051
 20
43.996974289
 30
0.0
 10
59.9518651543
 20
43.9635762861
 30
0.0
  0
SPLINE
  5
2C4
100
AcDbEntity
  8
0
100
AcDbSpline
 62
7
  6
BYLAYER
 70
0
 71
3
 72
11
 73
7
 74
0
 42
0.0000001
 43
0.0000001
 44
0.0000000001
 40
0.0
 40
0.0
 40
0.0
 40
0.0
 40
0.2896413964
 40
0.5491107671
 40
0.7822355978
 40
1.0
 40
1.0
 40
1.0
 40
1.0
 10
22.0588149527
 20
66.8525061112
 30
0.0
 10
22.0588149527
 20
66.7637242746
 30
0.0
 10
22.0453200807
 20
66.5948402069
 30
0.0
 10
21.9769662714
 20
66.3627989258
 30
0.0
 10
21.8618245343
 20
66.174464428
 30
0.0
 10
21.7536085552
 20
66.0836155901
 30
0.0
 10
21.6958148044
 20
66.0502175872
 30
0.0
  0
SPLINE
  5
2C5
100
AcDbEntity
  8
0
100
AcDbSpline
 62
7
  6
BYLAYER
 70
0
 71
3
 72
14
 73
10
 74
0
 42
0.0000001
 43
0.0000001
 44
0.0000000001
 40
0.0
 40
0.0
 40
0.0
 40
0.0
 40
0.2892722903
 40
0.422555762
 40
0.548500587
 40
0.6678906225
 40
0.7818715429
 40
0.8919543575
 40
1.0
 40
1.0
 40
1.0
 40
1.0
 10
44.8867210535
 20
53.6731065367
 30
0.0
 10
44.8867210535
 20
53.3190658366
 30
0.0
 10
44.8453879975
 20
52.799354937
 30
0.0
 10
44.6856074078
 20
52.1461590402
 30
0.0
 10
44.5230877487
 20
51.7108797886
 30
0.0
 10
44.3158485942
 20
51.3214337739
 30
0.0
 10
44.0657067062
 20
50.9815476233
 30
0.0
 10
43.7747173548
 20
50.6952708947
 30
0.0
 10
43.5545627155
 20
50.5415938685
 30
0.0
 10
43.44004032
 20
50.4754780955
 30
0.0
  0
SPLINE
  5
2C6
100
AcDbEntity
  8
0
100
AcDbSpline
 62
7
  6
BYLAYER
 70
0
 71
3
 72
17
 73
13
 74
0
 42
0.0000001
 43
0.0000001
 44
0.0000000001
 40
0.0
 40
0.0
 40
0.0
 40
0.0
 40
0.1286837031
 40
0.2702725349
 40
0.4174302725
 40
0.5617759577
 40
0.6954465725
 40
0.8127112124
 40
0.8646756474
 40
0.9125092815
 40
0.9571393976
 40
1.0
 40
1.0
 40
1.0
 40
1.0
 10
59.2399331203
 20
44.1452561298
 30
0.0
 10
59.2399331203
 20
44.2950541777
 30
0.0
 10
59.1980271547
 20
44.6100316352
 30
0.0
 10
59.0416170828
 20
45.0725182923
 30
0.0
 10
58.8005807068
 20
45.5180454714
 30
0.0
 10
58.4943075268
 20
45.9100762196
 30
0.0
 10
58.1478216126
 20
46.2169350506
 30
0.0
 10
57.8342106156
 20
46.3884232503
 30
0.0
 10
57.5888850679
 20
46.4536683531
 30
0.0
 10
57.4200426351
 20
46.4661061438
 30
0.0
 10
57.2628243569
 20
46.4430534322
 30
0.0
 10
57.1675671153
 20
46.4034806371
 30
0.0
 10
57.1243688505
 20
46.3785159467
 30
0.0
  0
SPLINE
  5
2C7
100
AcDbEntity
  8
0
100
AcDbSpline
 62
7
  6
BYLAYER
 70
0
 71
3
 72
11
 73
7
 74
0
 42
0.0000001
 43
0.0000001
 44
0.0000000001
 40
0.0
 40
0.0
 40
0.0
 40
0.0
 40
0.217774097
 40
0.4509020802
 40
0.7103645465
 40
1.0
 40
1.0
 40
1.0
 40
1.0
 10
58.8769363815
 20
43.3429618057
 30
0.0
 10
58.9347322561
 20
43.3763625944
 30
0.0
 10
59.0429513051
 20
43.4672151538
 30
0.0
 10
59.1580887977
 20
43.6555554938
 30
0.0
 10
59.226441129
 20
43.8875947077
 30
0.0
 10
59.2399331203
 20
44.0564757677
 30
0.0
 10
59.2399331203
 20
44.1452561298
 30
0.0
  0
SPLINE
  5
2C8
100
AcDbEntity
  8
0
100
AcDbSpline
 62
7
  6
BYLAYER
 70
0
 71
3
 72
21
 73
17
 74
0
 42
0.0000001
 43
0.0000001
 44
0.0000000001
 40
0.0
 40
0.0
 40
0.0
 40
0.0
 40
0.0659223364
 40
0.136796749
 40
0.2878227779
 40
0.4414700741
 40
0.515366324
 40
0.5853300223
 40
0.6502475655
 40
0.709469252
 40
0.7629653516
 40
0.8115293093
 40
0.8569394817
 40
0.9017626747
 40
0.9487195711
 40
1.0
 40
1.0
 40
1.0
 40
1.0
 10
58.8753347218
 20
44.1452552534
 30
0.0
 10
58.8753347218
 20
44.2208223356
 30
0.0
 10
58.8627587235
 20
44.3777694313
 30
0.0
 10
58.7940303816
 20
44.7011600723
 30
0.0
 10
58.6315600006
 20
45.1036482194
 30
0.0
 10
58.3911361334
 20
45.4687382159
 30
0.0
 10
58.1597803728
 20
45.7201633903
 30
0.0
 10
57.9777383061
 20
45.8764944596
 30
0.0
 10
57.7904610106
 20
45.9980548174
 30
0.0
 10
57.6034474366
 20
46.0811375345
 30
0.0
 10
57.4218898728
 20
46.122827375
 30
0.0
 10
57.2509141338
 20
46.1206663175
 30
0.0
 10
57.0965087579
 20
46.0730328995
 30
0.0
 10
56.9660317741
 20
45.9806328207
 30
0.0
 10
56.8652825736
 20
45.8485530139
 30
0.0
 10
56.8217822887
 20
45.7433866401
 30
0.0
 10
56.8048590813
 20
45.6870923635
 30
0.0
  0
SPLINE
  5
2C9
100
AcDbEntity
  8
0
100
AcDbSpline
 62
7
  6
BYLAYER
 70
0
 71
3
 72
9
 73
5
 74
0
 42
0.0000001
 43
0.0000001
 44
0.0000000001
 40
0.0
 40
0.0
 40
0.0
 40
0.0
 40
0.2356686145
 40
1.0
 40
1.0
 40
1.0
 40
1.0
 10
56.8048590813
 20
45.6870923635
 30
0.0
 10
56.7975097798
 20
45.6626452479
 30
0.0
 10
56.7709071105
 20
45.557540115
 30
0.0
 10
56.7613736297
 20
45.4485169191
 30
0.0
 10
56.7613736297
 20
45.3657236483
 30
0.0
  0
SPLINE
  5
2CA
100
AcDbEntity
  8
0
100
AcDbSpline
 62
7
  6
BYLAYER
 70
0
 71
3
 72
17
 73
13
 74
0
 42
0.0000001
 43
0.0000001
 44
0.0000000001
 40
0.0
 40
0.0
 40
0.0
 40
0.0
 40
0.1286837031
 40
0.2702725349
 40
0.4174302725
 40
0.5617759577
 40
0.6954465725
 40
0.8127112124
 40
0.8646756474
 40
0.9125092815
 40
0.9571393976
 40
1.0
 40
1.0
 40
1.0
 40
1.0
 10
20.9838827704
 20
66.2318974309
 30
0.0
 10
20.9838827704
 20
66.3816954788
 30
0.0
 10
20.9419768048
 20
66.6966729362
 30
0.0
 10
20.7855667329
 20
67.1591595933
 30
0.0
 10
20.5445303569
 20
67.6046867725
 30
0.0
 10
20.2382571769
 20
67.9967175206
 30
0.0
 10
19.8917712627
 20
68.3035763517
 30
0.0
 10
19.5781602657
 20
68.4750645514
 30
0.0
 10
19.332834718
 20
68.5403096542
 30
0.0
 10
19.1639922852
 20
68.5527474448
 30
0.0
 10
19.006774007
 20
68.5296947332
 30
0.0
 10
18.9115167654
 20
68.4901219381
 30
0.0
 10
18.8683185006
 20
68.4651572477
 30
0.0
  0
SPLINE
  5
2CB
100
AcDbEntity
  8
0
100
AcDbSpline
 62
7
  6
BYLAYER
 70
0
 71
3
 72
21
 73
17
 74
0
 42
0.0000001
 43
0.0000001
 44
0.0000000001
 40
0.0
 40
0.0
 40
0.0
 40
0.0
 40
0.0659223364
 40
0.136796749
 40
0.2878227779
 40
0.4414700741
 40
0.515366324
 40
0.5853300223
 40
0.6502475655
 40
0.709469252
 40
0.7629653516
 40
0.8115293093
 40
0.8569394817
 40
0.9017626747
 40
0.9487195711
 40
1.0
 40
1.0
 40
1.0
 40
1.0
 10
20.6192843719
 20
66.2318965545
 30
0.0
 10
20.6192843719
 20
66.3074636367
 30
0.0
 10
20.6067083736
 20
66.4644107323
 30
0.0
 10
20.5379800317
 20
66.7878013733
 30
0.0
 10
20.3755096507
 20
67.1902895204
 30
0.0
 10
20.1350857835
 20
67.5553795169
 30
0.0
 10
19.9037300229
 20
67.8068046914
 30
0.0
 10
19.7216879562
 20
67.9631357607
 30
0.0
 10
19.5344106607
 20
68.0846961184
 30
0.0
 10
19.3473970867
 20
68.1677788356
 30
0.0
 10
19.1658395229
 20
68.2094686761
 30
0.0
 10
18.9948637839
 20
68.2073076185
 30
0.0
 10
18.840458408
 20
68.1596742005
 30
0.0
 10
18.7099814242
 20
68.0672741218
 30
0.0
 10
18.6092322237
 20
67.9351943149
 30
0.0
 10
18.5657319388
 20
67.8300279411
 30
0.0
 10
18.5488087314
 20
67.7737336646
 30
0.0
  0
SPLINE
  5
2CC
100
AcDbEntity
  8
0
100
AcDbSpline
 62
7
  6
BYLAYER
 70
0
 71
3
 72
9
 73
5
 74
0
 42
0.0000001
 43
0.0000001
 44
0.0000000001
 40
0.0
 40
0.0
 40
0.0
 40
0.0
 40
0.2356686145
 40
1.0
 40
1.0
 40
1.0
 40
1.0
 10
18.5488087314
 20
67.7737336646
 30
0.0
 10
18.5414594299
 20
67.749286549
 30
0.0
 10
18.5148567606
 20
67.644181416
 30
0.0
 10
18.5053232798
 20
67.5351582201
 30
0.0
 10
18.5053232798
 20
67.4523649494
 30
0.0
  0
SPLINE
  5
2CD
100
AcDbEntity
  8
0
100
AcDbSpline
 62
7
  6
BYLAYER
 70
0
 71
3
 72
23
 73
19
 74
0
 42
0.0000001
 43
0.0000001
 44
0.0000000001
 40
0.0
 40
0.0
 40
0.0
 40
0.0
 40
0.0623835608
 40
0.1287492876
 40
0.1983466879
 40
0.2703362881
 40
0.3437244116
 40
0.4174670548
 40
0.4905038395
 40
0.5618027062
 40
0.6304109741
 40
0.6955083348
 40
0.7564655294
 40
0.8129122269
 40
0.8648208079
 40
0.9126031253
 40
0.9571852989
 40
1.0
 40
1.0
 40
1.0
 40
1.0
 10
43.2702816816
 20
52.7398604009
 30
0.0
 10
43.2702816816
 20
53.02959576
 30
0.0
 10
43.2309750761
 20
53.6279556128
 30
0.0
 10
43.0695050489
 20
54.536458719
 30
0.0
 10
42.8067987177
 20
55.4674053847
 30
0.0
 10
42.4487292057
 20
56.4008136648
 30
0.0
 10
42.0027424519
 20
57.3169534654
 30
0.0
 10
41.4784194134
 20
58.196264652
 30
0.0
 10
40.8869565484
 20
59.0200208743
 30
0.0
 10
40.2409320082
 20
59.7706491656
 30
0.0
 10
39.5540382141
 20
60.4321613381
 30
0.0
 10
38.8407576143
 20
60.9905591846
 30
0.0
 10
38.1159029301
 20
61.4340277092
 30
0.0
 10
37.3941883337
 20
61.7530137423
 30
0.0
 10
36.6899659869
 20
61.9400994224
 30
0.0
 10
36.0170819593
 20
61.989617289
 30
0.0
 10
35.3904640315
 20
61.897791335
 30
0.0
 10
35.0108495577
 20
61.7400344883
 30
0.0
 10
34.8386400762
 20
61.6406112865
 30
0.0
  0
SPLINE
  5
2CE
100
AcDbEntity
  8
0
100
AcDbSpline
 62
7
  6
BYLAYER
 70
0
 71
3
 72
14
 73
10
 74
0
 42
0.0000001
 43
0.0000001
 44
0.0000000001
 40
0.0
 40
0.0
 40
0.0
 40
0.0
 40
0.2884034965
 40
0.421698419
 40
0.5478590428
 40
0.6675839151
 40
0.7819004397
 40
0.892151463
 40
1.0
 40
1.0
 40
1.0
 40
1.0
 10
42.5518582009
 20
53.1546330075
 30
0.0
 10
42.5518582009
 20
52.8616264315
 30
0.0
 10
42.5186506874
 20
52.4312674857
 30
0.0
 10
42.3910945634
 20
51.8885872207
 30
0.0
 10
42.2611379705
 20
51.5249415171
 30
0.0
 10
42.0953907035
 20
51.197502609
 30
0.0
 10
41.8951125902
 20
50.9092122441
 30
0.0
 10
41.6620108591
 20
50.6630285299
 30
0.0
 10
41.4848872514
 20
50.5279607574
 30
0.0
 10
41.3925758566
 20
50.4689339796
 30
0.0
  0
SPLINE
  5
2CF
100
AcDbEntity
  8
0
100
AcDbSpline
 62
7
  6
BYLAYER
 70
0
 71
3
 72
9
 73
5
 74
0
 42
0.0000001
 43
0.0000001
 44
0.0000000001
 40
0.0
 40
0.0
 40
0.0
 40
0.0
 40
0.276730857
 40
1.0
 40
1.0
 40
1.0
 40
1.0
 10
21.0889357918
 20
77.0561369335
 30
0.0
 10
20.9852952567
 20
77.1159724706
 30
0.0
 10
20.6014857157
 20
77.3130511039
 30
0.0
 10
20.1657608248
 20
77.428941074
 30
0.0
 10
19.853037306
 20
77.4229998004
 30
0.0
  0
SPLINE
  5
2D0
100
AcDbEntity
  8
0
100
AcDbSpline
 62
7
  6
BYLAYER
 70
0
 71
3
 72
9
 73
5
 74
0
 42
0.0000001
 43
0.0000001
 44
0.0000000001
 40
0.0
 40
0.0
 40
0.0
 40
0.0
 40
0.23877095
 40
1.0
 40
1.0
 40
1.0
 40
1.0
 10
63.29631527
 20
49.5773720778
 30
0.0
 10
63.29631527
 20
49.6496454107
 30
0.0
 10
63.28709946
 20
49.9523122162
 30
0.0
 10
63.2436268586
 20
50.2535312825
 30
0.0
 10
63.195453325
 20
50.4788547755
 30
0.0
  0
SPLINE
  5
2D1
100
AcDbEntity
  8
0
100
AcDbSpline
 62
7
  6
BYLAYER
 70
0
 71
3
 72
11
 73
7
 74
0
 42
0.0000001
 43
0.0000001
 44
0.0000000001
 40
0.0
 40
0.0
 40
0.0
 40
0.0
 40
0.2445576901
 40
0.5000008136
 40
0.7554435161
 40
1.0
 40
1.0
 40
1.0
 40
1.0
 10
63.195453325
 20
50.4788547755
 30
0.0
 10
63.1310413911
 20
50.7801306184
 30
0.0
 10
62.9438354809
 20
51.3849977555
 30
0.0
 10
62.5274431357
 20
52.2443287734
 30
0.0
 10
61.9914330193
 20
53.0345962268
 30
0.0
 10
61.5612038427
 20
53.4991504643
 30
0.0
 10
61.3324967268
 20
53.7055678803
 30
0.0
  0
SPLINE
  5
2D2
100
AcDbEntity
  8
0
100
AcDbSpline
 62
7
  6
BYLAYER
 70
0
 71
3
 72
9
 73
5
 74
0
 42
0.0000001
 43
0.0000001
 44
0.0000000001
 40
0.0
 40
0.0
 40
0.0
 40
0.0
 40
0.2608934389
 40
1.0
 40
1.0
 40
1.0
 40
1.0
 10
61.3324967268
 20
53.7055678803
 30
0.0
 10
61.2738774597
 20
53.7584741382
 30
0.0
 10
61.0445141074
 20
53.9559304342
 30
0.0
 10
60.7959609748
 20
54.1317938732
 30
0.0
 10
60.6022272013
 20
54.2436435892
 30
0.0
  0
SPLINE
  5
2D3
100
AcDbEntity
  8
0
100
AcDbSpline
 62
7
  6
BYLAYER
 70
0
 71
3
 72
14
 73
10
 74
0
 42
0.0000001
 43
0.0000001
 44
0.0000000001
 40
0.0
 40
0.0
 40
0.0
 40
0.0
 40
0.289261552
 40
0.4225608455
 40
0.5485062251
 40
0.6678891717
 40
0.7818692008
 40
0.8919544253
 40
1.0
 40
1.0
 40
1.0
 40
1.0
 10
37.5229357106
 20
50.2512005852
 30
0.0
 10
37.5229357106
 20
49.9486684241
 30
0.0
 10
37.4875987991
 20
49.5045502685
 30
0.0
 10
37.3510800222
 20
48.946354162
 30
0.0
 10
37.2121931347
 20
48.5743811316
 30
0.0
 10
37.0350997029
 20
48.2415877545
 30
0.0
 10
36.8213199788
 20
47.9511688417
 30
0.0
 10
36.5726965371
 20
47.7064854439
 30
0.0
 10
36.3845313026
 20
47.5752053717
 30
0.0
 10
36.2866739092
 20
47.5186944697
 30
0.0
  0
SPLINE
  5
2D4
100
AcDbEntity
  8
0
100
AcDbSpline
 62
7
  6
BYLAYER
 70
0
 71
3
 72
17
 73
13
 74
0
 42
0.0000001
 43
0.0000001
 44
0.0000000001
 40
0.0
 40
0.0
 40
0.0
 40
0.0
 40
0.042857965
 40
0.0874854797
 40
0.1353180708
 40
0.1872814984
 40
0.3045423159
 40
0.4382097446
 40
0.5825520305
 40
0.7297107839
 40
0.8713099826
 40
1.0
 40
1.0
 40
1.0
 40
1.0
 10
58.1993044423
 20
46.9991188269
 30
0.0
 10
58.2425003713
 20
47.0240810026
 30
0.0
 10
58.3377516355
 20
47.0636495671
 30
0.0
 10
58.4949612122
 20
47.0867073322
 30
0.0
 10
58.6637973035
 20
47.0742659486
 30
0.0
 10
58.9091175232
 20
47.0090340284
 30
0.0
 10
59.2227220073
 20
46.8375543945
 30
0.0
 10
59.5692033048
 20
46.5307125611
 30
0.0
 10
59.8754788194
 20
46.1386945372
 30
0.0
 10
60.1165301215
 20
45.693167213
 30
0.0
 10
60.2729525479
 20
45.2306648229
 30
0.0
 10
60.3148653026
 20
44.9156695764
 30
0.0
 10
60.3148653026
 20
44.7658648101
 30
0.0
  0
SPLINE
  5
2D5
100
AcDbEntity
  8
0
100
AcDbSpline
 62
7
  6
BYLAYER
 70
0
 71
3
 72
9
 73
5
 74
0
 42
0.0000001
 43
0.0000001
 44
0.0000000001
 40
0.0
 40
0.0
 40
0.0
 40
0.0
 40
0.4881356379
 40
1.0
 40
1.0
 40
1.0
 40
1.0
 10
61.8722226703
 20
35.8674230992
 30
0.0
 10
61.9407475513
 20
35.9069857338
 30
0.0
 10
62.0700628589
 20
36.0086291885
 30
0.0
 10
62.1673874106
 20
36.1406142512
 30
0.0
 10
62.2088474154
 20
36.2124850828
 30
0.0
  0
SPLINE
  5
2D6
100
AcDbEntity
  8
0
100
AcDbSpline
 62
7
  6
BYLAYER
 70
0
 71
3
 72
10
 73
6
 74
0
 42
0.0000001
 43
0.0000001
 44
0.0000000001
 40
0.0
 40
0.0
 40
0.0
 40
0.0
 40
0.2261409628
 40
0.5943784521
 40
1.0
 40
1.0
 40
1.0
 40
1.0
 10
62.2088474154
 20
36.2124850828
 30
0.0
 10
62.2407782682
 20
36.2678371494
 30
0.0
 10
62.3122592461
 20
36.4207111114
 30
0.0
 10
62.3826410112
 20
36.6963782988
 30
0.0
 10
62.3982933967
 20
36.9155700232
 30
0.0
 10
62.3982933968
 20
37.0301884314
 30
0.0
  0
SPLINE
  5
2D7
100
AcDbEntity
  8
0
100
AcDbSpline
 62
7
  6
BYLAYER
 70
0
 71
3
 72
23
 73
19
 74
0
 42
0.0000001
 43
0.0000001
 44
0.0000000001
 40
0.0
 40
0.0
 40
0.0
 40
0.0
 40
0.0428140535
 40
0.087396008
 40
0.1351793987
 40
0.187089269
 40
0.2435347212
 40
0.3044908961
 40
0.3695886467
 40
0.4381954839
 40
0.5094922773
 40
0.5825284648
 40
0.6562699389
 40
0.7296592341
 40
0.8016493841
 40
0.8712467746
 40
0.9376205045
 40
1.0
 40
1.0
 40
1.0
 40
1.0
 10
35.3466441034
 20
60.7607172505
 30
0.0
 10
35.4937934252
 20
60.8456933635
 30
0.0
 10
35.8182055889
 20
60.9804615212
 30
0.0
 10
36.3536637443
 20
61.0589978094
 30
0.0
 10
36.9286886348
 20
61.0166599013
 30
0.0
 10
37.5304668659
 20
60.8567416481
 30
0.0
 10
38.1472118456
 20
60.5841871028
 30
0.0
 10
38.7666423968
 20
60.2052490549
 30
0.0
 10
39.3761448796
 20
59.72804941
 30
0.0
 10
39.9631070833
 20
59.1627586465
 30
0.0
 10
40.515182906
 20
58.5213512823
 30
0.0
 10
41.0206064259
 20
57.8174264565
 30
0.0
 10
41.4686515566
 20
57.0660111402
 30
0.0
 10
41.8497640198
 20
56.2831260174
 30
0.0
 10
42.1557885374
 20
55.4854944836
 30
0.0
 10
42.3802878781
 20
54.689923177
 30
0.0
 10
42.5182459987
 20
53.9135476376
 30
0.0
 10
42.5518582009
 20
53.4022086723
 30
0.0
 10
42.5518582009
 20
53.1546330075
 30
0.0
  0
SPLINE
  5
2D8
100
AcDbEntity
  8
0
100
AcDbSpline
 62
7
  6
BYLAYER
 70
0
 71
3
 72
14
 73
10
 74
0
 42
0.0000001
 43
0.0000001
 44
0.0000000001
 40
0.0
 40
0.0
 40
0.0
 40
0.0
 40
0.289261552
 40
0.4225608455
 40
0.5485062251
 40
0.6678891717
 40
0.7818692008
 40
0.8919544253
 40
1.0
 40
1.0
 40
1.0
 40
1.0
 10
32.134804471
 20
47.1403801327
 30
0.0
 10
32.134804471
 20
46.8378479716
 30
0.0
 10
32.0994675595
 20
46.393729816
 30
0.0
 10
31.9629487827
 20
45.8355337095
 30
0.0
 10
31.8240618952
 20
45.4635606791
 30
0.0
 10
31.6469684634
 20
45.130767302
 30
0.0
 10
31.4331887392
 20
44.8403483892
 30
0.0
 10
31.1845652976
 20
44.5956649914
 30
0.0
 10
30.996400063
 20
44.4643849192
 30
0.0
 10
30.8985426697
 20
44.4078740172
 30
0.0
  0
SPLINE
  5
2D9
100
AcDbEntity
  8
0
100
AcDbSpline
 62
7
  6
BYLAYER
 70
0
 71
3
 72
23
 73
19
 74
0
 42
0.0000001
 43
0.0000001
 44
0.0000000001
 40
0.0
 40
0.0
 40
0.0
 40
0.0
 40
0.0623788002
 40
0.1287503477
 40
0.1983457761
 40
0.2703345382
 40
0.3437243134
 40
0.4174668573
 40
0.4905033045
 40
0.5618008101
 40
0.6304087171
 40
0.6955076318
 40
0.7564648179
 40
0.8129108578
 40
0.8648208718
 40
0.9126040628
 40
0.9571856744
 40
1.0
 40
1.0
 40
1.0
 40
1.0
 10
27.288180421
 20
44.3421971357
 30
0.0
 10
27.288180421
 20
44.5897703852
 30
0.0
 10
27.2545713292
 20
45.1010987412
 30
0.0
 10
27.1166177888
 20
45.8774567582
 30
0.0
 10
26.8921276083
 20
46.6730086784
 30
0.0
 10
26.5861186511
 20
47.4706353415
 30
0.0
 10
26.2050057422
 20
48.2535224649
 30
0.0
 10
25.7569633222
 20
49.0049489696
 30
0.0
 10
25.251539528
 20
49.7088852075
 30
0.0
 10
24.6994605331
 20
50.3503021676
 30
0.0
 10
24.1124911629
 20
50.9156039655
 30
0.0
 10
23.5029799972
 20
51.3928152418
 30
0.0
 10
22.8835397465
 20
51.771760638
 30
0.0
 10
22.2667875648
 20
52.044318367
 30
0.0
 10
21.6650060718
 20
52.2042366756
 30
0.0
 10
21.0899820182
 20
52.2465720376
 30
0.0
 10
20.5545238156
 20
52.1680373206
 30
0.0
 10
20.2301126803
 20
52.0332652596
 30
0.0
 10
20.0829630229
 20
51.9482870961
 30
0.0
  0
SPLINE
  5
2DA
100
AcDbEntity
  8
0
100
AcDbSpline
 62
7
  6
BYLAYER
 70
0
 71
3
 72
10
 73
6
 74
0
 42
0.0000001
 43
0.0000001
 44
0.0000000001
 40
0.0
 40
0.0
 40
0.0
 40
0.0
 40
0.2272068971
 40
0.5956549674
 40
1.0
 40
1.0
 40
1.0
 40
1.0
 10
26.5370010074
 20
42.5744243693
 30
0.0
 10
26.6022422774
 20
42.696314866
 30
0.0
 10
26.7477688409
 20
43.0298986316
 30
0.0
 10
26.8916255867
 20
43.6248987158
 30
0.0
 10
26.9235820225
 20
44.0961577022
 30
0.0
 10
26.9235820225
 20
44.3421962593
 30
0.0
  0
SPLINE
  5
2DB
100
AcDbEntity
  8
0
100
AcDbSpline
 62
7
  6
BYLAYER
 70
0
 71
3
 72
9
 73
5
 74
0
 42
0.0000001
 43
0.0000001
 44
0.0000000001
 40
0.0
 40
0.0
 40
0.0
 40
0.0
 40
0.479499515
 40
1.0
 40
1.0
 40
1.0
 40
1.0
 10
26.9235820225
 20
44.3421962593
 30
0.0
 10
26.9235820225
 20
44.7025658782
 30
0.0
 10
26.8490739772
 20
45.4547786434
 30
0.0
 10
26.6598570482
 20
46.1849522521
 30
0.0
 10
26.5370010074
 20
46.5563433572
 30
0.0
  0
SPLINE
  5
2DC
100
AcDbEntity
  8
0
100
AcDbSpline
 62
7
  6
BYLAYER
 70
0
 71
3
 72
10
 73
6
 74
0
 42
0.0000001
 43
0.0000001
 44
0.0000000001
 40
0.0
 40
0.0
 40
0.0
 40
0.0
 40
0.2255429992
 40
0.5933405864
 40
1.0
 40
1.0
 40
1.0
 40
1.0
 10
62.9960867479
 20
37.3318377468
 30
0.0
 10
63.0466702266
 20
37.4157316315
 30
0.0
 10
63.1599652502
 20
37.6486975052
 30
0.0
 10
63.2716990064
 20
38.0717340732
 30
0.0
 10
63.2963152699
 20
38.4089858163
 30
0.0
 10
63.29631527
 20
38.585616575
 30
0.0
  0
SPLINE
  5
2DD
100
AcDbEntity
  8
0
100
AcDbSpline
 62
7
  6
BYLAYER
 70
0
 71
3
 72
20
 73
16
 74
0
 42
0.0000001
 43
0.0000001
 44
0.0000000001
 40
0.0
 40
0.0
 40
0.0
 40
0.0
 40
0.059881127
 40
0.1232564372
 40
0.2580024418
 40
0.3990517008
 40
0.5400980153
 40
0.6086852891
 40
0.674967604
 40
0.738313974
 40
0.7982145968
 40
0.854323757
 40
0.906510123
 40
0.9549357084
 40
1.0
 40
1.0
 40
1.0
 40
1.0
 10
11.3904640536
 20
42.0282793027
 30
0.0
 10
11.5682248042
 20
41.9256514073
 30
0.0
 10
11.9466660697
 20
41.7356305842
 30
0.0
 10
12.7735470251
 20
41.4188931924
 30
0.0
 10
13.9117999368
 20
41.1536899623
 30
0.0
 10
15.3415769193
 20
41.0474298005
 30
0.0
 10
16.545511628
 20
41.1367738231
 30
0.0
 10
17.4747026718
 20
41.3177462259
 30
0.0
 10
18.1293340267
 20
41.5029094089
 30
0.0
 10
18.7369282731
 20
41.7355932013
 30
0.0
 10
19.2873142992
 20
42.0121013645
 30
0.0
 10
19.7713797594
 20
42.3277921837
 30
0.0
 10
20.1810728203
 20
42.6780232224
 30
0.0
 10
20.5089799072
 20
43.05729992
 30
0.0
 10
20.6743319355
 20
43.3344459431
 30
0.0
 10
20.7393598347
 20
43.4745619229
 30
0.0
  0
SPLINE
  5
2DE
100
AcDbEntity
  8
0
100
AcDbSpline
 62
7
  6
BYLAYER
 70
0
 71
3
 72
19
 73
15
 74
0
 42
0.0000001
 43
0.0000001
 44
0.0000000001
 40
0.0
 40
0.0
 40
0.0
 40
0.0
 40
0.0433268733
 40
0.0878606938
 40
0.1346407398
 40
0.184451491
 40
0.2377940469
 40
0.2948872587
 40
0.3557231223
 40
0.420094749
 40
0.5577730361
 40
0.703897376
 40
0.8531793425
 40
1.0
 40
1.0
 40
1.0
 40
1.0
 10
20.0295618235
 20
51.619779767
 30
0.0
 10
20.1438180106
 20
51.6857486256
 30
0.0
 10
20.3903217668
 20
51.795426521
 30
0.0
 10
20.7933100938
 20
51.8834674646
 30
0.0
 10
21.2251570321
 20
51.8954171138
 30
0.0
 10
21.6791473827
 20
51.8321235341
 30
0.0
 10
22.1490185326
 20
51.6950780594
 30
0.0
 10
22.6284703501
 20
51.4868183696
 30
0.0
 10
23.1110099914
 20
51.2103401719
 30
0.0
 10
23.7641543617
 20
50.7457053305
 30
0.0
 10
24.5419779391
 20
50.0176293755
 30
0.0
 10
25.3631135122
 20
48.9802758346
 30
0.0
 10
26.0482846162
 20
47.8163846821
 30
0.0
 10
26.3965906138
 20
46.9808008841
 30
0.0
 10
26.5370010074
 20
46.5563433572
 30
0.0
  0
SPLINE
  5
2DF
100
AcDbEntity
  8
0
100
AcDbSpline
 62
7
  6
BYLAYER
 70
0
 71
3
 72
17
 73
13
 74
0
 42
0.0000001
 43
0.0000001
 44
0.0000000001
 40
0.0
 40
0.0
 40
0.0
 40
0.0
 40
0.1423537903
 40
0.2873372796
 40
0.4304200754
 40
0.5672327345
 40
0.6940648923
 40
0.8083830291
 40
0.8606417029
 40
0.9097282055
 40
0.9559954289
 40
1.0
 40
1.0
 40
1.0
 40
1.0
 10
20.9692653932
 20
43.3418288896
 30
0.0
 10
20.8417153012
 20
43.7274100081
 30
0.0
 10
20.530404359
 20
44.4887368768
 30
0.0
 10
19.9256181445
 20
45.5608687304
 30
0.0
 10
19.2014411072
 20
46.5370552973
 30
0.0
 10
18.390704206
 20
47.3725713619
 30
0.0
 10
17.5301919445
 20
48.0294937381
 30
0.0
 10
16.7797721923
 20
48.4147687275
 30
0.0
 10
16.1907359384
 20
48.5973574717
 30
0.0
 10
15.7744333049
 20
48.6694086088
 30
0.0
 10
15.37549265
 20
48.6796814532
 30
0.0
 10
15.1189243555
 20
48.6438934597
 30
0.0
 10
14.9966697269
 20
48.6153457706
 30
0.0
  0
SPLINE
  5
2E0
100
AcDbEntity
  8
0
100
AcDbSpline
 62
7
  6
BYLAYER
 70
0
 71
3
 72
9
 73
5
 74
0
 42
0.0000001
 43
0.0000001
 44
0.0000000001
 40
0.0
 40
0.0
 40
0.0
 40
0.0
 40
0.5036920002
 40
1.0
 40
1.0
 40
1.0
 40
1.0
 10
14.9966697269
 20
48.6153457706
 30
0.0
 10
14.9024628939
 20
48.5933475248
 30
0.0
 10
14.7182093129
 20
48.536512709
 30
0.0
 10
14.5443794418
 20
48.4529249002
 30
0.0
 10
14.4618280077
 20
48.4052622801
 30
0.0
  0
SPLINE
  5
2E1
100
AcDbEntity
  8
0
100
AcDbSpline
 62
7
  6
BYLAYER
 70
0
 71
3
 72
23
 73
19
 74
0
 42
0.0000001
 43
0.0000001
 44
0.0000000001
 40
0.0
 40
0.0
 40
0.0
 40
0.0
 40
0.0428148192
 40
0.0873974154
 40
0.1351802721
 40
0.1870892993
 40
0.2435361873
 40
0.3044931986
 40
0.3695899134
 40
0.4381970657
 40
0.5094946131
 40
0.582530324
 40
0.6562723584
 40
0.7296606106
 40
0.8016507632
 40
0.8712488747
 40
0.9376159628
 40
1.0
 40
1.0
 40
1.0
 40
1.0
 10
36.4550789267
 20
62.5738583185
 30
0.0
 10
36.6272904734
 20
62.6732790429
 30
0.0
 10
37.0069044152
 20
62.8310426232
 30
0.0
 10
37.6335293238
 20
62.9228630768
 30
0.0
 10
38.3064192207
 20
62.87334307
 30
0.0
 10
39.0106464829
 20
62.686253612
 30
0.0
 10
39.7323616299
 20
62.3672637128
 30
0.0
 10
40.4572123176
 20
61.9237943999
 30
0.0
 10
41.1704845418
 20
61.3654005803
 30
0.0
 10
41.8573675041
 20
60.7038979403
 30
0.0
 10
42.5033831817
 20
59.9532835882
 30
0.0
 10
43.0948390892
 20
59.1295395124
 30
0.0
 10
43.6191603538
 20
58.2502357399
 30
0.0
 10
44.0651511045
 20
57.334097552
 30
0.0
 10
44.4232274599
 20
56.4006849385
 30
0.0
 10
44.6859397289
 20
55.4697271315
 30
0.0
 10
44.8474117562
 20
54.5612123751
 30
0.0
 10
44.8867210535
 20
53.9628441104
 30
0.0
 10
44.8867210535
 20
53.6731065367
 30
0.0
  0
ENDSEC
  0
SECTION
  2
OBJECTS
  0
DICTIONARY
  5
C
100
AcDbDictionary
280
0
281
1
  3
ACAD_GROUP
350
D
  3
ACAD_MLINESTYLE
350
17
  3
ACAD_LAYOUT
350
1A
  3
ACAD_PLOTSETTINGS
350
19
  3
ACAD_PLOTSTYLENAME
350
E
  0
DICTIONARY
  5
D
102
{ACAD_REACTORS
330
C
102
}
100
AcDbDictionary
280
0
281
1
  0
ACDBDICTIONARYWDFLT
  5
E
102
{ACAD_REACTORS
330
C
102
}
100
AcDbDictionary
281
1
  3
Normal
350
F
100
AcDbDictionaryWithDefault
340
F
  0
DICTIONARY
  5
17
102
{ACAD_REACTORS
330
C
102
}
100
AcDbDictionary
280
0
281
1
  3
Standard
350
18
  0
DICTIONARY
  5
19
102
{ACAD_REACTORS
330
C
102
}
100
AcDbDictionary
281
1
  0
DICTIONARY
  5
1A
102
{ACAD_REACTORS
330
C
102
}
100
AcDbDictionary
281
1
  3
Model
350
2E2
  3
Layout1
350
2E3
  0
ACDBPLACEHOLDER
  5
F
102
{ACAD_REACTORS
330
E
102
}
  0
MLINESTYLE
  5
18
102
{ACAD_REACTORS
330
17
102
}
100
AcDbMlineStyle
  2
STANDARD
 70
0
  3

 62
256
 51
90.0
 52
90.0
 71
2
 49
0.5
 62
256
  6
BYLAYER
 49
-0.5
 62
256
  6
BYLAYER
  0
LAYOUT
  5
2E2
102
{ACAD_REACTORS
330
1A
102
}
100
AcDbPlotSettings
  1

  2
none_device
  4

  6

 40
0.0
 41
0.0
 42
0.0
 43
0.0
 44
210.0
 45
297.0
 46
0.0
 47
0.0
 48
0.0
 49
0.0
140
0.0
141
0.0
142
1.0
143
1.0
 70
1024
 72
1
 73
0
 74
0
  7

 75
0
147
1.0
148
0.0
149
0.0
100
AcDbLayout
  1
Model
 70
0
 71
0
 10
0.0
 20
0.0
 11
210.0
 21
297.0
 12
0.0
 22
0.0
 32
0.0
 14
0.0
 24
0.0
 34
0.0
 15
0.0
 25
0.0
 35
0.0
146
0.0
 13
0.0
 23
0.0
 33
0.0
 16
1.0
 26
0.0
 36
0.0
 17
0.0
 27
1.0
 37
0.0
 76
0
330
211
345
0
346
0
  0
LAYOUT
  5
2E3
102
{ACAD_REACTORS
330
1A
102
}
100
AcDbPlotSettings
  1

  2
none_device
  4

  6

 40
0.0
 41
0.0
 42
0.0
 43
0.0
 44
210.0
 45
297.0
 46
0.0
 47
0.0
 48
0.0
 49
0.0
140
0.0
141
0.0
142
1.0
143
1.0
 70
0
 72
1
 73
0
 74
0
  7

 75
0
147
1.0
148
0.0
149
0.0
100
AcDbLayout
  1
Layout1
 70
0
 71
1
 10
0.0
 20
0.0
 11
210.0
 21
297.0
 12
0.0
 22
0.0
 32
0.0
 14
0.0
 24
0.0
 34
0.0
 15
0.0
 25
0.0
 35
0.0
146
0.0
 13
0.0
 23
0.0
 33
0.0
 16
1.0
 26
0.0
 36
0.0
 17
0.0
 27
1.0
 37
0.0
 76
0
330
212
345
0
346
0
  0
ENDSEC
  0
EOF
