999
DXF file: C:\Users\sesa63760\Dev\_Creo\CAD\MCADID0002459_3D-CAD\drw0001_5.dxf
999
Pro/ENGINEER 2019471 by Parametric Technology Corporation
  0
SECTION
  2
HEADER
  9
$ACADVER
  1
AC1024
  9
$DWGCODEPAGE
  3
ANSI_1252
  9
$EXTMAX
 10
43.9522314178
 20
62.1610130051
 30
0.0
  9
$EXTMIN
 10
0.0
 20
0.0
 30
0.0
  9
$LIMMIN
 10
0.0
 20
0.0
  9
$LIMMAX
 10
43.9522314178
 20
62.1610130051
  9
$VIEWCTR
 10
21.9761157089
 20
31.0805065026
  9
$VIEWSIZE
 40
62.1610130051
  9
$CLAYER
  8
0
  9
$LTSCALE
 40
4.051977144
  9
$CELTYPE
  6
BYLAYER
  9
$DIMSCALE
 40
1.0
  9
$DIMASZ
 40
0.5232408502
  9
$DIMEXO
 40
1.0
  9
$DIMDLI
 40
2.799547845
  9
$DIMEXE
 40
1.0
  9
$DIMCEN
 40
0.6630508054
  9
$DIMLFAC
 40
1.0
  9
$DIMBLK
  1
_FILLED
  9
$DIMALT
 70
0
  9
$DIMALTF
 40
0.0393700787
  9
$DIMTXT
 40
0.7325371903
  9
$DIMTOL
 70
1
  9
$DIMLIM
 70
0
  9
$DIMTFAC
 40
1.0
  9
$DIMTP
 40
0.01
  9
$DIMTM
 40
0.01
  9
$DIMGAP
 40
0.625
  9
$DIMDSEP
 70
46
  9
$AUNITS
 70
0
  9
$PDMODE
 70
3
  9
$PDSIZE
 40
0.3125
  9
$HANDSEED
  5
235
  9
$TILEMODE
 70
1
  9
$MEASUREMENT
 70
1
  9
$INSUNITS
 70
4
  0
ENDSEC
  0
SECTION
  2
CLASSES
  0
CLASS
  1
ACDBDICTIONARYWDFLT
  2
AcDbDictionaryWithDefault
  3
AutoCAD 2000
 90
0
 91
1
280
0
281
0
  0
CLASS
  1
ACDBPLACEHOLDER
  2
AcDbPlaceHolder
  3
AutoCAD 2000
 90
0
 91
1
280
0
281
0
  0
CLASS
  1
LAYOUT
  2
AcDbLayout
  3
AutoCAD 2000
 90
0
 91
0
280
0
281
0
  0
ENDSEC
  0
SECTION
  2
TABLES
  0
TABLE
  2
VPORT
  5
8
100
AcDbSymbolTable
 70
2
  0
VPORT
  5
1F4
100
AcDbSymbolTableRecord
100
AcDbViewportTableRecord
  2
*ACTIVE
 70
0
 10
0.0
 20
0.0
 11
1.0
 21
1.0
 12
21.9761157089
 22
31.0805065026
 13
0.0
 23
0.0
 14
1.0
 24
1.0
 15
0.0
 25
0.0
 16
0.0
 26
0.0
 36
1.0
 17
0.0
 27
0.0
 37
0.0
 40
62.1610130051
 41
0.7070707071
 42
50.0
 43
0.0
 44
0.0
 50
0.0
 51
0.0
 71
0
 72
100
 73
1
 74
1
 75
0
 76
0
 77
0
 78
0
  0
ENDTAB
  0
TABLE
  2
LTYPE
  5
5
100
AcDbSymbolTable
 70
6
  0
LTYPE
  5
14
100
AcDbSymbolTableRecord
100
AcDbLinetypeTableRecord
  2
BYBLOCK
 70
0
  3

 72
65
 73
0
 40
0.0
  0
LTYPE
  5
15
100
AcDbSymbolTableRecord
100
AcDbLinetypeTableRecord
  2
BYLAYER
 70
0
  3

 72
65
 73
0
 40
0.0
  0
LTYPE
  5
16
100
AcDbSymbolTableRecord
100
AcDbLinetypeTableRecord
  2
CONTINUOUS
 70
64
  3
Solid line
 72
65
 73
0
 40
0.0
  0
LTYPE
  5
1F5
100
AcDbSymbolTableRecord
100
AcDbLinetypeTableRecord
  2
CENTER
 70
64
  3
____ _ ____ _ ____ _ ____ _ ____ _ ____ _ ____
 72
65
 73
4
 40
0.6
 49
0.375
 74
0
 49
-0.075
 74
0
 49
0.075
 74
0
 49
-0.075
 74
0
  0
LTYPE
  5
1F6
100
AcDbSymbolTableRecord
100
AcDbLinetypeTableRecord
  2
HIDDEN
 70
64
  3
- - - - - - - - - - - - - - - - - - - -
 72
65
 73
2
 40
0.2
 49
0.1
 74
0
 49
-0.1
 74
0
  0
LTYPE
  5
1F7
100
AcDbSymbolTableRecord
100
AcDbLinetypeTableRecord
  2
PHANTOM
 70
64
  3
_____ _ _ _____ _ _ _____ _ _ _____
 72
65
 73
6
 40
0.8
 49
0.45
 74
0
 49
-0.05
 74
0
 49
0.1
 74
0
 49
-0.05
 74
0
 49
0.1
 74
0
 49
-0.05
 74
0
  0
LTYPE
  5
1F8
100
AcDbSymbolTableRecord
100
AcDbLinetypeTableRecord
  2
DOT
 70
64
  3
. . . . . . . . . . . . . . . . . . . .
 72
65
 73
2
 40
0.2
 49
0.1
 74
0
 49
-0.1
 74
0
  0
LTYPE
  5
1F9
100
AcDbSymbolTableRecord
100
AcDbLinetypeTableRecord
  2
DASHED
 70
64
  3
- - - - - - - - - - - - - - - - - - - -
 72
65
 73
2
 40
0.2
 49
0.1
 74
0
 49
-0.1
 74
0
  0
ENDTAB
  0
TABLE
  2
LAYER
  5
2
100
AcDbSymbolTable
 70
36
  0
LAYER
  5
10
100
AcDbSymbolTableRecord
100
AcDbLayerTableRecord
  2
0
 70
0
 62
7
  6
CONTINUOUS
370
-3
390
F
  0
LAYER
  5
1FA
100
AcDbSymbolTableRecord
100
AcDbLayerTableRecord
  2
DEFAULT_1
 70
0
 62
7
  6
CENTER
370
-3
390
F
  0
LAYER
  5
1FB
100
AcDbSymbolTableRecord
100
AcDbLayerTableRecord
  2
DEFAULT_2
 70
0
 62
7
  6
HIDDEN
370
-3
390
F
  0
LAYER
  5
1FC
100
AcDbSymbolTableRecord
100
AcDbLayerTableRecord
  2
DEFAULT_3
 70
0
 62
7
  6
PHANTOM
370
-3
390
F
  0
LAYER
  5
1FD
100
AcDbSymbolTableRecord
100
AcDbLayerTableRecord
  2
00_COMPONENTS
 70
0
 62
7
  6
CONTINUOUS
370
-3
390
F
  0
LAYER
  5
1FE
100
AcDbSymbolTableRecord
100
AcDbLayerTableRecord
  2
01_1_DEFAULT_DATUMS
 70
0
 62
7
  6
CONTINUOUS
370
-3
390
F
  0
LAYER
  5
1FF
100
AcDbSymbolTableRecord
100
AcDbLayerTableRecord
  2
01_PLANES
 70
0
 62
7
  6
CONTINUOUS
370
-3
390
F
  0
LAYER
  5
200
100
AcDbSymbolTableRecord
100
AcDbLayerTableRecord
  2
02_COORD_SYS
 70
0
 62
7
  6
CONTINUOUS
370
-3
390
F
  0
LAYER
  5
201
100
AcDbSymbolTableRecord
100
AcDbLayerTableRecord
  2
03_AXES
 70
0
 62
7
  6
CONTINUOUS
370
-3
390
F
  0
LAYER
  5
202
100
AcDbSymbolTableRecord
100
AcDbLayerTableRecord
  2
04_POINTS
 70
0
 62
7
  6
CONTINUOUS
370
-3
390
F
  0
LAYER
  5
203
100
AcDbSymbolTableRecord
100
AcDbLayerTableRecord
  2
05_CURVES
 70
0
 62
7
  6
CONTINUOUS
370
-3
390
F
  0
LAYER
  5
204
100
AcDbSymbolTableRecord
100
AcDbLayerTableRecord
  2
06_SURFS
 70
0
 62
7
  6
CONTINUOUS
370
-3
390
F
  0
LAYER
  5
205
100
AcDbSymbolTableRecord
100
AcDbLayerTableRecord
  2
07_COSMETICS
 70
0
 62
7
  6
CONTINUOUS
370
-3
390
F
  0
LAYER
  5
206
100
AcDbSymbolTableRecord
100
AcDbLayerTableRecord
  2
10_NOTES
 70
0
 62
7
  6
CONTINUOUS
370
-3
390
F
  0
LAYER
  5
207
100
AcDbSymbolTableRecord
100
AcDbLayerTableRecord
  2
11_NOTES_PUB
 70
0
 62
7
  6
CONTINUOUS
370
-3
390
F
  0
LAYER
  5
208
100
AcDbSymbolTableRecord
100
AcDbLayerTableRecord
  2
13_REF_GTOL
 70
0
 62
7
  6
CONTINUOUS
370
-3
390
F
  0
LAYER
  5
209
100
AcDbSymbolTableRecord
100
AcDbLayerTableRecord
  2
16_MISC
 70
0
 62
7
  6
CONTINUOUS
370
-3
390
F
  0
LAYER
  5
20A
100
AcDbSymbolTableRecord
100
AcDbLayerTableRecord
  2
17_NO_PRINT
 70
0
 62
7
  6
CONTINUOUS
370
-3
390
F
  0
LAYER
  5
20B
100
AcDbSymbolTableRecord
100
AcDbLayerTableRecord
  2
18_DATUM_CAMS_JOINTS
 70
0
 62
7
  6
CONTINUOUS
370
-3
390
F
  0
LAYER
  5
20C
100
AcDbSymbolTableRecord
100
AcDbLayerTableRecord
  2
19_DATUM_FUNCTIONAL
 70
0
 62
7
  6
CONTINUOUS
370
-3
390
F
  0
LAYER
  5
20D
100
AcDbSymbolTableRecord
100
AcDbLayerTableRecord
  2
20_DATUM_KINEMATIC_SCHEME
 70
0
 62
7
  6
CONTINUOUS
370
-3
390
F
  0
ENDTAB
  0
TABLE
  2
STYLE
  5
3
100
AcDbSymbolTable
 70
1
  0
STYLE
  5
11
100
AcDbSymbolTableRecord
100
AcDbTextStyleTableRecord
  2
STANDARD
 70
0
 40
0.0
 41
1.0
 50
0.0
 71
0
 42
0.2
  3
ARIAL.TTF
  4

  0
STYLE
  5
20E
100
AcDbSymbolTableRecord
100
AcDbTextStyleTableRecord
  2
TEXTSTYLE_1
 70
0
 40
0.0
 41
0.8
 50
0.0
 71
0
 42
0.2
  3
gdt
  4

  0
ENDTAB
  0
TABLE
  2
VIEW
  5
6
100
AcDbSymbolTable
 70
0
  0
ENDTAB
  0
TABLE
  2
UCS
  5
7
100
AcDbSymbolTable
 70
0
  0
ENDTAB
  0
TABLE
  2
APPID
  5
9
100
AcDbSymbolTable
 70
1
  0
APPID
  5
20F
100
AcDbSymbolTableRecord
100
AcDbRegAppTableRecord
  2
ACAD
 70
0
  0
ENDTAB
  0
TABLE
  2
BLOCK_RECORD
  5
1
100
AcDbSymbolTable
 70
0
  0
BLOCK_RECORD
  5
210
100
AcDbSymbolTableRecord
100
AcDbBlockTableRecord
  2
*Model_Space
  0
BLOCK_RECORD
  5
211
100
AcDbSymbolTableRecord
100
AcDbBlockTableRecord
  2
*Paper_Space
  0
BLOCK_RECORD
  5
212
100
AcDbSymbolTableRecord
100
AcDbBlockTableRecord
  2
_FILLED
  0
ENDTAB
  0
TABLE
  2
DIMSTYLE
  5
A
100
AcDbSymbolTable
 70
1
100
AcDbDimStyleTable
 71
0
  0
DIMSTYLE
105
213
100
AcDbSymbolTableRecord
100
AcDbDimStyleTableRecord
  2
STANDARD
 70
0
  3

  4

 40
1.0
 41
0.5232408502
 42
1.0
 43
0.38
 44
1.0
 45
0.0
 46
0.0
 47
0.01
 48
0.01
140
0.7325371903
141
0.09
142
0.0
143
25.4
144
1.0
145
0.0
146
1.0
147
0.625
 71
1
 72
0
 73
0
 74
0
 75
0
 76
0
 77
1
 78
8
 79
2
170
0
171
1
172
0
173
0
174
0
175
0
176
0
177
0
178
0
270
2
179
2
271
2
272
2
273
2
274
2
275
0
280
0
281
0
282
0
283
1
284
8
285
0
286
0
287
3
288
0
340
11
278
46
341
212
342
212
343
212
344
212
  0
ENDTAB
  0
ENDSEC
  0
SECTION
  2
BLOCKS
  0
BLOCK
  5
20
100
AcDbEntity
  8
0
100
AcDbBlockBegin
  2
*Model_Space
 70
0
 10
0.0
 20
0.0
 30
0.0
  3
*Model_Space
  1

  0
ENDBLK
  5
21
100
AcDbEntity
  8
0
100
AcDbBlockEnd
  0
BLOCK
  5
1C
100
AcDbEntity
  8
0
100
AcDbBlockBegin
  2
*Paper_Space
 70
0
 10
0.0
 20
0.0
 30
0.0
  3
*Paper_Space
  1

  0
ENDBLK
  5
1D
100
AcDbEntity
  8
0
100
AcDbBlockEnd
  0
BLOCK
  5
214
100
AcDbEntity
  8
0
100
AcDbBlockBegin
  2
_FILLED
 70
64
 10
0.0
 20
0.0
  3
_FILLED
  1

  0
SOLID
  5
215
100
AcDbEntity
  8
0
  6
BYBLOCK
 62
0
100
AcDbTrace
 10
0.0
 20
0.0
 11
-1.0
 21
0.25
 12
-1.0
 22
-0.25
 13
-1.0
 23
-0.25
  0
ENDBLK
  5
216
100
AcDbEntity
  8
0
  6
BYBLOCK
 62
0
100
AcDbBlockEnd
  0
ENDSEC
  0
SECTION
  2
ENTITIES
  0
LINE
  5
217
100
AcDbEntity
  8
0
100
AcDbLine
 62
7
  6
BYLAYER
 10
5.1233363138
 20
27.1878409738
 11
5.1233363138
 21
35.1253409738
  0
LINE
  5
218
100
AcDbEntity
  8
0
100
AcDbLine
 62
7
  6
BYLAYER
 10
7.4481762382
 20
27.1878409738
 11
7.4481762382
 21
35.1253409738
  0
LINE
  5
219
100
AcDbEntity
  8
0
100
AcDbLine
 62
7
  6
BYLAYER
 10
25.3639613138
 20
27.1878409738
 11
5.1233450524
 21
27.1878409738
  0
LINE
  5
21A
100
AcDbEntity
  8
0
100
AcDbLine
 62
7
  6
BYLAYER
 10
19.2842887936
 20
27.1878409738
 11
19.2842887936
 21
27.1998233107
  0
LINE
  5
21B
100
AcDbEntity
  8
0
100
AcDbLine
 62
7
  6
BYLAYER
 10
19.2842887936
 20
35.1133586369
 11
19.2842887936
 21
35.1253409738
  0
LINE
  5
21C
100
AcDbEntity
  8
0
100
AcDbLine
 62
7
  6
BYLAYER
 10
11.6576712949
 20
27.9815909738
 11
13.9027353252
 21
27.9815909738
  0
LINE
  5
21D
100
AcDbEntity
  8
0
100
AcDbLine
 62
7
  6
BYLAYER
 10
40.0483132308
 20
28.6165909738
 11
30.5233593968
 21
28.6165909738
  0
LINE
  5
21E
100
AcDbEntity
  8
0
100
AcDbLine
 62
7
  6
BYLAYER
 10
35.9661934567
 20
29.1722159738
 11
27.3483363138
 21
29.1722159738
  0
LINE
  5
21F
100
AcDbEntity
  8
0
100
AcDbLine
 62
7
  6
BYLAYER
 10
27.3483363138
 20
33.1409659738
 11
35.9661934567
 21
33.1409659738
  0
LINE
  5
220
100
AcDbEntity
  8
0
100
AcDbLine
 62
7
  6
BYLAYER
 10
30.5233787045
 20
33.6965909738
 11
40.0482939232
 21
33.6965909738
  0
LINE
  5
221
100
AcDbEntity
  8
0
100
AcDbLine
 62
7
  6
BYLAYER
 10
11.6576712949
 20
34.3315909738
 11
13.9027353252
 21
34.3315909738
  0
LINE
  5
222
100
AcDbEntity
  8
0
100
AcDbLine
 62
7
  6
BYLAYER
 10
27.3483363138
 20
29.1722159738
 11
25.3639613138
 21
27.1878409738
  0
LINE
  5
223
100
AcDbEntity
  8
0
100
AcDbLine
 62
7
  6
BYLAYER
 10
5.1233426566
 20
35.1253409738
 11
25.3639613138
 21
35.1253409738
  0
LINE
  5
224
100
AcDbEntity
  8
0
100
AcDbLine
 62
7
  6
BYLAYER
 10
25.3639613138
 20
35.1253409738
 11
27.3483363138
 21
33.1409659738
  0
LINE
  5
225
100
AcDbEntity
  8
0
100
AcDbLine
 62
7
  6
BYLAYER
 10
30.5233363138
 20
28.6165909738
 11
30.5233363138
 21
29.1722159738
  0
LINE
  5
226
100
AcDbEntity
  8
0
100
AcDbLine
 62
7
  6
BYLAYER
 10
30.5233363138
 20
33.1409659738
 11
30.5233363138
 21
33.6965909738
  0
LINE
  5
227
100
AcDbEntity
  8
0
100
AcDbLine
 62
7
  6
BYLAYER
 10
35.9661934567
 20
33.1409659738
 11
35.9661934567
 21
29.1722159738
  0
LINE
  5
228
100
AcDbEntity
  8
0
100
AcDbLine
 62
7
  6
BYLAYER
 10
40.0483363138
 20
28.6165909738
 11
40.0483363138
 21
33.6965909738
  0
SPLINE
  5
229
100
AcDbEntity
  8
0
100
AcDbSpline
 62
7
  6
BYLAYER
 70
0
 71
3
 72
19
 73
15
 74
0
 42
0.0000001
 43
0.0000001
 44
0.0000000001
 40
0.0
 40
0.0
 40
0.0
 40
0.0
 40
0.0514814356
 40
0.1034511466
 40
0.156367182
 40
0.2106255557
 40
0.2665485115
 40
0.3243646926
 40
0.4460062695
 40
0.510002239
 40
0.5759542231
 40
0.7129110935
 40
0.8550842933
 40
1.0
 40
1.0
 40
1.0
 40
1.0
 10
11.6576712944
 20
34.3315848663
 30
0.0
 10
11.5841438682
 20
34.3315847762
 30
0.0
 10
11.436192567
 20
34.3212377371
 30
0.0
 10
11.2170150408
 20
34.2750688255
 30
0.0
 10
11.0022602688
 20
34.198609826
 30
0.0
 10
10.7940501439
 20
34.0928316401
 30
0.0
 10
10.5944102681
 20
33.9587096449
 30
0.0
 10
10.337906247
 20
33.7405085228
 30
0.0
 10
10.1109463163
 20
33.4734867426
 30
0.0
 10
9.9173625283
 20
33.1704144629
 30
0.0
 10
9.7404932474
 20
32.8322248241
 30
0.0
 10
9.5671301759
 20
32.3684967756
 30
0.0
 10
9.4409179642
 20
31.7741965577
 30
0.0
 10
9.4126072646
 20
31.3635642021
 30
0.0
 10
9.4126072646
 20
31.1565909738
 30
0.0
  0
SPLINE
  5
22A
100
AcDbEntity
  8
0
100
AcDbSpline
 62
7
  6
BYLAYER
 70
0
 71
3
 72
19
 73
15
 74
0
 42
0.0000001
 43
0.0000001
 44
0.0000000001
 40
0.0
 40
0.0
 40
0.0
 40
0.0
 40
0.1449138422
 40
0.2870845706
 40
0.4240405041
 40
0.4899922923
 40
0.5539884429
 40
0.6756314227
 40
0.7334485459
 40
0.789372445
 40
0.8436316356
 40
0.8965482961
 40
0.9485183984
 40
1.0
 40
1.0
 40
1.0
 40
1.0
 10
9.4126072646
 20
31.1565909738
 30
0.0
 10
9.4126072646
 20
30.949620394
 30
0.0
 10
9.4409166271
 20
30.5389941523
 30
0.0
 10
9.5671262606
 20
29.9447011787
 30
0.0
 10
9.7404840477
 20
29.4809767044
 30
0.0
 10
9.9173506864
 20
29.1427871692
 30
0.0
 10
10.1109333318
 20
28.8397118236
 30
0.0
 10
10.3378933856
 20
28.572685206
 30
0.0
 10
10.5944001729
 20
28.3544800638
 30
0.0
 10
10.794042252
 20
28.2203543392
 30
0.0
 10
11.0022553665
 20
28.114574428
 30
0.0
 10
11.2170122971
 20
28.0381135898
 30
0.0
 10
11.4361915375
 20
27.9919444916
 30
0.0
 10
11.584143627
 20
27.9815969912
 30
0.0
 10
11.6576712954
 20
27.9815970813
 30
0.0
  0
SPLINE
  5
22B
100
AcDbEntity
  8
0
100
AcDbSpline
 62
7
  6
BYLAYER
 70
0
 71
3
 72
29
 73
25
 74
0
 42
0.0000001
 43
0.0000001
 44
0.0000000001
 40
0.0
 40
0.0
 40
0.0
 40
0.0
 40
0.0257337592
 40
0.0517333065
 40
0.0781962765
 40
0.1053266195
 40
0.133291744
 40
0.1622040505
 40
0.2230316985
 40
0.2879540189
 40
0.3564408403
 40
0.4275348234
 40
0.5000003912
 40
0.5724656743
 40
0.6435588645
 40
0.7120447293
 40
0.7769664314
 40
0.8377940504
 40
0.8667065306
 40
0.8946718806
 40
0.9218024823
 40
0.9482659576
 40
0.9742660453
 40
1.0
 40
1.0
 40
1.0
 40
1.0
 10
18.1683569827
 20
35.1253409738
 30
0.0
 10
18.260230125
 20
35.1253409738
 30
0.0
 10
18.4451721189
 20
35.1123901982
 30
0.0
 10
18.719159789
 20
35.0547070085
 30
0.0
 10
18.9876486558
 20
34.9591362068
 30
0.0
 10
19.2478918874
 20
34.8268745693
 30
0.0
 10
19.4974427166
 20
34.6592461186
 30
0.0
 10
19.8180895234
 20
34.3864545321
 30
0.0
 10
20.1782948895
 20
33.9626442146
 30
0.0
 10
20.5247760575
 20
33.3581770735
 30
0.0
 10
20.7815128593
 20
32.6715354442
 30
0.0
 10
20.9392932977
 20
31.9284643474
 30
0.0
 10
20.9925338561
 20
31.1565878319
 30
0.0
 10
20.9392926385
 20
30.38471422
 30
0.0
 10
20.7815136562
 20
29.6416503404
 30
0.0
 10
20.5247810745
 20
28.9550162236
 30
0.0
 10
20.1783050232
 20
28.3505530676
 30
0.0
 10
19.8181039908
 20
27.9267410538
 30
0.0
 10
19.4974566078
 20
27.6539482482
 30
0.0
 10
19.2479062148
 20
27.4863149222
 30
0.0
 10
18.9876600896
 20
27.3540510521
 30
0.0
 10
18.7191674758
 20
27.2584767566
 30
0.0
 10
18.4451753398
 20
27.2007931736
 30
0.0
 10
18.2602308231
 20
27.1878409738
 30
0.0
 10
18.1683569827
 20
27.1878409738
 30
0.0
  0
SPLINE
  5
22C
100
AcDbEntity
  8
0
100
AcDbSpline
 62
7
  6
BYLAYER
 70
0
 71
3
 72
19
 73
15
 74
0
 42
0.0000001
 43
0.0000001
 44
0.0000000001
 40
0.0
 40
0.0
 40
0.0
 40
0.0
 40
0.0514814356
 40
0.1034511466
 40
0.156367182
 40
0.2106255557
 40
0.2665485115
 40
0.3243646926
 40
0.4460062695
 40
0.510002239
 40
0.5759542231
 40
0.7129110935
 40
0.8550842933
 40
1.0
 40
1.0
 40
1.0
 40
1.0
 10
11.6576712954
 20
27.9815970813
 30
0.0
 10
11.7311987216
 20
27.9815971714
 30
0.0
 10
11.8791500228
 20
27.9919442105
 30
0.0
 10
12.098327549
 20
28.0381131221
 30
0.0
 10
12.313082321
 20
28.1145721216
 30
0.0
 10
12.5212924459
 20
28.2203503075
 30
0.0
 10
12.7209323217
 20
28.3544723027
 30
0.0
 10
12.9774363428
 20
28.5726734248
 30
0.0
 10
13.2043962735
 20
28.839695205
 30
0.0
 10
13.3979800616
 20
29.1427674847
 30
0.0
 10
13.5748493424
 20
29.4809571235
 30
0.0
 10
13.748212414
 20
29.9446851721
 30
0.0
 10
13.8744246256
 20
30.5389853899
 30
0.0
 10
13.9027353252
 20
30.9496177456
 30
0.0
 10
13.9027353252
 20
31.1565909738
 30
0.0
  0
SPLINE
  5
22D
100
AcDbEntity
  8
0
100
AcDbSpline
 62
7
  6
BYLAYER
 70
0
 71
3
 72
19
 73
15
 74
0
 42
0.0000001
 43
0.0000001
 44
0.0000000001
 40
0.0
 40
0.0
 40
0.0
 40
0.0
 40
0.1449138422
 40
0.2870845706
 40
0.4240405041
 40
0.4899922923
 40
0.5539884429
 40
0.6756314227
 40
0.7334485459
 40
0.789372445
 40
0.8436316356
 40
0.8965482961
 40
0.9485183984
 40
1.0
 40
1.0
 40
1.0
 40
1.0
 10
13.9027353252
 20
31.1565909738
 30
0.0
 10
13.9027353252
 20
31.3635615536
 30
0.0
 10
13.8744259627
 20
31.7741877953
 30
0.0
 10
13.7482163293
 20
32.3684807689
 30
0.0
 10
13.5748585421
 20
32.8322052432
 30
0.0
 10
13.3979919035
 20
33.1703947784
 30
0.0
 10
13.204409258
 20
33.473470124
 30
0.0
 10
12.9774492043
 20
33.7404967416
 30
0.0
 10
12.7209424169
 20
33.9587018838
 30
0.0
 10
12.5213003378
 20
34.0928276084
 30
0.0
 10
12.3130872233
 20
34.1986075196
 30
0.0
 10
12.0983302927
 20
34.2750683579
 30
0.0
 10
11.8791510524
 20
34.321237456
 30
0.0
 10
11.7311989628
 20
34.3315849564
 30
0.0
 10
11.6576712944
 20
34.3315848663
 30
0.0
  0
SPLINE
  5
22E
100
AcDbEntity
  8
0
100
AcDbSpline
 62
7
  6
BYLAYER
 70
0
 71
3
 72
19
 73
15
 74
0
 42
0.0000001
 43
0.0000001
 44
0.0000000001
 40
0.0
 40
0.0
 40
0.0
 40
0.0
 40
0.1449138422
 40
0.2870845706
 40
0.4240405041
 40
0.4899922923
 40
0.5539884429
 40
0.6756314227
 40
0.7334485459
 40
0.789372445
 40
0.8436316356
 40
0.8965482961
 40
0.9485183984
 40
1.0
 40
1.0
 40
1.0
 40
1.0
 10
16.1477993554
 20
31.1565909738
 30
0.0
 10
16.1477993554
 20
30.949620394
 30
0.0
 10
16.1194899929
 20
30.5389941523
 30
0.0
 10
15.9932803595
 20
29.9447011787
 30
0.0
 10
15.8199225724
 20
29.4809767044
 30
0.0
 10
15.6430559337
 20
29.1427871692
 30
0.0
 10
15.4494732883
 20
28.8397118236
 30
0.0
 10
15.2225132345
 20
28.572685206
 30
0.0
 10
14.9660064472
 20
28.3544800638
 30
0.0
 10
14.7663643681
 20
28.2203543392
 30
0.0
 10
14.5581512536
 20
28.114574428
 30
0.0
 10
14.3433943229
 20
28.0381135898
 30
0.0
 10
14.1242150826
 20
27.9919444916
 30
0.0
 10
13.9762629931
 20
27.9815969912
 30
0.0
 10
13.9027353247
 20
27.9815970813
 30
0.0
  0
SPLINE
  5
22F
100
AcDbEntity
  8
0
100
AcDbSpline
 62
7
  6
BYLAYER
 70
0
 71
3
 72
29
 73
25
 74
0
 42
0.0000001
 43
0.0000001
 44
0.0000000001
 40
0.0
 40
0.0
 40
0.0
 40
0.0
 40
0.0257337592
 40
0.0517333065
 40
0.0781962765
 40
0.1053266195
 40
0.133291744
 40
0.1622040505
 40
0.2230316985
 40
0.2879540189
 40
0.3564408403
 40
0.4275348234
 40
0.5000003912
 40
0.5724656743
 40
0.6435588645
 40
0.7120447293
 40
0.7769664314
 40
0.8377940504
 40
0.8667065306
 40
0.8946718806
 40
0.9218024823
 40
0.9482659576
 40
0.9742660453
 40
1.0
 40
1.0
 40
1.0
 40
1.0
 10
13.9027353252
 20
27.1878409738
 30
0.0
 10
13.9946084675
 20
27.1878409738
 30
0.0
 10
14.1795504614
 20
27.2007917494
 30
0.0
 10
14.4535381314
 20
27.2584749391
 30
0.0
 10
14.7220269983
 20
27.3540457408
 30
0.0
 10
14.9822702299
 20
27.4863073784
 30
0.0
 10
15.2318210591
 20
27.6539358291
 30
0.0
 10
15.5524678659
 20
27.9267274156
 30
0.0
 10
15.912673232
 20
28.350537733
 30
0.0
 10
16.2591544
 20
28.9550048741
 30
0.0
 10
16.5158912018
 20
29.6416465034
 30
0.0
 10
16.6736716402
 20
30.3847176002
 30
0.0
 10
16.7269121986
 20
31.1565941158
 30
0.0
 10
16.673670981
 20
31.9284677277
 30
0.0
 10
16.5158919987
 20
32.6715316072
 30
0.0
 10
16.259159417
 20
33.358165724
 30
0.0
 10
15.9126833657
 20
33.9626288801
 30
0.0
 10
15.5524823333
 20
34.3864408938
 30
0.0
 10
15.2318349503
 20
34.6592336994
 30
0.0
 10
14.9822845573
 20
34.8268670254
 30
0.0
 10
14.7220384321
 20
34.9591308955
 30
0.0
 10
14.4535458183
 20
35.054705191
 30
0.0
 10
14.1795536823
 20
35.112388774
 30
0.0
 10
13.9946091656
 20
35.1253409738
 30
0.0
 10
13.9027353252
 20
35.1253409738
 30
0.0
  0
SPLINE
  5
230
100
AcDbEntity
  8
0
100
AcDbSpline
 62
7
  6
BYLAYER
 70
0
 71
3
 72
31
 73
27
 74
0
 42
0.0000001
 43
0.0000001
 44
0.0000000001
 40
0.0
 40
0.0
 40
0.0
 40
0.0
 40
0.0256575138
 40
0.0517300193
 40
0.0783732812
 40
0.1057444914
 40
0.133971685
 40
0.1631328917
 40
0.2243225251
 40
0.2563946283
 40
0.2893637507
 40
0.3575986344
 40
0.4281841226
 40
0.49999977
 40
0.5718151832
 40
0.6424000204
 40
0.7106341929
 40
0.7436031068
 40
0.7756751041
 40
0.8368650289
 40
0.8660265332
 40
0.8942540045
 40
0.9216255734
 40
0.9482693655
 40
0.9743423306
 40
1.0
 40
1.0
 40
1.0
 40
1.0
 10
19.2842887936
 20
27.1998233107
 30
0.0
 10
19.3716505421
 20
27.209445643
 30
0.0
 10
19.5466978893
 20
27.2405726002
 30
0.0
 10
19.8034909754
 20
27.3211747976
 30
0.0
 10
20.0536739245
 20
27.4353876011
 30
0.0
 10
20.2949747134
 20
27.5819548434
 30
0.0
 10
20.5253427958
 20
27.7596246358
 30
0.0
 10
20.8199874377
 20
28.0400711044
 30
0.0
 10
21.0794770502
 20
28.3730731783
 30
0.0
 10
21.3003721329
 20
28.7451590134
 30
0.0
 10
21.5012644158
 20
29.155638557
 30
0.0
 10
21.6977635904
 20
29.7127833474
 30
0.0
 10
21.840679473
 20
30.4222267523
 30
0.0
 10
21.8888607321
 20
31.156587617
 30
0.0
 10
21.840680413
 20
31.8909462797
 30
0.0
 10
21.6977670297
 20
32.6003845695
 30
0.0
 10
21.5012714076
 20
33.1575247962
 30
0.0
 10
21.3003830103
 20
33.5680023185
 30
0.0
 10
21.0794900109
 20
33.9400892886
 30
0.0
 10
20.8200015742
 20
34.273094406
 30
0.0
 10
20.5253564603
 20
34.5535446419
 30
0.0
 10
20.2949875351
 20
34.7312186122
 30
0.0
 10
20.0536839153
 20
34.8777889669
 30
0.0
 10
19.8034971826
 20
34.9920047202
 30
0.0
 10
19.5467003461
 20
35.0726080519
 30
0.0
 10
19.3716510717
 20
35.1037362463
 30
0.0
 10
19.2842887936
 20
35.1133586369
 30
0.0
  0
SPLINE
  5
231
100
AcDbEntity
  8
0
100
AcDbSpline
 62
7
  6
BYLAYER
 70
0
 71
3
 72
19
 73
15
 74
0
 42
0.0000001
 43
0.0000001
 44
0.0000000001
 40
0.0
 40
0.0
 40
0.0
 40
0.0
 40
0.0514814356
 40
0.1034511466
 40
0.156367182
 40
0.2106255557
 40
0.2665485115
 40
0.3243646926
 40
0.4460062695
 40
0.510002239
 40
0.5759542231
 40
0.7129110935
 40
0.8550842933
 40
1.0
 40
1.0
 40
1.0
 40
1.0
 10
13.9027353257
 20
34.3315848663
 30
0.0
 10
13.9762627519
 20
34.3315847762
 30
0.0
 10
14.1242140531
 20
34.3212377371
 30
0.0
 10
14.3433915793
 20
34.2750688255
 30
0.0
 10
14.5581463513
 20
34.198609826
 30
0.0
 10
14.7663564762
 20
34.0928316401
 30
0.0
 10
14.965996352
 20
33.9587096449
 30
0.0
 10
15.2225003731
 20
33.7405085228
 30
0.0
 10
15.4494603037
 20
33.4734867426
 30
0.0
 10
15.6430440918
 20
33.1704144629
 30
0.0
 10
15.8199133727
 20
32.8322248241
 30
0.0
 10
15.9932764442
 20
32.3684967756
 30
0.0
 10
16.1194886558
 20
31.7741965577
 30
0.0
 10
16.1477993554
 20
31.3635642021
 30
0.0
 10
16.1477993554
 20
31.1565909738
 30
0.0
  0
ELLIPSE
  5
232
100
AcDbEntity
  8
0
100
AcDbEllipse
 62
7
  6
BYLAYER
 10
18.7749613054
 20
31.1565909738
 30
0.0
 11
6.5594326234
 21
-0.0
 31
0.0
 40
0.6050447086
 41
-1.4930699868
 42
1.4930699868
  0
ENDSEC
  0
SECTION
  2
OBJECTS
  0
DICTIONARY
  5
C
100
AcDbDictionary
280
0
281
1
  3
ACAD_GROUP
350
D
  3
ACAD_MLINESTYLE
350
17
  3
ACAD_LAYOUT
350
1A
  3
ACAD_PLOTSETTINGS
350
19
  3
ACAD_PLOTSTYLENAME
350
E
  0
DICTIONARY
  5
D
102
{ACAD_REACTORS
330
C
102
}
100
AcDbDictionary
280
0
281
1
  0
ACDBDICTIONARYWDFLT
  5
E
102
{ACAD_REACTORS
330
C
102
}
100
AcDbDictionary
281
1
  3
Normal
350
F
100
AcDbDictionaryWithDefault
340
F
  0
DICTIONARY
  5
17
102
{ACAD_REACTORS
330
C
102
}
100
AcDbDictionary
280
0
281
1
  3
Standard
350
18
  0
DICTIONARY
  5
19
102
{ACAD_REACTORS
330
C
102
}
100
AcDbDictionary
281
1
  0
DICTIONARY
  5
1A
102
{ACAD_REACTORS
330
C
102
}
100
AcDbDictionary
281
1
  3
Model
350
233
  3
Layout1
350
234
  0
ACDBPLACEHOLDER
  5
F
102
{ACAD_REACTORS
330
E
102
}
  0
MLINESTYLE
  5
18
102
{ACAD_REACTORS
330
17
102
}
100
AcDbMlineStyle
  2
STANDARD
 70
0
  3

 62
256
 51
90.0
 52
90.0
 71
2
 49
0.5
 62
256
  6
BYLAYER
 49
-0.5
 62
256
  6
BYLAYER
  0
LAYOUT
  5
233
102
{ACAD_REACTORS
330
1A
102
}
100
AcDbPlotSettings
  1

  2
none_device
  4

  6

 40
0.0
 41
0.0
 42
0.0
 43
0.0
 44
210.0
 45
297.0
 46
0.0
 47
0.0
 48
0.0
 49
0.0
140
0.0
141
0.0
142
1.0
143
1.0
 70
1024
 72
1
 73
0
 74
0
  7

 75
0
147
1.0
148
0.0
149
0.0
100
AcDbLayout
  1
Model
 70
0
 71
0
 10
0.0
 20
0.0
 11
210.0
 21
297.0
 12
0.0
 22
0.0
 32
0.0
 14
0.0
 24
0.0
 34
0.0
 15
0.0
 25
0.0
 35
0.0
146
0.0
 13
0.0
 23
0.0
 33
0.0
 16
1.0
 26
0.0
 36
0.0
 17
0.0
 27
1.0
 37
0.0
 76
0
330
210
345
0
346
0
  0
LAYOUT
  5
234
102
{ACAD_REACTORS
330
1A
102
}
100
AcDbPlotSettings
  1

  2
none_device
  4

  6

 40
0.0
 41
0.0
 42
0.0
 43
0.0
 44
210.0
 45
297.0
 46
0.0
 47
0.0
 48
0.0
 49
0.0
140
0.0
141
0.0
142
1.0
143
1.0
 70
0
 72
1
 73
0
 74
0
  7

 75
0
147
1.0
148
0.0
149
0.0
100
AcDbLayout
  1
Layout1
 70
0
 71
1
 10
0.0
 20
0.0
 11
210.0
 21
297.0
 12
0.0
 22
0.0
 32
0.0
 14
0.0
 24
0.0
 34
0.0
 15
0.0
 25
0.0
 35
0.0
146
0.0
 13
0.0
 23
0.0
 33
0.0
 16
1.0
 26
0.0
 36
0.0
 17
0.0
 27
1.0
 37
0.0
 76
0
330
211
345
0
346
0
  0
ENDSEC
  0
EOF
