999
DXF file: C:\Users\sesa63760\Dev\_Creo\CAD\MCADID0004551_3D-CAD\drw0001_7.dxf
999
Pro/ENGINEER 2019471 by Parametric Technology Corporation
  0
SECTION
  2
HEADER
  9
$ACADVER
  1
AC1024
  9
$DWGCODEPAGE
  3
ANSI_1252
  9
$EXTMAX
 10
22.7532450757
 20
32.1795894642
 30
0.0
  9
$EXTMIN
 10
0.0
 20
0.0
 30
0.0
  9
$LIMMIN
 10
0.0
 20
0.0
  9
$LIMMAX
 10
22.7532450757
 20
32.1795894642
  9
$VIEWCTR
 10
11.3766225378
 20
16.0897947321
  9
$VIEWSIZE
 40
32.1795894642
  9
$CLAYER
  8
0
  9
$LTSCALE
 40
2.0976324984
  9
$CELTYPE
  6
BYLAYER
  9
$DIMSCALE
 40
1.0
  9
$DIMASZ
 40
0.2708719652
  9
$DIMEXO
 40
1.0
  9
$DIMDLI
 40
1.4492733625
  9
$DIMEXE
 40
1.0
  9
$DIMCEN
 40
0.3432489543
  9
$DIMLFAC
 40
1.0
  9
$DIMBLK
  1
_FILLED
  9
$DIMALT
 70
0
  9
$DIMALTF
 40
0.0393700787
  9
$DIMTXT
 40
0.3792207513
  9
$DIMTOL
 70
1
  9
$DIMLIM
 70
0
  9
$DIMTFAC
 40
1.0
  9
$DIMTP
 40
0.01
  9
$DIMTM
 40
0.01
  9
$DIMGAP
 40
0.625
  9
$DIMDSEP
 70
46
  9
$AUNITS
 70
0
  9
$PDMODE
 70
3
  9
$PDSIZE
 40
0.3125
  9
$HANDSEED
  5
249
  9
$TILEMODE
 70
1
  9
$MEASUREMENT
 70
1
  9
$INSUNITS
 70
4
  0
ENDSEC
  0
SECTION
  2
CLASSES
  0
CLASS
  1
ACDBDICTIONARYWDFLT
  2
AcDbDictionaryWithDefault
  3
AutoCAD 2000
 90
0
 91
1
280
0
281
0
  0
CLASS
  1
ACDBPLACEHOLDER
  2
AcDbPlaceHolder
  3
AutoCAD 2000
 90
0
 91
1
280
0
281
0
  0
CLASS
  1
LAYOUT
  2
AcDbLayout
  3
AutoCAD 2000
 90
0
 91
0
280
0
281
0
  0
ENDSEC
  0
SECTION
  2
TABLES
  0
TABLE
  2
VPORT
  5
8
100
AcDbSymbolTable
 70
2
  0
VPORT
  5
1F4
100
AcDbSymbolTableRecord
100
AcDbViewportTableRecord
  2
*ACTIVE
 70
0
 10
0.0
 20
0.0
 11
1.0
 21
1.0
 12
11.3766225378
 22
16.0897947321
 13
0.0
 23
0.0
 14
1.0
 24
1.0
 15
0.0
 25
0.0
 16
0.0
 26
0.0
 36
1.0
 17
0.0
 27
0.0
 37
0.0
 40
32.1795894642
 41
0.7070707071
 42
50.0
 43
0.0
 44
0.0
 50
0.0
 51
0.0
 71
0
 72
100
 73
1
 74
1
 75
0
 76
0
 77
0
 78
0
  0
ENDTAB
  0
TABLE
  2
LTYPE
  5
5
100
AcDbSymbolTable
 70
6
  0
LTYPE
  5
14
100
AcDbSymbolTableRecord
100
AcDbLinetypeTableRecord
  2
BYBLOCK
 70
0
  3

 72
65
 73
0
 40
0.0
  0
LTYPE
  5
15
100
AcDbSymbolTableRecord
100
AcDbLinetypeTableRecord
  2
BYLAYER
 70
0
  3

 72
65
 73
0
 40
0.0
  0
LTYPE
  5
16
100
AcDbSymbolTableRecord
100
AcDbLinetypeTableRecord
  2
CONTINUOUS
 70
64
  3
Solid line
 72
65
 73
0
 40
0.0
  0
LTYPE
  5
1F5
100
AcDbSymbolTableRecord
100
AcDbLinetypeTableRecord
  2
CENTER
 70
64
  3
____ _ ____ _ ____ _ ____ _ ____ _ ____ _ ____
 72
65
 73
4
 40
0.6
 49
0.375
 74
0
 49
-0.075
 74
0
 49
0.075
 74
0
 49
-0.075
 74
0
  0
LTYPE
  5
1F6
100
AcDbSymbolTableRecord
100
AcDbLinetypeTableRecord
  2
HIDDEN
 70
64
  3
- - - - - - - - - - - - - - - - - - - -
 72
65
 73
2
 40
0.2
 49
0.1
 74
0
 49
-0.1
 74
0
  0
LTYPE
  5
1F7
100
AcDbSymbolTableRecord
100
AcDbLinetypeTableRecord
  2
PHANTOM
 70
64
  3
_____ _ _ _____ _ _ _____ _ _ _____
 72
65
 73
6
 40
0.8
 49
0.45
 74
0
 49
-0.05
 74
0
 49
0.1
 74
0
 49
-0.05
 74
0
 49
0.1
 74
0
 49
-0.05
 74
0
  0
LTYPE
  5
1F8
100
AcDbSymbolTableRecord
100
AcDbLinetypeTableRecord
  2
DOT
 70
64
  3
. . . . . . . . . . . . . . . . . . . .
 72
65
 73
2
 40
0.2
 49
0.1
 74
0
 49
-0.1
 74
0
  0
LTYPE
  5
1F9
100
AcDbSymbolTableRecord
100
AcDbLinetypeTableRecord
  2
DASHED
 70
64
  3
- - - - - - - - - - - - - - - - - - - -
 72
65
 73
2
 40
0.2
 49
0.1
 74
0
 49
-0.1
 74
0
  0
ENDTAB
  0
TABLE
  2
LAYER
  5
2
100
AcDbSymbolTable
 70
36
  0
LAYER
  5
10
100
AcDbSymbolTableRecord
100
AcDbLayerTableRecord
  2
0
 70
0
 62
7
  6
CONTINUOUS
370
-3
390
F
  0
LAYER
  5
1FA
100
AcDbSymbolTableRecord
100
AcDbLayerTableRecord
  2
DEFAULT_1
 70
0
 62
7
  6
CENTER
370
-3
390
F
  0
LAYER
  5
1FB
100
AcDbSymbolTableRecord
100
AcDbLayerTableRecord
  2
DEFAULT_2
 70
0
 62
7
  6
HIDDEN
370
-3
390
F
  0
LAYER
  5
1FC
100
AcDbSymbolTableRecord
100
AcDbLayerTableRecord
  2
DEFAULT_3
 70
0
 62
7
  6
PHANTOM
370
-3
390
F
  0
LAYER
  5
1FD
100
AcDbSymbolTableRecord
100
AcDbLayerTableRecord
  2
00_COMPONENTS
 70
0
 62
7
  6
CONTINUOUS
370
-3
390
F
  0
LAYER
  5
1FE
100
AcDbSymbolTableRecord
100
AcDbLayerTableRecord
  2
01_1_DEFAULT_DATUMS
 70
0
 62
7
  6
CONTINUOUS
370
-3
390
F
  0
LAYER
  5
1FF
100
AcDbSymbolTableRecord
100
AcDbLayerTableRecord
  2
01_PLANES
 70
0
 62
7
  6
CONTINUOUS
370
-3
390
F
  0
LAYER
  5
200
100
AcDbSymbolTableRecord
100
AcDbLayerTableRecord
  2
02_COORD_SYS
 70
0
 62
7
  6
CONTINUOUS
370
-3
390
F
  0
LAYER
  5
201
100
AcDbSymbolTableRecord
100
AcDbLayerTableRecord
  2
03_AXES
 70
0
 62
7
  6
CONTINUOUS
370
-3
390
F
  0
LAYER
  5
202
100
AcDbSymbolTableRecord
100
AcDbLayerTableRecord
  2
04_POINTS
 70
0
 62
7
  6
CONTINUOUS
370
-3
390
F
  0
LAYER
  5
203
100
AcDbSymbolTableRecord
100
AcDbLayerTableRecord
  2
05_CURVES
 70
0
 62
7
  6
CONTINUOUS
370
-3
390
F
  0
LAYER
  5
204
100
AcDbSymbolTableRecord
100
AcDbLayerTableRecord
  2
06_SURFS
 70
0
 62
7
  6
CONTINUOUS
370
-3
390
F
  0
LAYER
  5
205
100
AcDbSymbolTableRecord
100
AcDbLayerTableRecord
  2
07_COSMETICS
 70
0
 62
7
  6
CONTINUOUS
370
-3
390
F
  0
LAYER
  5
206
100
AcDbSymbolTableRecord
100
AcDbLayerTableRecord
  2
10_NOTES
 70
0
 62
7
  6
CONTINUOUS
370
-3
390
F
  0
LAYER
  5
207
100
AcDbSymbolTableRecord
100
AcDbLayerTableRecord
  2
11_NOTES_PUB
 70
0
 62
7
  6
CONTINUOUS
370
-3
390
F
  0
LAYER
  5
208
100
AcDbSymbolTableRecord
100
AcDbLayerTableRecord
  2
13_REF_GTOL
 70
0
 62
7
  6
CONTINUOUS
370
-3
390
F
  0
LAYER
  5
209
100
AcDbSymbolTableRecord
100
AcDbLayerTableRecord
  2
16_MISC
 70
0
 62
7
  6
CONTINUOUS
370
-3
390
F
  0
LAYER
  5
20A
100
AcDbSymbolTableRecord
100
AcDbLayerTableRecord
  2
17_NO_PRINT
 70
0
 62
7
  6
CONTINUOUS
370
-3
390
F
  0
LAYER
  5
20B
100
AcDbSymbolTableRecord
100
AcDbLayerTableRecord
  2
18_DATUM_CAMS_JOINTS
 70
0
 62
7
  6
CONTINUOUS
370
-3
390
F
  0
LAYER
  5
20C
100
AcDbSymbolTableRecord
100
AcDbLayerTableRecord
  2
19_DATUM_FUNCTIONAL
 70
0
 62
7
  6
CONTINUOUS
370
-3
390
F
  0
LAYER
  5
20D
100
AcDbSymbolTableRecord
100
AcDbLayerTableRecord
  2
20_DATUM_KINEMATIC_SCHEME
 70
0
 62
7
  6
CONTINUOUS
370
-3
390
F
  0
ENDTAB
  0
TABLE
  2
STYLE
  5
3
100
AcDbSymbolTable
 70
1
  0
STYLE
  5
11
100
AcDbSymbolTableRecord
100
AcDbTextStyleTableRecord
  2
STANDARD
 70
0
 40
0.0
 41
1.0
 50
0.0
 71
0
 42
0.2
  3
ARIAL.TTF
  4

  0
STYLE
  5
20E
100
AcDbSymbolTableRecord
100
AcDbTextStyleTableRecord
  2
TEXTSTYLE_1
 70
0
 40
0.0
 41
0.8
 50
0.0
 71
0
 42
0.2
  3
gdt
  4

  0
ENDTAB
  0
TABLE
  2
VIEW
  5
6
100
AcDbSymbolTable
 70
0
  0
ENDTAB
  0
TABLE
  2
UCS
  5
7
100
AcDbSymbolTable
 70
0
  0
ENDTAB
  0
TABLE
  2
APPID
  5
9
100
AcDbSymbolTable
 70
1
  0
APPID
  5
20F
100
AcDbSymbolTableRecord
100
AcDbRegAppTableRecord
  2
ACAD
 70
0
  0
ENDTAB
  0
TABLE
  2
BLOCK_RECORD
  5
1
100
AcDbSymbolTable
 70
0
  0
BLOCK_RECORD
  5
210
100
AcDbSymbolTableRecord
100
AcDbBlockTableRecord
  2
*Model_Space
  0
BLOCK_RECORD
  5
211
100
AcDbSymbolTableRecord
100
AcDbBlockTableRecord
  2
*Paper_Space
  0
BLOCK_RECORD
  5
212
100
AcDbSymbolTableRecord
100
AcDbBlockTableRecord
  2
_FILLED
  0
ENDTAB
  0
TABLE
  2
DIMSTYLE
  5
A
100
AcDbSymbolTable
 70
1
100
AcDbDimStyleTable
 71
0
  0
DIMSTYLE
105
213
100
AcDbSymbolTableRecord
100
AcDbDimStyleTableRecord
  2
STANDARD
 70
0
  3

  4

 40
1.0
 41
0.2708719652
 42
1.0
 43
0.38
 44
1.0
 45
0.0
 46
0.0
 47
0.01
 48
0.01
140
0.3792207513
141
0.09
142
0.0
143
25.4
144
1.0
145
0.0
146
1.0
147
0.625
 71
1
 72
0
 73
0
 74
0
 75
0
 76
0
 77
1
 78
8
 79
2
170
0
171
1
172
0
173
0
174
0
175
0
176
0
177
0
178
0
270
2
179
2
271
2
272
2
273
2
274
2
275
0
280
0
281
0
282
0
283
1
284
8
285
0
286
0
287
3
288
0
340
11
278
46
341
212
342
212
343
212
344
212
  0
ENDTAB
  0
ENDSEC
  0
SECTION
  2
BLOCKS
  0
BLOCK
  5
20
100
AcDbEntity
  8
0
100
AcDbBlockBegin
  2
*Model_Space
 70
0
 10
0.0
 20
0.0
 30
0.0
  3
*Model_Space
  1

  0
ENDBLK
  5
21
100
AcDbEntity
  8
0
100
AcDbBlockEnd
  0
BLOCK
  5
1C
100
AcDbEntity
  8
0
100
AcDbBlockBegin
  2
*Paper_Space
 70
0
 10
0.0
 20
0.0
 30
0.0
  3
*Paper_Space
  1

  0
ENDBLK
  5
1D
100
AcDbEntity
  8
0
100
AcDbBlockEnd
  0
BLOCK
  5
214
100
AcDbEntity
  8
0
100
AcDbBlockBegin
  2
_FILLED
 70
64
 10
0.0
 20
0.0
  3
_FILLED
  1

  0
SOLID
  5
215
100
AcDbEntity
  8
0
  6
BYBLOCK
 62
0
100
AcDbTrace
 10
0.0
 20
0.0
 11
-1.0
 21
0.25
 12
-1.0
 22
-0.25
 13
-1.0
 23
-0.25
  0
ENDBLK
  5
216
100
AcDbEntity
  8
0
  6
BYBLOCK
 62
0
100
AcDbBlockEnd
  0
ENDSEC
  0
SECTION
  2
ENTITIES
  0
LINE
  5
217
100
AcDbEntity
  8
0
100
AcDbLine
 62
7
  6
BYLAYER
 10
7.8534657409
 20
18.7435654979
 11
7.8534657409
 21
18.6987973935
  0
LINE
  5
218
100
AcDbEntity
  8
0
100
AcDbLine
 62
7
  6
BYLAYER
 10
7.8534657409
 20
17.6383336024
 11
7.8534657409
 21
17.5935654979
  0
LINE
  5
219
100
AcDbEntity
  8
0
100
AcDbLine
 62
7
  6
BYLAYER
 10
10.8618249074
 20
12.7380635494
 11
12.9965924442
 21
12.9439051601
  0
LINE
  5
21A
100
AcDbEntity
  8
0
100
AcDbLine
 62
7
  6
BYLAYER
 10
8.8028177033
 20
13.3764345624
 11
10.8618249074
 21
12.7380635494
  0
LINE
  5
21B
100
AcDbEntity
  8
0
100
AcDbLine
 62
7
  6
BYLAYER
 10
8.037468892
 20
14.0185053575
 11
8.8028177033
 21
13.3764345624
  0
LINE
  5
21C
100
AcDbEntity
  8
0
100
AcDbLine
 62
7
  6
BYLAYER
 10
14.4156657998
 20
23.3642503674
 11
14.2957479334
 21
23.1565454945
  0
LINE
  5
21D
100
AcDbEntity
  8
0
100
AcDbLine
 62
7
  6
BYLAYER
 10
8.689645765
 20
7.7778153912
 11
8.8216840254
 21
8.1841873713
  0
LINE
  5
21E
100
AcDbEntity
  8
0
100
AcDbLine
 62
7
  6
BYLAYER
 10
7.8534657409
 20
17.5935654979
 11
7.2681312155
 21
17.5935654979
  0
LINE
  5
21F
100
AcDbEntity
  8
0
100
AcDbLine
 62
7
  6
BYLAYER
 10
7.8534657409
 20
17.6383336024
 11
7.1944819214
 21
17.6383336024
  0
LINE
  5
220
100
AcDbEntity
  8
0
100
AcDbLine
 62
7
  6
BYLAYER
 10
7.1944819214
 20
18.6987973935
 11
7.8534657409
 21
18.6987973935
  0
LINE
  5
221
100
AcDbEntity
  8
0
100
AcDbLine
 62
7
  6
BYLAYER
 10
7.2681312155
 20
18.7435654979
 11
7.8534657409
 21
18.7435654979
  0
LWPOLYLINE
  5
222
100
AcDbEntity
  8
0
100
AcDbPolyline
 62
7
  6
BYLAYER
 90
3
 70
0
 10
12.9965924442
 20
12.9439051601
 10
14.8905799826
 20
13.958985313
 10
15.6488176015
 20
14.7220003081
  0
CIRCLE
  5
223
100
AcDbEntity
  8
0
100
AcDbCircle
 62
7
  6
BYLAYER
 10
9.4159657409
 20
10.9685654979
 40
0.9825462644
  0
CIRCLE
  5
224
100
AcDbEntity
  8
0
100
AcDbCircle
 62
7
  6
BYLAYER
 10
9.4159657409
 20
10.9685654979
 40
0.0825457434
  0
CIRCLE
  5
225
100
AcDbEntity
  8
0
100
AcDbCircle
 62
7
  6
BYLAYER
 10
9.9159657409
 20
16.6685654979
 40
0.5
  0
ARC
  5
226
100
AcDbEntity
  8
0
100
AcDbCircle
 62
7
  6
BYLAYER
 10
11.4159657409
 20
16.1685654979
 40
9.0
100
AcDbArc
 50
274.6592571202
 51
269.9999999996
  0
ARC
  5
227
100
AcDbEntity
  8
0
100
AcDbCircle
 62
7
  6
BYLAYER
 10
11.4159657409
 20
16.1685654979
 40
8.05
100
AcDbArc
 50
87.1947345673
 51
85.0355937647
  0
ARC
  5
228
100
AcDbEntity
  8
0
100
AcDbCircle
 62
7
  6
BYLAYER
 10
11.4159657409
 20
16.1685654979
 40
7.8464785214
100
AcDbArc
 50
107.7135576545
 51
72.2314839126
  0
CIRCLE
  5
229
100
AcDbEntity
  8
0
100
AcDbCircle
 62
7
  6
BYLAYER
 10
12.9159657409
 20
16.6685654979
 40
0.5
  0
ARC
  5
22A
100
AcDbEntity
  8
0
100
AcDbCircle
 62
7
  6
BYLAYER
 10
11.4159657409
 20
18.1685654979
 40
6.0
100
AcDbArc
 50
298.5216215245
 51
283.499999998
  0
CIRCLE
  5
22B
100
AcDbEntity
  8
0
100
AcDbCircle
 62
7
  6
BYLAYER
 10
11.4159657409
 20
18.1685654979
 40
5.175
  0
CIRCLE
  5
22C
100
AcDbEntity
  8
0
100
AcDbCircle
 62
7
  6
BYLAYER
 10
11.4159657409
 20
18.1685654979
 40
4.975
  0
CIRCLE
  5
22D
100
AcDbEntity
  8
0
100
AcDbCircle
 62
7
  6
BYLAYER
 10
11.4159657409
 20
18.1685654979
 40
4.2566164595
  0
ARC
  5
22E
100
AcDbEntity
  8
0
100
AcDbCircle
 62
7
  6
BYLAYER
 10
11.4159657409
 20
18.1685654979
 40
4.1875
100
AcDbArc
 50
187.8924158583
 51
172.1075841417
  0
ARC
  5
22F
100
AcDbEntity
  8
0
100
AcDbCircle
 62
7
  6
BYLAYER
 10
7.8534657409
 20
18.1685654979
 40
0.575
100
AcDbArc
 50
270.0
 51
90.0
  0
ARC
  5
230
100
AcDbEntity
  8
0
100
AcDbCircle
 62
7
  6
BYLAYER
 10
7.8534657409
 20
18.1685654979
 40
0.5302318956
100
AcDbArc
 50
270.0000000002
 51
89.9999999998
  0
CIRCLE
  5
231
100
AcDbEntity
  8
0
100
AcDbCircle
 62
7
  6
BYLAYER
 10
12.9159657409
 20
19.6685654979
 40
0.5
  0
CIRCLE
  5
232
100
AcDbEntity
  8
0
100
AcDbCircle
 62
7
  6
BYLAYER
 10
9.9159657409
 20
19.6685654979
 40
0.5
  0
CIRCLE
  5
233
100
AcDbEntity
  8
0
100
AcDbCircle
 62
7
  6
BYLAYER
 10
11.4159657409
 20
18.1685654979
 40
0.5
  0
ARC
  5
234
100
AcDbEntity
  8
0
100
AcDbCircle
 62
7
  6
BYLAYER
 10
18.0578851643
 20
0.9100661062
 40
20.8435239543
100
AcDbArc
 50
121.1750831524
 51
121.4120019318
  0
CIRCLE
  5
235
100
AcDbEntity
  8
0
100
AcDbCircle
 62
7
  6
BYLAYER
 10
13.4159657409
 20
10.9685654979
 40
0.9738193966
  0
CIRCLE
  5
236
100
AcDbEntity
  8
0
100
AcDbCircle
 62
7
  6
BYLAYER
 10
13.4159657409
 20
10.9685654979
 40
0.0738189307
  0
ARC
  5
237
100
AcDbEntity
  8
0
100
AcDbCircle
 62
7
  6
BYLAYER
 10
18.0126777068
 20
35.3526928033
 40
20.7564901164
100
AcDbArc
 50
238.5875013566
 51
238.8254135592
  0
SPLINE
  5
238
100
AcDbEntity
  8
0
100
AcDbSpline
 62
7
  6
BYLAYER
 70
0
 71
3
 72
18
 73
14
 74
0
 42
0.0000001
 43
0.0000001
 44
0.0000000001
 40
0.0
 40
0.0
 40
0.0
 40
0.0
 40
0.1249530861
 40
0.2499528969
 40
0.3124650039
 40
0.3749791553
 40
0.4375017285
 40
0.5000290562
 40
0.625010176
 40
0.7499736105
 40
0.8124986049
 40
0.8750430201
 40
1.0
 40
1.0
 40
1.0
 40
1.0
 10
14.2957703411
 20
23.1565325575
 30
0.0
 10
14.5174740888
 20
23.0337867815
 30
0.0
 10
14.9450022918
 20
22.7582251505
 30
0.0
 10
15.429457539
 20
22.3467835213
 30
0.0
 10
15.7819572348
 20
21.9818338659
 30
0.0
 10
16.0277100047
 20
21.6911467686
 30
0.0
 10
16.2538402931
 20
21.3849129612
 30
0.0
 10
16.5280027834
 20
20.9579815807
 30
0.0
 10
16.8178445492
 20
20.392285002
 30
0.0
 10
17.0316866756
 20
19.7937214416
 30
0.0
 10
17.1549108837
 20
19.3014935452
 30
0.0
 10
17.2457345284
 20
18.8023618818
 30
0.0
 10
17.2770790318
 20
18.42195394
 30
0.0
 10
17.2812475857
 20
18.1685654972
 30
0.0
  0
SPLINE
  5
239
100
AcDbEntity
  8
0
100
AcDbSpline
 62
7
  6
BYLAYER
 70
0
 71
3
 72
20
 73
16
 74
0
 42
0.0000001
 43
0.0000001
 44
0.0000000001
 40
0.0
 40
0.0
 40
0.0
 40
0.0
 40
0.1249239761
 40
0.1874674924
 40
0.2499846057
 40
0.3124970134
 40
0.375020575
 40
0.4375453863
 40
0.5000634127
 40
0.5625811275
 40
0.625099936
 40
0.6876147207
 40
0.7501226405
 40
0.8750720664
 40
1.0
 40
1.0
 40
1.0
 40
1.0
 10
17.2812475857
 20
18.1685654972
 30
0.0
 10
17.2866703028
 20
17.8389418708
 30
0.0
 10
17.2524845112
 20
17.342323806
 30
0.0
 10
17.1256711191
 20
16.6944260679
 30
0.0
 10
16.990317604
 20
16.2176373851
 30
0.0
 10
16.8152976792
 20
15.7540533576
 30
0.0
 10
16.6017025265
 20
15.3068959363
 30
0.0
 10
16.3513901655
 20
14.8792013202
 30
0.0
 10
16.0661043139
 20
14.474021163
 30
0.0
 10
15.7482154983
 20
14.0939137922
 30
0.0
 10
15.3999896559
 20
13.7414140403
 30
0.0
 10
15.0238318572
 20
13.418879353
 30
0.0
 10
14.4885260693
 20
13.0322654482
 30
0.0
 10
13.7619050137
 20
12.634640936
 30
0.0
 10
13.1359031492
 20
12.4165514665
 30
0.0
 10
12.8166379238
 20
12.3343459755
 30
0.0
  0
SPLINE
  5
23A
100
AcDbEntity
  8
0
100
AcDbSpline
 62
7
  6
BYLAYER
 70
0
 71
3
 72
23
 73
19
 74
0
 42
0.0000001
 43
0.0000001
 44
0.0000000001
 40
0.0
 40
0.0
 40
0.0
 40
0.0
 40
0.0624804419
 40
0.1250066568
 40
0.1875094495
 40
0.2500068415
 40
0.3125088426
 40
0.375007441
 40
0.4375059692
 40
0.5000058409
 40
0.5625046255
 40
0.6250043675
 40
0.6875067832
 40
0.7500075188
 40
0.812500245
 40
0.8749992171
 40
0.9375211532
 40
1.0
 40
1.0
 40
1.0
 40
1.0
 10
20.2574720918
 20
16.1685654979
 30
0.0
 10
20.2608400874
 20
15.8768470231
 30
0.0
 10
20.2384820073
 20
15.2924550306
 30
0.0
 10
20.1186814369
 20
14.4237852065
 30
0.0
 10
19.9135009019
 20
13.5710650341
 30
0.0
 10
19.625478321
 20
12.7428114901
 30
0.0
 10
19.2574933042
 20
11.9468580644
 30
0.0
 10
18.812761229
 20
11.1910926568
 30
0.0
 10
18.2958767472
 20
10.482746631
 30
0.0
 10
17.7121493349
 20
9.8283994768
 30
0.0
 10
17.0671677047
 20
9.2343106065
 30
0.0
 10
16.3668609893
 20
8.7065535113
 30
0.0
 10
15.6183816861
 20
8.2496972139
 30
0.0
 10
14.8289455271
 20
7.8680123955
 30
0.0
 10
14.006026017
 20
7.5652570618
 30
0.0
 10
13.1573626927
 20
7.3442649514
 30
0.0
 10
12.2913692786
 20
7.2070246582
 30
0.0
 10
11.7076773204
 20
7.1718852535
 30
0.0
 10
11.4159657408
 20
7.1685654979
 30
0.0
  0
SPLINE
  5
23B
100
AcDbEntity
  8
0
100
AcDbSpline
 62
7
  6
BYLAYER
 70
0
 71
3
 72
39
 73
35
 74
0
 42
0.0000001
 43
0.0000001
 44
0.0000000001
 40
0.0
 40
0.0
 40
0.0
 40
0.0
 40
0.0312401096
 40
0.0625022345
 40
0.0937527153
 40
0.1250006832
 40
0.1562507815
 40
0.1875001121
 40
0.2187496943
 40
0.2499996063
 40
0.2812496888
 40
0.3125002659
 40
0.3437503928
 40
0.3750002009
 40
0.4062496985
 40
0.4374989635
 40
0.4687486912
 40
0.4999999672
 40
0.5312511522
 40
0.5625007408
 40
0.593750485
 40
0.6250007514
 40
0.6562502546
 40
0.6874993576
 40
0.7187500217
 40
0.7500008494
 40
0.7812502142
 40
0.812499086
 40
0.8437492782
 40
0.8749998241
 40
0.9062471277
 40
0.9374979024
 40
0.968760047
 40
1.0
 40
1.0
 40
1.0
 40
1.0
 10
2.8914466881
 20
16.1685654979
 30
0.0
 10
2.8880866932
 20
16.4525084471
 30
0.0
 10
2.9098584856
 20
17.0213339069
 30
0.0
 10
3.0272327899
 20
17.8667592866
 30
0.0
 10
3.2285627451
 20
18.6963710131
 30
0.0
 10
3.5112414928
 20
19.5017414666
 30
0.0
 10
3.8723560592
 20
20.2751327434
 30
0.0
 10
4.3086685612
 20
21.0087495339
 30
0.0
 10
4.8155736181
 20
21.6954731672
 30
0.0
 10
5.3879651799
 20
22.3286481453
 30
0.0
 10
6.0200990064
 20
22.9022052367
 30
0.0
 10
6.7058998777
 20
23.4103787084
 30
0.0
 10
7.4384835706
 20
23.8484055956
 30
0.0
 10
8.2106770495
 20
24.2120581119
 30
0.0
 10
9.014880593
 20
24.4979841018
 30
0.0
 10
9.8432917852
 20
24.7035198184
 30
0.0
 10
10.6879444014
 20
24.8263705592
 30
0.0
 10
11.5405707349
 20
24.8658917705
 30
0.0
 10
12.3929736042
 20
24.8218151211
 30
0.0
 10
13.2369574475
 20
24.6944713762
 30
0.0
 10
14.0643456682
 20
24.4848875456
 30
0.0
 10
14.8673642428
 20
24.1957113511
 30
0.0
 10
15.6384417109
 20
23.8297667232
 30
0.0
 10
16.3700067062
 20
23.3901112606
 30
0.0
 10
17.0552949554
 20
22.8813303743
 30
0.0
 10
17.6879615142
 20
22.3084380383
 30
0.0
 10
18.2620756803
 20
21.6768912927
 30
0.0
 10
18.7719701121
 20
20.9924549152
 30
0.0
 10
19.2131894911
 20
20.2618622054
 30
0.0
 10
19.5816856126
 20
19.4920370428
 30
0.0
 10
19.8740239554
 20
18.6901936752
 30
0.0
 10
20.0875538591
 20
17.8637303636
 30
0.0
 10
20.2201649701
 20
17.0206521448
 30
0.0
 10
20.254193873
 20
16.4525079791
 30
0.0
 10
20.2574720918
 20
16.1685654979
 30
0.0
  0
SPLINE
  5
23C
100
AcDbEntity
  8
0
100
AcDbSpline
 62
7
  6
BYLAYER
 70
0
 71
3
 72
21
 73
17
 74
0
 42
0.0000001
 43
0.0000001
 44
0.0000000001
 40
0.0
 40
0.0
 40
0.0
 40
0.0
 40
0.1249190444
 40
0.187444962
 40
0.2499556863
 40
0.3124648703
 40
0.3749779401
 40
0.4374913026
 40
0.5000027287
 40
0.5625129999
 40
0.6250238998
 40
0.6875349028
 40
0.7500408818
 40
0.8125492525
 40
0.8750771928
 40
1.0
 40
1.0
 40
1.0
 40
1.0
 10
8.8211814075
 20
8.1826404725
 30
0.0
 10
8.3986896329
 20
8.3144052195
 30
0.0
 10
7.7786932943
 20
8.5622727105
 30
0.0
 10
7.0007749962
 20
8.9867233105
 30
0.0
 10
6.4439424239
 20
9.3506095012
 30
0.0
 10
5.9176339668
 20
9.7571896657
 30
0.0
 10
5.4248927998
 20
10.2038956187
 30
0.0
 10
4.9686742656
 20
10.6878489948
 30
0.0
 10
4.5519249984
 20
11.2061664233
 30
0.0
 10
4.1770678678
 20
11.7555353134
 30
0.0
 10
3.8466434238
 20
12.3327181916
 30
0.0
 10
3.5623909282
 20
12.9339639336
 30
0.0
 10
3.325977448
 20
13.5555472439
 30
0.0
 10
3.1387677574
 20
14.1938180209
 30
0.0
 10
2.9565697738
 20
15.0610471435
 30
0.0
 10
2.8966834696
 20
15.7260210098
 30
0.0
 10
2.8914466881
 20
16.1685654979
 30
0.0
  0
SPLINE
  5
23D
100
AcDbEntity
  8
0
100
AcDbSpline
 62
7
  6
BYLAYER
 70
0
 71
3
 72
15
 73
11
 74
0
 42
0.0000001
 43
0.0000001
 44
0.0000000001
 40
0.0
 40
0.0
 40
0.0
 40
0.0
 40
0.1249651513
 40
0.2500023289
 40
0.3749887591
 40
0.4999873271
 40
0.624981462
 40
0.7499762797
 40
0.8750302214
 40
1.0
 40
1.0
 40
1.0
 40
1.0
 10
7.9684591456
 20
13.9362456943
 30
0.0
 10
7.8086011632
 20
14.0618463402
 30
0.0
 10
7.5027833181
 20
14.3315036727
 30
0.0
 10
7.0920519833
 20
14.7841680234
 30
0.0
 10
6.7337086714
 20
15.2794903019
 30
0.0
 10
6.4319822499
 20
15.8110892516
 30
0.0
 10
6.1905693844
 20
16.3726893586
 30
0.0
 10
6.0128613368
 20
16.9576964704
 30
0.0
 10
5.9008454797
 20
17.5586216659
 30
0.0
 10
5.871031864
 20
17.965287756
 30
0.0
 10
5.8676677907
 20
18.1685654986
 30
0.0
  0
SPLINE
  5
23E
100
AcDbEntity
  8
0
100
AcDbSpline
 62
7
  6
BYLAYER
 70
0
 71
3
 72
15
 73
11
 74
0
 42
0.0000001
 43
0.0000001
 44
0.0000000001
 40
0.0
 40
0.0
 40
0.0
 40
0.0
 40
0.1249964935
 40
0.2499859501
 40
0.3749813542
 40
0.4999801377
 40
0.6249820907
 40
0.7499822794
 40
0.8749887092
 40
1.0
 40
1.0
 40
1.0
 40
1.0
 10
5.8676677907
 20
18.1685654986
 30
0.0
 10
5.8615832886
 20
18.5362280738
 30
0.0
 10
5.9242178892
 20
19.2746407307
 30
0.0
 10
6.2293212268
 20
20.3415948784
 30
0.0
 10
6.738104075
 20
21.3287969093
 30
0.0
 10
7.4332672525
 20
22.1947295626
 30
0.0
 10
8.2835529053
 20
22.9083794274
 30
0.0
 10
9.255156546
 20
23.4455494817
 30
0.0
 10
10.3120659203
 20
23.7843986728
 30
0.0
 10
11.0482578111
 20
23.8694673164
 30
0.0
 10
11.4159657409
 20
23.8754409259
 30
0.0
  0
SPLINE
  5
23F
100
AcDbEntity
  8
0
100
AcDbSpline
 62
7
  6
BYLAYER
 70
0
 71
3
 72
13
 73
9
 74
0
 42
0.0000001
 43
0.0000001
 44
0.0000000001
 40
0.0
 40
0.0
 40
0.0
 40
0.0
 40
0.2499070609
 40
0.3749916712
 40
0.5000193581
 40
0.6250362509
 40
0.750100603
 40
1.0
 40
1.0
 40
1.0
 40
1.0
 10
11.4159657409
 20
23.8754631612
 30
0.0
 10
11.6658750083
 20
23.8795230693
 30
0.0
 10
12.0418583846
 20
23.860244074
 30
0.0
 10
12.5367058153
 20
23.7865308079
 30
0.0
 10
12.9037709737
 20
23.7075875914
 30
0.0
 10
13.2649650063
 20
23.6051367288
 30
0.0
 10
13.7363573133
 20
23.4375757756
 30
0.0
 10
14.0770571668
 20
23.2774947029
 30
0.0
 10
14.2957703411
 20
23.1565325575
 30
0.0
  0
SPLINE
  5
240
100
AcDbEntity
  8
0
100
AcDbSpline
 62
7
  6
BYLAYER
 70
0
 71
3
 72
13
 73
9
 74
0
 42
0.0000001
 43
0.0000001
 44
0.0000000001
 40
0.0
 40
0.0
 40
0.0
 40
0.0
 40
0.1250451818
 40
0.2501014192
 40
0.3751401951
 40
0.5001794215
 40
0.7500943557
 40
1.0
 40
1.0
 40
1.0
 40
1.0
 10
11.4159657409
 20
12.7633628287
 30
0.0
 10
11.541025053
 20
12.7650986739
 30
0.0
 10
11.7911111848
 20
12.7771023209
 30
0.0
 10
12.164159786
 20
12.8197264447
 30
0.0
 10
12.5335321911
 20
12.8873993814
 30
0.0
 10
13.0184509275
 20
13.0109899299
 30
0.0
 10
13.6071215512
 20
13.227024155
 30
0.0
 10
14.0496931822
 20
13.4633708668
 30
0.0
 10
14.2618132919
 20
13.5955980964
 30
0.0
  0
SPLINE
  5
241
100
AcDbEntity
  8
0
100
AcDbSpline
 62
7
  6
BYLAYER
 70
0
 71
3
 72
11
 73
7
 74
0
 42
0.0000001
 43
0.0000001
 44
0.0000000001
 40
0.0
 40
0.0
 40
0.0
 40
0.0
 40
0.2500127674
 40
0.5000205971
 40
0.7500168998
 40
1.0
 40
1.0
 40
1.0
 40
1.0
 10
11.4159657409
 20
12.7632134081
 30
0.0
 10
11.1070410563
 20
12.7595988567
 30
0.0
 10
10.4873401583
 20
12.8062177739
 30
0.0
 10
9.5839625433
 20
13.0315769104
 30
0.0
 10
8.7313162708
 20
13.4053353353
 30
0.0
 10
8.2116405618
 20
13.7457524561
 30
0.0
 10
7.9684591456
 20
13.9362456943
 30
0.0
  0
SPLINE
  5
242
100
AcDbEntity
  8
0
100
AcDbSpline
 62
7
  6
BYLAYER
 70
0
 71
3
 72
12
 73
8
 74
0
 42
0.0000001
 43
0.0000001
 44
0.0000000001
 40
0.0
 40
0.0
 40
0.0
 40
0.0
 40
0.2499381857
 40
0.499956389
 40
0.6250006339
 40
0.7500802118
 40
1.0
 40
1.0
 40
1.0
 40
1.0
 10
8.2809743524
 20
13.052724512
 30
0.0
 10
8.5198464874
 20
12.9258881932
 30
0.0
 10
9.0158426132
 20
12.7049889445
 30
0.0
 10
9.6674378414
 20
12.5158339889
 30
0.0
 10
10.2003978928
 20
12.4194001768
 30
0.0
 10
10.7386045663
 20
12.3605392815
 30
0.0
 10
11.1460654462
 20
12.3585526224
 30
0.0
 10
11.4159657409
 20
12.375594085
 30
0.0
  0
SPLINE
  5
243
100
AcDbEntity
  8
0
100
AcDbSpline
 62
7
  6
BYLAYER
 70
0
 71
3
 72
11
 73
7
 74
0
 42
0.0000001
 43
0.0000001
 44
0.0000000001
 40
0.0
 40
0.0
 40
0.0
 40
0.0
 40
0.2499877114
 40
0.5000325319
 40
0.7500164042
 40
1.0
 40
1.0
 40
1.0
 40
1.0
 10
11.4159657409
 20
12.3755940454
 30
0.0
 10
11.6829058691
 20
12.3924486036
 30
0.0
 10
12.2151409166
 20
12.464670886
 30
0.0
 10
12.9899115459
 20
12.6832101676
 30
0.0
 10
13.7263260435
 20
13.0085257968
 30
0.0
 10
14.181731242
 20
13.2932942529
 30
0.0
 10
14.3976788619
 20
13.4511086315
 30
0.0
  0
SPLINE
  5
244
100
AcDbEntity
  8
0
100
AcDbSpline
 62
7
  6
BYLAYER
 70
0
 71
3
 72
9
 73
5
 74
0
 42
0.0000001
 43
0.0000001
 44
0.0000000001
 40
0.0
 40
0.0
 40
0.0
 40
0.0
 40
0.5000646785
 40
1.0
 40
1.0
 40
1.0
 40
1.0
 10
14.3976788619
 20
13.4511086315
 30
0.0
 10
14.6384903483
 20
13.6270935073
 30
0.0
 10
15.0924555478
 20
14.0183526861
 30
0.0
 10
15.4775977184
 20
14.4778388235
 30
0.0
 10
15.6489804077
 20
14.7218527644
 30
0.0
  0
SPLINE
  5
245
100
AcDbEntity
  8
0
100
AcDbSpline
 62
7
  6
BYLAYER
 70
0
 71
3
 72
55
 73
51
 74
0
 42
0.0000001
 43
0.0000001
 44
0.0000000001
 40
0.0
 40
0.0
 40
0.0
 40
0.0
 40
0.125280009
 40
0.1879239695
 40
0.2505673943
 40
0.3132101888
 40
0.3758521428
 40
0.4384928586
 40
0.5011321299
 40
0.5637692506
 40
0.5950872894
 40
0.6264043173
 40
0.6577200456
 40
0.6890343279
 40
0.720346509
 40
0.7516548951
 40
0.7829600269
 40
0.8142634701
 40
0.8455598825
 40
0.8612017544
 40
0.8768339894
 40
0.8846428426
 40
0.8924412172
 40
0.8963324061
 40
0.9002143421
 40
0.902147412
 40
0.9031058092
 40
0.9040574367
 40
0.9050063261
 40
0.9059695088
 40
0.9069624585
 40
0.907853765
 40
0.9085061272
 40
0.909129817
 40
0.9100368647
 40
0.9111159117
 40
0.9121700826
 40
0.9131301521
 40
0.914935314
 40
0.9168133968
 40
0.9187528962
 40
0.92259405
 40
0.9264440105
 40
0.9303060249
 40
0.938039619
 40
0.9457849098
 40
0.9535362054
 40
0.9690445059
 40
0.9845435147
 40
1.0
 40
1.0
 40
1.0
 40
1.0
 10
14.2618132919
 20
13.5955980964
 30
0.0
 10
14.3390697006
 20
13.6437566651
 30
0.0
 10
14.4532192929
 20
13.7188398803
 30
0.0
 10
14.6016443858
 20
13.8243258753
 30
0.0
 10
14.7110430007
 20
13.9060903372
 30
0.0
 10
14.8184446625
 20
13.990455722
 30
0.0
 10
14.923825776
 20
14.0773280292
 30
0.0
 10
15.0271763815
 20
14.1666029173
 30
0.0
 10
15.1283924532
 20
14.2582844291
 30
0.0
 10
15.2110059109
 20
14.3365541208
 30
0.0
 10
15.2760158658
 20
14.4002781647
 30
0.0
 10
15.3242567513
 20
14.4485893317
 30
0.0
 10
15.3719911702
 20
14.4973970446
 30
0.0
 10
15.4192048763
 20
14.5467038866
 30
0.0
 10
15.4659112649
 20
14.5964836515
 30
0.0
 10
15.5122404007
 20
14.6466052111
 30
0.0
 10
15.5581130092
 20
14.6971377062
 30
0.0
 10
15.6033430192
 20
14.7482341901
 30
0.0
 10
15.6407382479
 20
14.7910618397
 30
0.0
 10
15.6706480235
 20
14.8253072968
 30
0.0
 10
15.6894165976
 20
14.8466228606
 30
0.0
 10
15.7045819426
 20
14.8635149684
 30
0.0
 10
15.7141847761
 20
14.8739350475
 30
0.0
 10
15.7219845995
 20
14.8821318794
 30
0.0
 10
15.7269573071
 20
14.8871383724
 30
0.0
 10
15.7306008148
 20
14.8904486776
 30
0.0
 10
15.7326123563
 20
14.8923862621
 30
0.0
 10
15.7340822408
 20
14.8938541594
 30
0.0
 10
15.735646488
 20
14.8952322417
 30
0.0
 10
15.7374064279
 20
14.8964100771
 30
0.0
 10
15.739348646
 20
14.8972052755
 30
0.0
 10
15.7411041473
 20
14.8976027711
 30
0.0
 10
15.7428973902
 20
14.8973220468
 30
0.0
 10
15.743272767
 20
14.8955330185
 30
0.0
 10
15.7427760138
 20
14.8937327216
 30
0.0
 10
15.7420661
 20
14.8916286706
 30
0.0
 10
15.741277251
 20
14.889526758
 30
0.0
 10
15.7403505792
 20
14.8869097994
 30
0.0
 10
15.7391886656
 20
14.8837411513
 30
0.0
 10
15.7375517434
 20
14.8799953008
 30
0.0
 10
15.7351784366
 20
14.8749615458
 30
0.0
 10
15.7321351486
 20
14.8686589873
 30
0.0
 10
15.7283140107
 20
14.8611831085
 30
0.0
 10
15.7230779762
 20
14.8512552669
 30
0.0
 10
15.7163450508
 20
14.8389177304
 30
0.0
 10
15.7080774743
 20
14.8241999643
 30
0.0
 10
15.6968797953
 20
14.8046490703
 30
0.0
 10
15.6826885698
 20
14.7803205982
 30
0.0
 10
15.6655638032
 20
14.7512214875
 30
0.0
 10
15.6544497761
 20
14.7316629073
 30
0.0
 10
15.6489804077
 20
14.7218527644
 30
0.0
  0
SPLINE
  5
246
100
AcDbEntity
  8
0
100
AcDbSpline
 62
7
  6
BYLAYER
 70
0
 71
3
 72
13
 73
9
 74
0
 42
0.0000001
 43
0.0000001
 44
0.0000000001
 40
0.0
 40
0.0
 40
0.0
 40
0.0
 40
0.2499284388
 40
0.374981154
 40
0.4999964926
 40
0.6250190856
 40
0.7500860041
 40
1.0
 40
1.0
 40
1.0
 40
1.0
 10
5.051359743
 20
9.8052494998
 30
0.0
 10
5.3090241913
 20
9.5682219833
 30
0.0
 10
5.716863747
 20
9.2346734137
 30
0.0
 10
6.296280947
 20
8.8406738444
 30
0.0
 10
6.7478252577
 20
8.5713579488
 30
0.0
 10
7.214455656
 20
8.3290826096
 30
0.0
 10
7.8541305481
 20
8.0431508073
 30
0.0
 10
8.3522941171
 20
7.8713872805
 30
0.0
 10
8.6896154086
 20
7.7777219638
 30
0.0
  0
ENDSEC
  0
SECTION
  2
OBJECTS
  0
DICTIONARY
  5
C
100
AcDbDictionary
280
0
281
1
  3
ACAD_GROUP
350
D
  3
ACAD_MLINESTYLE
350
17
  3
ACAD_LAYOUT
350
1A
  3
ACAD_PLOTSETTINGS
350
19
  3
ACAD_PLOTSTYLENAME
350
E
  0
DICTIONARY
  5
D
102
{ACAD_REACTORS
330
C
102
}
100
AcDbDictionary
280
0
281
1
  0
ACDBDICTIONARYWDFLT
  5
E
102
{ACAD_REACTORS
330
C
102
}
100
AcDbDictionary
281
1
  3
Normal
350
F
100
AcDbDictionaryWithDefault
340
F
  0
DICTIONARY
  5
17
102
{ACAD_REACTORS
330
C
102
}
100
AcDbDictionary
280
0
281
1
  3
Standard
350
18
  0
DICTIONARY
  5
19
102
{ACAD_REACTORS
330
C
102
}
100
AcDbDictionary
281
1
  0
DICTIONARY
  5
1A
102
{ACAD_REACTORS
330
C
102
}
100
AcDbDictionary
281
1
  3
Model
350
247
  3
Layout1
350
248
  0
ACDBPLACEHOLDER
  5
F
102
{ACAD_REACTORS
330
E
102
}
  0
MLINESTYLE
  5
18
102
{ACAD_REACTORS
330
17
102
}
100
AcDbMlineStyle
  2
STANDARD
 70
0
  3

 62
256
 51
90.0
 52
90.0
 71
2
 49
0.5
 62
256
  6
BYLAYER
 49
-0.5
 62
256
  6
BYLAYER
  0
LAYOUT
  5
247
102
{ACAD_REACTORS
330
1A
102
}
100
AcDbPlotSettings
  1

  2
none_device
  4

  6

 40
0.0
 41
0.0
 42
0.0
 43
0.0
 44
210.0
 45
297.0
 46
0.0
 47
0.0
 48
0.0
 49
0.0
140
0.0
141
0.0
142
1.0
143
1.0
 70
1024
 72
1
 73
0
 74
0
  7

 75
0
147
1.0
148
0.0
149
0.0
100
AcDbLayout
  1
Model
 70
0
 71
0
 10
0.0
 20
0.0
 11
210.0
 21
297.0
 12
0.0
 22
0.0
 32
0.0
 14
0.0
 24
0.0
 34
0.0
 15
0.0
 25
0.0
 35
0.0
146
0.0
 13
0.0
 23
0.0
 33
0.0
 16
1.0
 26
0.0
 36
0.0
 17
0.0
 27
1.0
 37
0.0
 76
0
330
210
345
0
346
0
  0
LAYOUT
  5
248
102
{ACAD_REACTORS
330
1A
102
}
100
AcDbPlotSettings
  1

  2
none_device
  4

  6

 40
0.0
 41
0.0
 42
0.0
 43
0.0
 44
210.0
 45
297.0
 46
0.0
 47
0.0
 48
0.0
 49
0.0
140
0.0
141
0.0
142
1.0
143
1.0
 70
0
 72
1
 73
0
 74
0
  7

 75
0
147
1.0
148
0.0
149
0.0
100
AcDbLayout
  1
Layout1
 70
0
 71
1
 10
0.0
 20
0.0
 11
210.0
 21
297.0
 12
0.0
 22
0.0
 32
0.0
 14
0.0
 24
0.0
 34
0.0
 15
0.0
 25
0.0
 35
0.0
146
0.0
 13
0.0
 23
0.0
 33
0.0
 16
1.0
 26
0.0
 36
0.0
 17
0.0
 27
1.0
 37
0.0
 76
0
330
211
345
0
346
0
  0
ENDSEC
  0
EOF
