999
DXF file: C:\Users\sesa63760\Dev\_Creo\CAD\MCADID0003086_3D-CAD\drw0001_1.dxf
999
Pro/ENGINEER 2019471 by Parametric Technology Corporation
  0
SECTION
  2
HEADER
  9
$ACADVER
  1
AC1024
  9
$DWGCODEPAGE
  3
ANSI_1252
  9
$EXTMAX
 10
155.0681995523
 20
219.3107393668
 30
0.0
  9
$EXTMIN
 10
0.0
 20
0.0
 30
0.0
  9
$LIMMIN
 10
0.0
 20
0.0
  9
$LIMMAX
 10
155.0681995523
 20
219.3107393668
  9
$VIEWCTR
 10
77.5340997761
 20
109.6553696834
  9
$VIEWSIZE
 40
219.3107393668
  9
$CLAYER
  8
0
  9
$LTSCALE
 40
14.2958111587
  9
$CELTYPE
  6
BYLAYER
  9
$DIMSCALE
 40
1.0
  9
$DIMASZ
 40
1.8460499947
  9
$DIMEXO
 40
1.0
  9
$DIMDLI
 40
9.8771058915
  9
$DIMEXE
 40
1.0
  9
$DIMCEN
 40
2.3393145532
  9
$DIMLFAC
 40
1.0
  9
$DIMBLK
  1
_FILLED
  9
$DIMALT
 70
0
  9
$DIMALTF
 40
0.0393700787
  9
$DIMTXT
 40
2.5844699925
  9
$DIMTOL
 70
1
  9
$DIMLIM
 70
0
  9
$DIMTFAC
 40
1.0
  9
$DIMTP
 40
0.01
  9
$DIMTM
 40
0.01
  9
$DIMGAP
 40
0.625
  9
$DIMDSEP
 70
46
  9
$AUNITS
 70
0
  9
$PDMODE
 70
3
  9
$PDSIZE
 40
0.3125
  9
$HANDSEED
  5
2B1
  9
$TILEMODE
 70
1
  9
$MEASUREMENT
 70
1
  9
$INSUNITS
 70
4
  0
ENDSEC
  0
SECTION
  2
CLASSES
  0
CLASS
  1
ACDBDICTIONARYWDFLT
  2
AcDbDictionaryWithDefault
  3
AutoCAD 2000
 90
0
 91
1
280
0
281
0
  0
CLASS
  1
ACDBPLACEHOLDER
  2
AcDbPlaceHolder
  3
AutoCAD 2000
 90
0
 91
1
280
0
281
0
  0
CLASS
  1
LAYOUT
  2
AcDbLayout
  3
AutoCAD 2000
 90
0
 91
0
280
0
281
0
  0
ENDSEC
  0
SECTION
  2
TABLES
  0
TABLE
  2
VPORT
  5
8
100
AcDbSymbolTable
 70
2
  0
VPORT
  5
1F4
100
AcDbSymbolTableRecord
100
AcDbViewportTableRecord
  2
*ACTIVE
 70
0
 10
0.0
 20
0.0
 11
1.0
 21
1.0
 12
77.5340997761
 22
109.6553696834
 13
0.0
 23
0.0
 14
1.0
 24
1.0
 15
0.0
 25
0.0
 16
0.0
 26
0.0
 36
1.0
 17
0.0
 27
0.0
 37
0.0
 40
219.3107393668
 41
0.7070707071
 42
50.0
 43
0.0
 44
0.0
 50
0.0
 51
0.0
 71
0
 72
100
 73
1
 74
1
 75
0
 76
0
 77
0
 78
0
  0
ENDTAB
  0
TABLE
  2
LTYPE
  5
5
100
AcDbSymbolTable
 70
6
  0
LTYPE
  5
14
100
AcDbSymbolTableRecord
100
AcDbLinetypeTableRecord
  2
BYBLOCK
 70
0
  3

 72
65
 73
0
 40
0.0
  0
LTYPE
  5
15
100
AcDbSymbolTableRecord
100
AcDbLinetypeTableRecord
  2
BYLAYER
 70
0
  3

 72
65
 73
0
 40
0.0
  0
LTYPE
  5
16
100
AcDbSymbolTableRecord
100
AcDbLinetypeTableRecord
  2
CONTINUOUS
 70
64
  3
Solid line
 72
65
 73
0
 40
0.0
  0
LTYPE
  5
1F5
100
AcDbSymbolTableRecord
100
AcDbLinetypeTableRecord
  2
CENTER
 70
64
  3
____ _ ____ _ ____ _ ____ _ ____ _ ____ _ ____
 72
65
 73
4
 40
0.6
 49
0.375
 74
0
 49
-0.075
 74
0
 49
0.075
 74
0
 49
-0.075
 74
0
  0
LTYPE
  5
1F6
100
AcDbSymbolTableRecord
100
AcDbLinetypeTableRecord
  2
HIDDEN
 70
64
  3
- - - - - - - - - - - - - - - - - - - -
 72
65
 73
2
 40
0.2
 49
0.1
 74
0
 49
-0.1
 74
0
  0
LTYPE
  5
1F7
100
AcDbSymbolTableRecord
100
AcDbLinetypeTableRecord
  2
PHANTOM
 70
64
  3
_____ _ _ _____ _ _ _____ _ _ _____
 72
65
 73
6
 40
0.8
 49
0.45
 74
0
 49
-0.05
 74
0
 49
0.1
 74
0
 49
-0.05
 74
0
 49
0.1
 74
0
 49
-0.05
 74
0
  0
LTYPE
  5
1F8
100
AcDbSymbolTableRecord
100
AcDbLinetypeTableRecord
  2
DOT
 70
64
  3
. . . . . . . . . . . . . . . . . . . .
 72
65
 73
2
 40
0.2
 49
0.1
 74
0
 49
-0.1
 74
0
  0
LTYPE
  5
1F9
100
AcDbSymbolTableRecord
100
AcDbLinetypeTableRecord
  2
DASHED
 70
64
  3
- - - - - - - - - - - - - - - - - - - -
 72
65
 73
2
 40
0.2
 49
0.1
 74
0
 49
-0.1
 74
0
  0
ENDTAB
  0
TABLE
  2
LAYER
  5
2
100
AcDbSymbolTable
 70
36
  0
LAYER
  5
10
100
AcDbSymbolTableRecord
100
AcDbLayerTableRecord
  2
0
 70
0
 62
7
  6
CONTINUOUS
370
-3
390
F
  0
LAYER
  5
1FA
100
AcDbSymbolTableRecord
100
AcDbLayerTableRecord
  2
DEFAULT_1
 70
0
 62
7
  6
CENTER
370
-3
390
F
  0
LAYER
  5
1FB
100
AcDbSymbolTableRecord
100
AcDbLayerTableRecord
  2
DEFAULT_2
 70
0
 62
7
  6
HIDDEN
370
-3
390
F
  0
LAYER
  5
1FC
100
AcDbSymbolTableRecord
100
AcDbLayerTableRecord
  2
DEFAULT_3
 70
0
 62
7
  6
PHANTOM
370
-3
390
F
  0
LAYER
  5
1FD
100
AcDbSymbolTableRecord
100
AcDbLayerTableRecord
  2
00_COMPONENTS
 70
0
 62
7
  6
CONTINUOUS
370
-3
390
F
  0
LAYER
  5
1FE
100
AcDbSymbolTableRecord
100
AcDbLayerTableRecord
  2
01_1_DEFAULT_DATUMS
 70
0
 62
7
  6
CONTINUOUS
370
-3
390
F
  0
LAYER
  5
1FF
100
AcDbSymbolTableRecord
100
AcDbLayerTableRecord
  2
01_PLANES
 70
0
 62
7
  6
CONTINUOUS
370
-3
390
F
  0
LAYER
  5
200
100
AcDbSymbolTableRecord
100
AcDbLayerTableRecord
  2
02_COORD_SYS
 70
0
 62
7
  6
CONTINUOUS
370
-3
390
F
  0
LAYER
  5
201
100
AcDbSymbolTableRecord
100
AcDbLayerTableRecord
  2
03_AXES
 70
0
 62
7
  6
CONTINUOUS
370
-3
390
F
  0
LAYER
  5
202
100
AcDbSymbolTableRecord
100
AcDbLayerTableRecord
  2
04_POINTS
 70
0
 62
7
  6
CONTINUOUS
370
-3
390
F
  0
LAYER
  5
203
100
AcDbSymbolTableRecord
100
AcDbLayerTableRecord
  2
05_CURVES
 70
0
 62
7
  6
CONTINUOUS
370
-3
390
F
  0
LAYER
  5
204
100
AcDbSymbolTableRecord
100
AcDbLayerTableRecord
  2
06_SURFS
 70
0
 62
7
  6
CONTINUOUS
370
-3
390
F
  0
LAYER
  5
205
100
AcDbSymbolTableRecord
100
AcDbLayerTableRecord
  2
07_COSMETICS
 70
0
 62
7
  6
CONTINUOUS
370
-3
390
F
  0
LAYER
  5
206
100
AcDbSymbolTableRecord
100
AcDbLayerTableRecord
  2
10_NOTES
 70
0
 62
7
  6
CONTINUOUS
370
-3
390
F
  0
LAYER
  5
207
100
AcDbSymbolTableRecord
100
AcDbLayerTableRecord
  2
11_NOTES_PUB
 70
0
 62
7
  6
CONTINUOUS
370
-3
390
F
  0
LAYER
  5
208
100
AcDbSymbolTableRecord
100
AcDbLayerTableRecord
  2
13_REF_GTOL
 70
0
 62
7
  6
CONTINUOUS
370
-3
390
F
  0
LAYER
  5
209
100
AcDbSymbolTableRecord
100
AcDbLayerTableRecord
  2
16_MISC
 70
0
 62
7
  6
CONTINUOUS
370
-3
390
F
  0
LAYER
  5
20A
100
AcDbSymbolTableRecord
100
AcDbLayerTableRecord
  2
17_NO_PRINT
 70
0
 62
7
  6
CONTINUOUS
370
-3
390
F
  0
LAYER
  5
20B
100
AcDbSymbolTableRecord
100
AcDbLayerTableRecord
  2
18_DATUM_CAMS_JOINTS
 70
0
 62
7
  6
CONTINUOUS
370
-3
390
F
  0
LAYER
  5
20C
100
AcDbSymbolTableRecord
100
AcDbLayerTableRecord
  2
19_DATUM_FUNCTIONAL
 70
0
 62
7
  6
CONTINUOUS
370
-3
390
F
  0
LAYER
  5
20D
100
AcDbSymbolTableRecord
100
AcDbLayerTableRecord
  2
20_DATUM_KINEMATIC_SCHEME
 70
0
 62
7
  6
CONTINUOUS
370
-3
390
F
  0
ENDTAB
  0
TABLE
  2
STYLE
  5
3
100
AcDbSymbolTable
 70
1
  0
STYLE
  5
11
100
AcDbSymbolTableRecord
100
AcDbTextStyleTableRecord
  2
STANDARD
 70
0
 40
0.0
 41
1.0
 50
0.0
 71
0
 42
0.2
  3
ARIAL.TTF
  4

  0
STYLE
  5
20E
100
AcDbSymbolTableRecord
100
AcDbTextStyleTableRecord
  2
TEXTSTYLE_1
 70
0
 40
0.0
 41
0.8
 50
0.0
 71
0
 42
0.2
  3
gdt
  4

  0
ENDTAB
  0
TABLE
  2
VIEW
  5
6
100
AcDbSymbolTable
 70
0
  0
ENDTAB
  0
TABLE
  2
UCS
  5
7
100
AcDbSymbolTable
 70
0
  0
ENDTAB
  0
TABLE
  2
APPID
  5
9
100
AcDbSymbolTable
 70
1
  0
APPID
  5
20F
100
AcDbSymbolTableRecord
100
AcDbRegAppTableRecord
  2
ACAD
 70
0
  0
ENDTAB
  0
TABLE
  2
BLOCK_RECORD
  5
1
100
AcDbSymbolTable
 70
0
  0
BLOCK_RECORD
  5
210
100
AcDbSymbolTableRecord
100
AcDbBlockTableRecord
  2
*Model_Space
  0
BLOCK_RECORD
  5
211
100
AcDbSymbolTableRecord
100
AcDbBlockTableRecord
  2
*Paper_Space
  0
BLOCK_RECORD
  5
212
100
AcDbSymbolTableRecord
100
AcDbBlockTableRecord
  2
_FILLED
  0
ENDTAB
  0
TABLE
  2
DIMSTYLE
  5
A
100
AcDbSymbolTable
 70
1
100
AcDbDimStyleTable
 71
0
  0
DIMSTYLE
105
213
100
AcDbSymbolTableRecord
100
AcDbDimStyleTableRecord
  2
STANDARD
 70
0
  3

  4

 40
1.0
 41
1.8460499947
 42
1.0
 43
0.38
 44
1.0
 45
0.0
 46
0.0
 47
0.01
 48
0.01
140
2.5844699925
141
0.09
142
0.0
143
25.4
144
1.0
145
0.0
146
1.0
147
0.625
 71
1
 72
0
 73
0
 74
0
 75
0
 76
0
 77
1
 78
8
 79
2
170
0
171
1
172
0
173
0
174
0
175
0
176
0
177
0
178
0
270
2
179
2
271
2
272
2
273
2
274
2
275
0
280
0
281
0
282
0
283
1
284
8
285
0
286
0
287
3
288
0
340
11
278
46
341
212
342
212
343
212
344
212
  0
ENDTAB
  0
ENDSEC
  0
SECTION
  2
BLOCKS
  0
BLOCK
  5
20
100
AcDbEntity
  8
0
100
AcDbBlockBegin
  2
*Model_Space
 70
0
 10
0.0
 20
0.0
 30
0.0
  3
*Model_Space
  1

  0
ENDBLK
  5
21
100
AcDbEntity
  8
0
100
AcDbBlockEnd
  0
BLOCK
  5
1C
100
AcDbEntity
  8
0
100
AcDbBlockBegin
  2
*Paper_Space
 70
0
 10
0.0
 20
0.0
 30
0.0
  3
*Paper_Space
  1

  0
ENDBLK
  5
1D
100
AcDbEntity
  8
0
100
AcDbBlockEnd
  0
BLOCK
  5
214
100
AcDbEntity
  8
0
100
AcDbBlockBegin
  2
_FILLED
 70
64
 10
0.0
 20
0.0
  3
_FILLED
  1

  0
SOLID
  5
215
100
AcDbEntity
  8
0
  6
BYBLOCK
 62
0
100
AcDbTrace
 10
0.0
 20
0.0
 11
-1.0
 21
0.25
 12
-1.0
 22
-0.25
 13
-1.0
 23
-0.25
  0
ENDBLK
  5
216
100
AcDbEntity
  8
0
  6
BYBLOCK
 62
0
100
AcDbBlockEnd
  0
ENDSEC
  0
SECTION
  2
ENTITIES
  0
LINE
  5
217
100
AcDbEntity
  8
0
100
AcDbLine
 62
7
  6
BYLAYER
 10
17.9830570212
 20
114.0604850044
 11
17.9830570212
 21
116.1344011439
  0
LINE
  5
218
100
AcDbEntity
  8
0
100
AcDbLine
 62
7
  6
BYLAYER
 10
18.6480583121
 20
112.4271794757
 11
18.6480583121
 21
114.5010956152
  0
LINE
  5
219
100
AcDbEntity
  8
0
100
AcDbLine
 62
7
  6
BYLAYER
 10
51.2619924222
 20
57.7728632995
 11
48.4479820928
 21
58.7108443144
  0
LINE
  5
21A
100
AcDbEntity
  8
0
100
AcDbLine
 62
7
  6
BYLAYER
 10
26.8128406756
 20
78.0489489967
 11
26.8128406756
 21
102.9544773891
  0
LINE
  5
21B
100
AcDbEntity
  8
0
100
AcDbLine
 62
7
  6
BYLAYER
 10
28.1428432543
 20
103.4853373096
 11
28.1428432543
 21
101.4114211701
  0
LINE
  5
21C
100
AcDbEntity
  8
0
100
AcDbLine
 62
7
  6
BYLAYER
 10
73.1935923118
 20
56.6543983071
 11
53.8991510823
 21
64.4542851712
  0
LINE
  5
21D
100
AcDbEntity
  8
0
100
AcDbLine
 62
7
  6
BYLAYER
 10
53.8991510823
 20
64.4542851712
 11
52.892950039
 21
65.2839206136
  0
LINE
  5
21E
100
AcDbEntity
  8
0
100
AcDbLine
 62
7
  6
BYLAYER
 10
33.8549181421
 20
98.1136278021
 11
33.8549181421
 21
100.1875439416
  0
LINE
  5
21F
100
AcDbEntity
  8
0
100
AcDbLine
 62
7
  6
BYLAYER
 10
35.112950039
 20
69.0817294321
 11
35.112950039
 21
60.6072694657
  0
LINE
  5
220
100
AcDbEntity
  8
0
100
AcDbLine
 62
7
  6
BYLAYER
 10
73.1793006256
 20
60.7903780711
 11
53.8811906448
 21
68.5917480487
  0
LINE
  5
221
100
AcDbEntity
  8
0
100
AcDbLine
 62
7
  6
BYLAYER
 10
53.8811906448
 20
68.5917480487
 11
53.0836235409
 21
69.2493601049
  0
LINE
  5
222
100
AcDbEntity
  8
0
100
AcDbLine
 62
7
  6
BYLAYER
 10
28.1428432543
 20
101.4114211701
 11
18.6480583121
 21
112.4271794757
  0
LINE
  5
223
100
AcDbEntity
  8
0
100
AcDbLine
 62
7
  6
BYLAYER
 10
18.6480583121
 20
114.5010956152
 11
28.1428432543
 21
103.4853373096
  0
LINE
  5
224
100
AcDbEntity
  8
0
100
AcDbLine
 62
7
  6
BYLAYER
 10
43.6727259306
 20
71.1211971272
 11
43.6727259306
 21
95.2930211853
  0
LINE
  5
225
100
AcDbEntity
  8
0
100
AcDbLine
 62
7
  6
BYLAYER
 10
97.2554788598
 20
163.4206304645
 11
19.8429102666
 21
118.7267299351
  0
LINE
  5
226
100
AcDbEntity
  8
0
100
AcDbLine
 62
7
  6
BYLAYER
 10
48.4479820928
 20
56.1623436953
 11
48.4479820928
 21
66.9818424258
  0
LINE
  5
227
100
AcDbEntity
  8
0
100
AcDbLine
 62
7
  6
BYLAYER
 10
49.4981306425
 20
71.2278623068
 11
49.4981306425
 21
72.2871512386
  0
LINE
  5
228
100
AcDbEntity
  8
0
100
AcDbLine
 62
7
  6
BYLAYER
 10
51.7019343848
 20
68.2367590896
 11
51.7019343848
 21
58.041002713
  0
LINE
  5
229
100
AcDbEntity
  8
0
100
AcDbLine
 62
7
  6
BYLAYER
 10
77.5694260005
 20
77.9056179124
 11
43.6727259562
 21
71.1211971323
  0
LINE
  5
22A
100
AcDbEntity
  8
0
100
AcDbLine
 62
7
  6
BYLAYER
 10
72.0857072629
 20
80.1928704842
 11
67.8613084533
 21
82.6317730988
  0
LINE
  5
22B
100
AcDbEntity
  8
0
100
AcDbLine
 62
7
  6
BYLAYER
 10
71.0335766718
 20
82.518424112
 11
66.2987379678
 21
85.2520226701
  0
LINE
  5
22C
100
AcDbEntity
  8
0
100
AcDbLine
 62
7
  6
BYLAYER
 10
52.892950039
 20
69.0842056972
 11
52.892950039
 21
60.6072694657
  0
LINE
  5
22D
100
AcDbEntity
  8
0
100
AcDbLine
 62
7
  6
BYLAYER
 10
52.9351230388
 20
94.7058973928
 11
52.9351230388
 21
92.6319812533
  0
LINE
  5
22E
100
AcDbEntity
  8
0
100
AcDbLine
 62
7
  6
BYLAYER
 10
53.8811906448
 20
68.5917480487
 11
53.8811906448
 21
69.9401835352
  0
LINE
  5
22F
100
AcDbEntity
  8
0
100
AcDbLine
 62
7
  6
BYLAYER
 10
53.8991510823
 20
64.4542851712
 11
53.8991510823
 21
68.6021174502
  0
LINE
  5
230
100
AcDbEntity
  8
0
100
AcDbLine
 62
7
  6
BYLAYER
 10
55.432950039
 20
73.4311752395
 11
55.432950039
 21
73.0507663027
  0
LINE
  5
231
100
AcDbEntity
  8
0
100
AcDbLine
 62
7
  6
BYLAYER
 10
52.9351230388
 20
92.6319812533
 11
33.8549181421
 21
98.1136278021
  0
LINE
  5
232
100
AcDbEntity
  8
0
100
AcDbLine
 62
7
  6
BYLAYER
 10
33.8549181421
 20
100.1875439416
 11
52.9351230388
 21
94.7058973928
  0
LINE
  5
233
100
AcDbEntity
  8
0
100
AcDbLine
 62
7
  6
BYLAYER
 10
60.2542310587
 20
93.3218546748
 11
60.2542310587
 21
95.3957708143
  0
LINE
  5
234
100
AcDbEntity
  8
0
100
AcDbLine
 62
7
  6
BYLAYER
 10
66.2987379678
 20
96.8116315347
 11
66.2987379678
 21
85.2520226701
  0
LINE
  5
235
100
AcDbEntity
  8
0
100
AcDbLine
 62
7
  6
BYLAYER
 10
71.0335766718
 20
99.524536456
 11
71.0156157744
 21
99.5349059504
  0
LINE
  5
236
100
AcDbEntity
  8
0
100
AcDbLine
 62
7
  6
BYLAYER
 10
71.0335766718
 20
99.524536456
 11
71.0335766718
 21
82.5184241303
  0
LINE
  5
237
100
AcDbEntity
  8
0
100
AcDbLine
 62
7
  6
BYLAYER
 10
73.1793006256
 20
77.0269348022
 11
73.1793006256
 21
60.7903780711
  0
LINE
  5
238
100
AcDbEntity
  8
0
100
AcDbLine
 62
7
  6
BYLAYER
 10
73.1935923118
 20
60.8022305861
 11
73.1935923118
 21
56.6543983071
  0
LINE
  5
239
100
AcDbEntity
  8
0
100
AcDbLine
 62
7
  6
BYLAYER
 10
77.5694260005
 20
82.1440436778
 11
77.5694260005
 21
77.9056179124
  0
LINE
  5
23A
100
AcDbEntity
  8
0
100
AcDbLine
 62
7
  6
BYLAYER
 10
80.9118172777
 20
105.2277072856
 11
80.8938563803
 21
105.2380767799
  0
LINE
  5
23B
100
AcDbEntity
  8
0
100
AcDbLine
 62
7
  6
BYLAYER
 10
80.9118172777
 20
84.0737626626
 11
80.9118172777
 21
105.2277072856
  0
LINE
  5
23C
100
AcDbEntity
  8
0
100
AcDbLine
 62
7
  6
BYLAYER
 10
81.293398439
 20
57.0635462717
 11
81.293398439
 21
61.2113785508
  0
LINE
  5
23D
100
AcDbEntity
  8
0
100
AcDbLine
 62
7
  6
BYLAYER
 10
81.3116360947
 20
61.2011692003
 11
81.3116360947
 21
105.4792805707
  0
LINE
  5
23E
100
AcDbEntity
  8
0
100
AcDbLine
 62
7
  6
BYLAYER
 10
60.2542310587
 20
95.3957708143
 11
137.666799652
 21
140.0896713437
  0
LINE
  5
23F
100
AcDbEntity
  8
0
100
AcDbLine
 62
7
  6
BYLAYER
 10
137.666799652
 20
138.0157552042
 11
60.2542310587
 21
93.3218546748
  0
LINE
  5
240
100
AcDbEntity
  8
0
100
AcDbLine
 62
7
  6
BYLAYER
 10
124.7352846929
 20
130.5290469659
 11
118.2695272054
 21
126.7960624229
  0
LINE
  5
241
100
AcDbEntity
  8
0
100
AcDbLine
 62
7
  6
BYLAYER
 10
80.9118172777
 20
105.2277072856
 11
71.0335766718
 21
99.524536456
  0
LINE
  5
242
100
AcDbEntity
  8
0
100
AcDbLine
 62
7
  6
BYLAYER
 10
118.2695272054
 20
93.6134041908
 11
118.1797242703
 21
93.6652507666
  0
LINE
  5
243
100
AcDbEntity
  8
0
100
AcDbLine
 62
7
  6
BYLAYER
 10
74.6256641807
 20
80.4444721438
 11
80.9118172777
 21
84.0737626626
  0
LINE
  5
244
100
AcDbEntity
  8
0
100
AcDbLine
 62
7
  6
BYLAYER
 10
55.6891097968
 20
73.5262750344
 11
49.4981306644
 21
71.2278623149
  0
LINE
  5
245
100
AcDbEntity
  8
0
100
AcDbLine
 62
7
  6
BYLAYER
 10
48.4479820928
 20
56.1623436953
 11
48.1939802611
 21
56.0015562257
  0
LINE
  5
246
100
AcDbEntity
  8
0
100
AcDbLine
 62
7
  6
BYLAYER
 10
51.2619924222
 20
57.7728632995
 11
51.7019343848
 21
58.041002713
  0
LINE
  5
247
100
AcDbEntity
  8
0
100
AcDbLine
 62
7
  6
BYLAYER
 10
118.2695272054
 20
93.6134041908
 11
121.143197184
 21
95.272508423
  0
LINE
  5
248
100
AcDbEntity
  8
0
100
AcDbLine
 62
7
  6
BYLAYER
 10
118.2695272054
 20
126.7960624229
 11
118.251566308
 21
126.8064319173
  0
LINE
  5
249
100
AcDbEntity
  8
0
100
AcDbLine
 62
7
  6
BYLAYER
 10
118.1797242703
 20
126.7649541451
 11
118.1797242703
 21
93.6652507666
  0
LINE
  5
24A
100
AcDbEntity
  8
0
100
AcDbLine
 62
7
  6
BYLAYER
 10
118.2695272054
 20
126.7960624229
 11
118.2695272054
 21
93.6134041908
  0
LINE
  5
24B
100
AcDbEntity
  8
0
100
AcDbLine
 62
7
  6
BYLAYER
 10
120.1374118044
 20
83.6378462557
 11
120.1374118044
 21
79.4900139767
  0
LINE
  5
24C
100
AcDbEntity
  8
0
100
AcDbLine
 62
7
  6
BYLAYER
 10
120.1553723915
 20
94.7021909174
 11
120.1553723915
 21
83.6274769406
  0
LINE
  5
24D
100
AcDbEntity
  8
0
100
AcDbLine
 62
7
  6
BYLAYER
 10
121.9898256368
 20
82.0719734528
 11
121.9898256368
 21
85.9589819369
  0
LINE
  5
24E
100
AcDbEntity
  8
0
100
AcDbLine
 62
7
  6
BYLAYER
 10
122.0152256368
 20
86.2198057318
 11
122.0152256368
 21
95.9193526415
  0
LINE
  5
24F
100
AcDbEntity
  8
0
100
AcDbLine
 62
7
  6
BYLAYER
 10
120.1553723915
 20
83.6274769406
 11
81.3116360947
 21
61.2011692003
  0
LINE
  5
250
100
AcDbEntity
  8
0
100
AcDbLine
 62
7
  6
BYLAYER
 10
124.7352846929
 20
130.5290469659
 11
124.7173237955
 21
130.5394164603
  0
LINE
  5
251
100
AcDbEntity
  8
0
100
AcDbLine
 62
7
  6
BYLAYER
 10
124.7352846929
 20
101.4942210311
 11
124.7352846929
 21
130.5290469659
  0
LINE
  5
252
100
AcDbEntity
  8
0
100
AcDbLine
 62
7
  6
BYLAYER
 10
120.1374118044
 20
79.4900139767
 11
81.293398439
 21
57.0635462717
  0
LINE
  5
253
100
AcDbEntity
  8
0
100
AcDbLine
 62
7
  6
BYLAYER
 10
137.6667996678
 20
140.0896713528
 11
137.6667996678
 21
138.0157552133
  0
LINE
  5
254
100
AcDbEntity
  8
0
100
AcDbLine
 62
7
  6
BYLAYER
 10
137.6667622636
 20
145.2743505303
 11
106.2357350125
 21
163.4206520504
  0
LINE
  5
255
100
AcDbEntity
  8
0
100
AcDbLine
 62
7
  6
BYLAYER
 10
139.5266529095
 20
140.6080840045
 11
139.5266529095
 21
142.682000144
  0
ARC
  5
256
100
AcDbEntity
  8
0
100
AcDbCircle
 62
7
  6
BYLAYER
 10
38.9518965541
 20
115.8734253576
 40
18.4967683254
100
AcDbArc
 50
255.4866881028
 51
256.0389246016
  0
ARC
  5
257
100
AcDbEntity
  8
0
100
AcDbCircle
 62
7
  6
BYLAYER
 10
38.8292725617
 20
115.4080800839
 40
18.0155424232
100
AcDbArc
 50
253.869419964
 51
255.4933451253
  0
ARC
  5
258
100
AcDbEntity
  8
0
100
AcDbCircle
 62
7
  6
BYLAYER
 10
36.8566586423
 20
110.4383957481
 40
12.6586841799
100
AcDbArc
 50
240.0277242693
 51
244.4604358044
  0
ARC
  5
259
100
AcDbEntity
  8
0
100
AcDbCircle
 62
7
  6
BYLAYER
 10
36.5247907901
 20
109.8723238954
 40
11.9845498991
100
AcDbArc
 50
240.0006167878
 51
240.1461684723
  0
ARC
  5
25A
100
AcDbEntity
  8
0
100
AcDbCircle
 62
7
  6
BYLAYER
 10
44.6993807077
 20
67.410810858
 40
11.8566447975
100
AcDbArc
 50
287.1675053838
 51
288.4308793962
  0
ARC
  5
25B
100
AcDbEntity
  8
0
100
AcDbCircle
 62
7
  6
BYLAYER
 10
36.1648751175
 20
109.2438380764
 40
11.2782764465
100
AcDbArc
 50
236.6121873908
 51
240.0403801504
  0
ARC
  5
25C
100
AcDbEntity
  8
0
100
AcDbCircle
 62
7
  6
BYLAYER
 10
42.1730260792
 20
64.7103550551
 40
8.9245258357
100
AcDbArc
 50
240.0437156707
 51
243.5948039449
  0
ARC
  5
25D
100
AcDbEntity
  8
0
100
AcDbCircle
 62
7
  6
BYLAYER
 10
33.1476455169
 20
105.7128500487
 40
6.6127509871
100
AcDbArc
 50
217.1415631101
 51
220.2846559043
  0
ARC
  5
25E
100
AcDbEntity
  8
0
100
AcDbCircle
 62
7
  6
BYLAYER
 10
121.9523230104
 20
112.6549247562
 40
1.8009284798
100
AcDbArc
 50
110.123149775
 51
112.3692621885
  0
ARC
  5
25F
100
AcDbEntity
  8
0
100
AcDbCircle
 62
7
  6
BYLAYER
 10
74.7163724769
 20
85.3833987892
 40
1.8009284799
100
AcDbArc
 50
110.123149775
 51
112.3692621885
  0
SPLINE
  5
260
100
AcDbEntity
  8
0
100
AcDbSpline
 62
7
  6
BYLAYER
 70
0
 71
3
 72
11
 73
7
 74
0
 42
0.0000001
 43
0.0000001
 44
0.0000000001
 40
0.0
 40
0.0
 40
0.0
 40
0.0
 40
0.2324799321
 40
0.4726114989
 40
0.7270386813
 40
1.0
 40
1.0
 40
1.0
 40
1.0
 10
52.8928917116
 20
60.6072694666
 30
0.0
 10
52.8928807892
 20
60.3825362373
 30
0.0
 10
52.8400952017
 20
59.9240983748
 30
0.0
 10
52.6060355612
 20
59.2560227127
 30
0.0
 10
52.2236237085
 20
58.6152106904
 30
0.0
 10
51.8885160433
 20
58.2275834981
 30
0.0
 10
51.7019343848
 20
58.041002713
 30
0.0
  0
SPLINE
  5
261
100
AcDbEntity
  8
0
100
AcDbSpline
 62
7
  6
BYLAYER
 70
0
 71
3
 72
15
 73
11
 74
0
 42
0.0000001
 43
0.0000001
 44
0.0000000001
 40
0.0
 40
0.0
 40
0.0
 40
0.0
 40
0.1068071032
 40
0.2254336318
 40
0.3535011246
 40
0.4874905562
 40
0.6232809861
 40
0.7565389451
 40
0.8832669692
 40
1.0
 40
1.0
 40
1.0
 40
1.0
 10
135.8637687804
 20
141.677670578
 30
0.0
 10
135.720320513
 20
141.7977642134
 30
0.0
 10
135.3866067991
 20
142.0149793014
 30
0.0
 10
134.8133992373
 20
142.2554710148
 30
0.0
 10
134.1647748167
 20
142.4195653025
 30
0.0
 10
133.4706185381
 20
142.4996684515
 30
0.0
 10
132.7628732545
 20
142.4921410178
 30
0.0
 10
132.074110523
 20
142.3974443952
 30
0.0
 10
131.4365115436
 20
142.2197812333
 30
0.0
 10
131.0457928783
 20
142.0427749211
 30
0.0
 10
130.8687174812
 20
141.9405410032
 30
0.0
  0
SPLINE
  5
262
100
AcDbEntity
  8
0
100
AcDbSpline
 62
7
  6
BYLAYER
 70
0
 71
3
 72
11
 73
7
 74
0
 42
0.0000001
 43
0.0000001
 44
0.0000000001
 40
0.0
 40
0.0
 40
0.0
 40
0.0
 40
0.2177827477
 40
0.4509152641
 40
0.7103063952
 40
1.0
 40
1.0
 40
1.0
 40
1.0
 10
136.4405379062
 20
142.6820001813
 30
0.0
 10
136.4405209203
 20
142.5576842403
 30
0.0
 10
136.3946071683
 20
142.2985674974
 30
0.0
 10
136.1981606075
 20
141.937532958
 30
0.0
 10
135.8876250113
 20
141.611184705
 30
0.0
 10
135.6277984096
 20
141.4322250211
 30
0.0
 10
135.484588345
 20
141.3495431454
 30
0.0
  0
SPLINE
  5
263
100
AcDbEntity
  8
0
100
AcDbSpline
 62
7
  6
BYLAYER
 70
0
 71
3
 72
12
 73
8
 74
0
 42
0.0000001
 43
0.0000001
 44
0.0000000001
 40
0.0
 40
0.0
 40
0.0
 40
0.0
 40
0.2513781124
 40
0.5137281758
 40
0.7686976639
 40
0.888202395
 40
1.0
 40
1.0
 40
1.0
 40
1.0
 10
48.1939802611
 20
56.0015562257
 30
0.0
 10
47.3668597654
 20
55.7258506844
 30
0.0
 10
45.6079463167
 20
55.358025379
 30
0.0
 10
42.9293685227
 20
55.3094271422
 30
0.0
 10
40.7348691691
 20
55.6791914153
 30
0.0
 10
39.1363455807
 20
56.2261391956
 30
0.0
 10
38.4116837478
 20
56.5768008611
 30
0.0
 10
38.0758917871
 20
56.7706931185
 30
0.0
  0
SPLINE
  5
264
100
AcDbEntity
  8
0
100
AcDbSpline
 62
7
  6
BYLAYER
 70
0
 71
3
 72
15
 73
11
 74
0
 42
0.0000001
 43
0.0000001
 44
0.0000000001
 40
0.0
 40
0.0
 40
0.0
 40
0.0
 40
0.1068071032
 40
0.2254336318
 40
0.3535011246
 40
0.4874905562
 40
0.6232809861
 40
0.7565389451
 40
0.8832669692
 40
1.0
 40
1.0
 40
1.0
 40
1.0
 10
58.4542833053
 20
96.9855500771
 30
0.0
 10
58.3108350378
 20
97.1056437125
 30
0.0
 10
57.977121324
 20
97.3228588005
 30
0.0
 10
57.4039137621
 20
97.5633505139
 30
0.0
 10
56.7552893416
 20
97.7274448016
 30
0.0
 10
56.0611330629
 20
97.8075479506
 30
0.0
 10
55.3533877793
 20
97.8000205169
 30
0.0
 10
54.6646250479
 20
97.7053238943
 30
0.0
 10
54.0270260684
 20
97.5276607324
 30
0.0
 10
53.6363074031
 20
97.3506544202
 30
0.0
 10
53.4592320061
 20
97.2484205023
 30
0.0
  0
SPLINE
  5
265
100
AcDbEntity
  8
0
100
AcDbSpline
 62
7
  6
BYLAYER
 70
0
 71
3
 72
18
 73
14
 74
0
 42
0.0000001
 43
0.0000001
 44
0.0000000001
 40
0.0
 40
0.0
 40
0.0
 40
0.0
 40
0.1248951629
 40
0.2618549274
 40
0.4049359456
 40
0.5472067463
 40
0.68185827
 40
0.7445863992
 40
0.8035037158
 40
0.8583344221
 40
0.9090716114
 40
0.9560502468
 40
1.0
 40
1.0
 40
1.0
 40
1.0
 10
52.0852141974
 20
68.3845744786
 30
0.0
 10
51.3063278019
 20
67.9348868928
 30
0.0
 10
49.5554819048
 20
67.19183618
 30
0.0
 10
46.6970897108
 20
66.5561938347
 30
0.0
 10
43.648460139
 20
66.3754742993
 30
0.0
 10
40.6260680119
 20
66.6634149637
 30
0.0
 10
38.2471784672
 20
67.2914707147
 30
0.0
 10
36.5488396204
 20
68.0214475429
 30
0.0
 10
35.4403848062
 20
68.6489260707
 30
0.0
 10
34.4873725958
 20
69.3581980337
 30
0.0
 10
33.7072106555
 20
70.1380846905
 30
0.0
 10
33.1152374315
 20
70.9754895646
 30
0.0
 10
32.847925494
 20
71.579604894
 30
0.0
 10
32.7537515396
 20
71.8817543037
 30
0.0
  0
SPLINE
  5
266
100
AcDbEntity
  8
0
100
AcDbSpline
 62
7
  6
BYLAYER
 70
0
 71
3
 72
11
 73
7
 74
0
 42
0.0000001
 43
0.0000001
 44
0.0000000001
 40
0.0
 40
0.0
 40
0.0
 40
0.0
 40
0.2177827477
 40
0.4509152641
 40
0.7103063952
 40
1.0
 40
1.0
 40
1.0
 40
1.0
 10
59.0310524311
 20
97.9898796804
 30
0.0
 10
59.0310354452
 20
97.8655637394
 30
0.0
 10
58.9851216931
 20
97.6064469965
 30
0.0
 10
58.7886751323
 20
97.2454124571
 30
0.0
 10
58.4781395361
 20
96.9190642041
 30
0.0
 10
58.2183129344
 20
96.7401045202
 30
0.0
 10
58.0751028699
 20
96.6574226444
 30
0.0
  0
SPLINE
  5
267
100
AcDbEntity
  8
0
100
AcDbSpline
 62
7
  6
BYLAYER
 70
0
 71
3
 72
15
 73
11
 74
0
 42
0.0000001
 43
0.0000001
 44
0.0000000001
 40
0.0
 40
0.0
 40
0.0
 40
0.0
 40
0.1068071032
 40
0.2254336318
 40
0.3535011246
 40
0.4874905562
 40
0.6232809861
 40
0.7565389451
 40
0.8832669692
 40
1.0
 40
1.0
 40
1.0
 40
1.0
 10
104.4327414977
 20
159.8239721164
 30
0.0
 10
104.2892932302
 20
159.9440657518
 30
0.0
 10
103.9555795163
 20
160.1612808399
 30
0.0
 10
103.3823719545
 20
160.4017725532
 30
0.0
 10
102.7337475339
 20
160.5658668409
 30
0.0
 10
102.0395912553
 20
160.64596999
 30
0.0
 10
101.3318459717
 20
160.6384425562
 30
0.0
 10
100.6430832402
 20
160.5437459336
 30
0.0
 10
100.0054842608
 20
160.3660827717
 30
0.0
 10
99.6147655955
 20
160.1890764595
 30
0.0
 10
99.4376901985
 20
160.0868425416
 30
0.0
  0
SPLINE
  5
268
100
AcDbEntity
  8
0
100
AcDbSpline
 62
7
  6
BYLAYER
 70
0
 71
3
 72
11
 73
7
 74
0
 42
0.0000001
 43
0.0000001
 44
0.0000000001
 40
0.0
 40
0.0
 40
0.0
 40
0.0
 40
0.2177827477
 40
0.4509152641
 40
0.7103063952
 40
1.0
 40
1.0
 40
1.0
 40
1.0
 10
105.0095106235
 20
160.8283017197
 30
0.0
 10
105.0094936375
 20
160.7039857787
 30
0.0
 10
104.9635798855
 20
160.4448690358
 30
0.0
 10
104.7671333247
 20
160.0838344964
 30
0.0
 10
104.4565977285
 20
159.7574862435
 30
0.0
 10
104.1967711268
 20
159.5785265596
 30
0.0
 10
104.0535610623
 20
159.4958446838
 30
0.0
  0
SPLINE
  5
269
100
AcDbEntity
  8
0
100
AcDbSpline
 62
7
  6
BYLAYER
 70
0
 71
3
 72
15
 73
11
 74
0
 42
0.0000001
 43
0.0000001
 44
0.0000000001
 40
0.0
 40
0.0
 40
0.0
 40
0.0
 40
0.1068071032
 40
0.2254336318
 40
0.3535011246
 40
0.4874905562
 40
0.6232809861
 40
0.7565389451
 40
0.8832669692
 40
1.0
 40
1.0
 40
1.0
 40
1.0
 10
27.0232560225
 20
115.1318516155
 30
0.0
 10
26.879807755
 20
115.2519452509
 30
0.0
 10
26.5460940412
 20
115.4691603389
 30
0.0
 10
25.9728864793
 20
115.7096520523
 30
0.0
 10
25.3242620588
 20
115.87374634
 30
0.0
 10
24.6301057802
 20
115.953849489
 30
0.0
 10
23.9223604966
 20
115.9463220553
 30
0.0
 10
23.2335977651
 20
115.8516254327
 30
0.0
 10
22.5959987856
 20
115.6739622708
 30
0.0
 10
22.2052801204
 20
115.4969559586
 30
0.0
 10
22.0282047233
 20
115.3947220407
 30
0.0
  0
SPLINE
  5
26A
100
AcDbEntity
  8
0
100
AcDbSpline
 62
7
  6
BYLAYER
 70
0
 71
3
 72
11
 73
7
 74
0
 42
0.0000001
 43
0.0000001
 44
0.0000000001
 40
0.0
 40
0.0
 40
0.0
 40
0.0
 40
0.2177827477
 40
0.4509152641
 40
0.7103063952
 40
1.0
 40
1.0
 40
1.0
 40
1.0
 10
27.6000251483
 20
116.1361812188
 30
0.0
 10
27.6000081624
 20
116.0118652778
 30
0.0
 10
27.5540944103
 20
115.7527485349
 30
0.0
 10
27.3576478495
 20
115.3917139955
 30
0.0
 10
27.0471122534
 20
115.0653657425
 30
0.0
 10
26.7872856517
 20
114.8864060586
 30
0.0
 10
26.6440755871
 20
114.8037241829
 30
0.0
  0
SPLINE
  5
26B
100
AcDbEntity
  8
0
100
AcDbSpline
 62
7
  6
BYLAYER
 70
0
 71
3
 72
12
 73
8
 74
0
 42
0.0000001
 43
0.0000001
 44
0.0000000001
 40
0.0
 40
0.0
 40
0.0
 40
0.0
 40
0.108160086
 40
0.2183661673
 40
0.4513442183
 40
0.7104418196
 40
1.0
 40
1.0
 40
1.0
 40
1.0
 10
139.526606232
 20
142.682000144
 30
0.0
 10
139.5266062305
 20
142.802211416
 30
0.0
 10
139.5057605747
 20
143.0454197835
 30
0.0
 10
139.379302972
 20
143.5329203144
 30
0.0
 10
139.0551377682
 20
144.1308316214
 30
0.0
 10
138.4510276323
 20
144.7651888889
 30
0.0
 10
137.9454687621
 20
145.1134428984
 30
0.0
 10
137.6667622636
 20
145.2743505303
 30
0.0
  0
SPLINE
  5
26C
100
AcDbEntity
  8
0
100
AcDbSpline
 62
7
  6
BYLAYER
 70
0
 71
3
 72
12
 73
8
 74
0
 42
0.0000001
 43
0.0000001
 44
0.0000000001
 40
0.0
 40
0.0
 40
0.0
 40
0.0
 40
0.1081603295
 40
0.2183666173
 40
0.4513448628
 40
0.7104422949
 40
1.0
 40
1.0
 40
1.0
 40
1.0
 10
139.526606232
 20
140.6080840045
 30
0.0
 10
139.5266062336
 20
140.4878740121
 30
0.0
 10
139.505761029
 20
140.244668289
 30
0.0
 10
139.3793061764
 20
139.7571730567
 30
0.0
 10
139.0551480798
 20
139.1592677661
 30
0.0
 10
138.4510502148
 20
138.5249151808
 30
0.0
 10
137.9455009386
 20
138.1766625067
 30
0.0
 10
137.666799652
 20
138.0157552042
 30
0.0
  0
SPLINE
  5
26D
100
AcDbEntity
  8
0
100
AcDbSpline
 62
7
  6
BYLAYER
 70
0
 71
3
 72
12
 73
8
 74
0
 42
0.0000001
 43
0.0000001
 44
0.0000000001
 40
0.0
 40
0.0
 40
0.0
 40
0.0
 40
0.2895899306
 40
0.5486369884
 40
0.7816432075
 40
0.8918466031
 40
1.0
 40
1.0
 40
1.0
 40
1.0
 10
30.5326219418
 20
72.8642482431
 30
0.0
 10
29.9751446902
 20
73.1861006033
 30
0.0
 10
28.9639555473
 20
73.8824992998
 30
0.0
 10
27.7559703345
 20
75.151396631
 30
0.0
 10
27.1072775826
 20
76.3470275302
 30
0.0
 10
26.854741735
 20
77.322167947
 30
0.0
 10
26.8128466901
 20
77.8085399262
 30
0.0
 10
26.8128507085
 20
78.0489489528
 30
0.0
  0
SPLINE
  5
26E
100
AcDbEntity
  8
0
100
AcDbSpline
 62
7
  6
BYLAYER
 70
0
 71
3
 72
12
 73
8
 74
0
 42
0.0000001
 43
0.0000001
 44
0.0000000001
 40
0.0
 40
0.0
 40
0.0
 40
0.0
 40
0.2589546177
 40
0.5205046486
 40
0.7712727199
 40
0.8890312644
 40
1.0
 40
1.0
 40
1.0
 40
1.0
 10
43.6727259562
 20
71.1211971323
 30
0.0
 10
42.5295146216
 20
70.8923835097
 30
0.0
 10
40.1874492153
 20
70.6338760073
 30
0.0
 10
36.7061681291
 20
70.8028186721
 30
0.0
 10
33.9163029162
 20
71.4019946654
 30
0.0
 10
31.889830119
 20
72.1548051567
 30
0.0
 10
30.9653009045
 20
72.6144465789
 30
0.0
 10
30.5326219418
 20
72.8642482431
 30
0.0
  0
SPLINE
  5
26F
100
AcDbEntity
  8
0
100
AcDbSpline
 62
7
  6
BYLAYER
 70
0
 71
3
 72
9
 73
5
 74
0
 42
0.0000001
 43
0.0000001
 44
0.0000000001
 40
0.0
 40
0.0
 40
0.0
 40
0.0
 40
0.4741272639
 40
1.0
 40
1.0
 40
1.0
 40
1.0
 10
119.772645652
 20
110.0104705916
 30
0.0
 10
119.6677290451
 20
110.0711018944
 30
0.0
 10
119.4742309828
 20
110.251264641
 30
0.0
 10
119.3669577494
 20
110.4893970991
 30
0.0
 10
119.3286081879
 20
110.6182107585
 30
0.0
  0
SPLINE
  5
270
100
AcDbEntity
  8
0
100
AcDbSpline
 62
7
  6
BYLAYER
 70
0
 71
3
 72
9
 73
5
 74
0
 42
0.0000001
 43
0.0000001
 44
0.0000000001
 40
0.0
 40
0.0
 40
0.0
 40
0.0
 40
0.2444745709
 40
1.0
 40
1.0
 40
1.0
 40
1.0
 10
119.3286081879
 20
110.6182107585
 30
0.0
 10
119.324326209
 20
110.6325936446
 30
0.0
 10
119.307724618
 20
110.6916954282
 30
0.0
 10
119.2946904387
 20
110.7517840523
 30
0.0
 10
119.2866539997
 20
110.7974594037
 30
0.0
  0
SPLINE
  5
271
100
AcDbEntity
  8
0
100
AcDbSpline
 62
7
  6
BYLAYER
 70
0
 71
3
 72
9
 73
5
 74
0
 42
0.0000001
 43
0.0000001
 44
0.0000000001
 40
0.0
 40
0.0
 40
0.0
 40
0.0
 40
0.2561711486
 40
1.0
 40
1.0
 40
1.0
 40
1.0
 10
121.3327332007
 20
114.3459161391
 30
0.0
 10
121.3488876444
 20
114.3518316247
 30
0.0
 10
121.4122839112
 20
114.3739906421
 30
0.0
 10
121.477034819
 20
114.3923315494
 30
0.0
 10
121.5257352361
 20
114.4034462843
 30
0.0
  0
SPLINE
  5
272
100
AcDbEntity
  8
0
100
AcDbSpline
 62
7
  6
BYLAYER
 70
0
 71
3
 72
9
 73
5
 74
0
 42
0.0000001
 43
0.0000001
 44
0.0000000001
 40
0.0
 40
0.0
 40
0.0
 40
0.0
 40
0.5251516195
 40
1.0
 40
1.0
 40
1.0
 40
1.0
 10
121.5257352361
 20
114.4034462843
 30
0.0
 10
121.6542402199
 20
114.4327745514
 30
0.0
 10
121.9095153331
 20
114.4561179386
 30
0.0
 10
122.1573071198
 20
114.3792898981
 30
0.0
 10
122.2604984885
 20
114.3196556104
 30
0.0
  0
SPLINE
  5
273
100
AcDbEntity
  8
0
100
AcDbSpline
 62
7
  6
BYLAYER
 70
0
 71
3
 72
12
 73
8
 74
0
 42
0.0000001
 43
0.0000001
 44
0.0000000001
 40
0.0
 40
0.0
 40
0.0
 40
0.0
 40
0.1081603296
 40
0.2183666174
 40
0.4513448629
 40
0.7104422948
 40
1.0
 40
1.0
 40
1.0
 40
1.0
 10
121.989779146
 20
82.0719734527
 30
0.0
 10
121.9897791475
 20
81.9522443008
 30
0.0
 10
121.969017324
 20
81.7100114015
 30
0.0
 10
121.8430682917
 20
81.2244661522
 30
0.0
 10
121.5202068303
 20
80.628952485
 30
0.0
 10
120.9185253612
 20
79.9971373114
 30
0.0
 10
120.4149982848
 20
79.6502776492
 30
0.0
 10
120.1374118044
 20
79.4900139767
 30
0.0
  0
SPLINE
  5
274
100
AcDbEntity
  8
0
100
AcDbSpline
 62
7
  6
BYLAYER
 70
0
 71
3
 72
9
 73
5
 74
0
 42
0.0000001
 43
0.0000001
 44
0.0000000001
 40
0.0
 40
0.0
 40
0.0
 40
0.0
 40
0.4741272639
 40
1.0
 40
1.0
 40
1.0
 40
1.0
 10
72.5366951184
 20
82.7389446247
 30
0.0
 10
72.4317785115
 20
82.7995759275
 30
0.0
 10
72.2382804492
 20
82.9797386741
 30
0.0
 10
72.1310072158
 20
83.2178711321
 30
0.0
 10
72.0926576544
 20
83.3466847916
 30
0.0
  0
SPLINE
  5
275
100
AcDbEntity
  8
0
100
AcDbSpline
 62
7
  6
BYLAYER
 70
0
 71
3
 72
9
 73
5
 74
0
 42
0.0000001
 43
0.0000001
 44
0.0000000001
 40
0.0
 40
0.0
 40
0.0
 40
0.0
 40
0.2444745709
 40
1.0
 40
1.0
 40
1.0
 40
1.0
 10
72.0926576544
 20
83.3466847916
 30
0.0
 10
72.0883756755
 20
83.3610676776
 30
0.0
 10
72.0717740844
 20
83.4201694612
 30
0.0
 10
72.0587399051
 20
83.4802580854
 30
0.0
 10
72.0507034661
 20
83.5259334368
 30
0.0
  0
SPLINE
  5
276
100
AcDbEntity
  8
0
100
AcDbSpline
 62
7
  6
BYLAYER
 70
0
 71
3
 72
9
 73
5
 74
0
 42
0.0000001
 43
0.0000001
 44
0.0000000001
 40
0.0
 40
0.0
 40
0.0
 40
0.0
 40
0.2561711486
 40
1.0
 40
1.0
 40
1.0
 40
1.0
 10
74.0967826671
 20
87.0743901722
 30
0.0
 10
74.1129371108
 20
87.0803056577
 30
0.0
 10
74.1763333776
 20
87.1024646752
 30
0.0
 10
74.2410842855
 20
87.1208055825
 30
0.0
 10
74.2897847025
 20
87.1319203174
 30
0.0
  0
SPLINE
  5
277
100
AcDbEntity
  8
0
100
AcDbSpline
 62
7
  6
BYLAYER
 70
0
 71
3
 72
9
 73
5
 74
0
 42
0.0000001
 43
0.0000001
 44
0.0000000001
 40
0.0
 40
0.0
 40
0.0
 40
0.0
 40
0.5251516195
 40
1.0
 40
1.0
 40
1.0
 40
1.0
 10
74.2897847025
 20
87.1319203174
 30
0.0
 10
74.4182896863
 20
87.1612485845
 30
0.0
 10
74.6735647995
 20
87.1845919717
 30
0.0
 10
74.9213565863
 20
87.1077639312
 30
0.0
 10
75.024547955
 20
87.0481296435
 30
0.0
  0
SPLINE
  5
278
100
AcDbEntity
  8
0
100
AcDbSpline
 62
7
  6
BYLAYER
 70
0
 71
3
 72
11
 73
7
 74
0
 42
0.0000001
 43
0.0000001
 44
0.0000000001
 40
0.0
 40
0.0
 40
0.0
 40
0.0
 40
0.2177745346
 40
0.4509306044
 40
0.7102242968
 40
1.0
 40
1.0
 40
1.0
 40
1.0
 10
72.0857259336
 20
80.1929028235
 30
0.0
 10
72.2532864998
 20
80.0961638653
 30
0.0
 10
72.6383002194
 20
79.956385293
 30
0.0
 10
73.2777359738
 20
79.9402633308
 30
0.0
 10
73.9593271507
 20
80.1047135539
 30
0.0
 10
74.4027052386
 20
80.3157475071
 30
0.0
 10
74.6256641807
 20
80.4444721438
 30
0.0
  0
SPLINE
  5
279
100
AcDbEntity
  8
0
100
AcDbSpline
 62
7
  6
BYLAYER
 70
0
 71
3
 72
13
 73
9
 74
0
 42
0.0000001
 43
0.0000001
 44
0.0000000001
 40
0.0
 40
0.0
 40
0.0
 40
0.0
 40
0.1123912524
 40
0.2329926595
 40
0.490163225
 40
0.7526088248
 40
0.879466554
 40
1.0
 40
1.0
 40
1.0
 40
1.0
 10
81.3116360947
 20
61.2011692003
 30
0.0
 10
81.0397133856
 20
61.0441754882
 30
0.0
 10
80.4500642719
 20
60.7625049296
 30
0.0
 10
79.1467429733
 20
60.3334992294
 30
0.0
 10
77.3633867935
 20
60.0693577196
 30
0.0
 10
75.546718934
 20
60.1571877706
 30
0.0
 10
74.1499202999
 20
60.4473884767
 30
0.0
 10
73.4914917179
 20
60.6641730585
 30
0.0
 10
73.1793006256
 20
60.7903780711
 30
0.0
  0
SPLINE
  5
27A
100
AcDbEntity
  8
0
100
AcDbSpline
 62
7
  6
BYLAYER
 70
0
 71
3
 72
12
 73
8
 74
0
 42
0.0000001
 43
0.0000001
 44
0.0000000001
 40
0.0
 40
0.0
 40
0.0
 40
0.0
 40
0.1081603296
 40
0.2183666174
 40
0.4513448629
 40
0.7104422948
 40
1.0
 40
1.0
 40
1.0
 40
1.0
 10
122.0151789593
 20
86.2198057318
 30
0.0
 10
122.0151789608
 20
86.0995957398
 30
0.0
 10
121.9943337564
 20
85.8563900177
 30
0.0
 10
121.8678789048
 20
85.3688947875
 30
0.0
 10
121.543720811
 20
84.7709894991
 30
0.0
 10
120.9396229505
 20
84.1366369152
 30
0.0
 10
120.4340736769
 20
83.7883842423
 30
0.0
 10
120.1553723915
 20
83.6274769406
 30
0.0
  0
SPLINE
  5
27B
100
AcDbEntity
  8
0
100
AcDbSpline
 62
7
  6
BYLAYER
 70
0
 71
3
 72
12
 73
8
 74
0
 42
0.0000001
 43
0.0000001
 44
0.0000000001
 40
0.0
 40
0.0
 40
0.0
 40
0.0
 40
0.1081589663
 40
0.2183578969
 40
0.4513603175
 40
0.7104174761
 40
1.0
 40
1.0
 40
1.0
 40
1.0
 10
55.4329363393
 20
73.0507663017
 30
0.0
 10
55.4329376654
 20
72.8343895499
 30
0.0
 10
55.3952441901
 20
72.3966571759
 30
0.0
 10
55.1679768948
 20
71.5190428726
 30
0.0
 10
54.5841674854
 20
70.4429771813
 30
0.0
 10
53.4969749849
 20
69.3010024603
 30
0.0
 10
52.5869229734
 20
68.6742344464
 30
0.0
 10
52.0852141974
 20
68.3845744786
 30
0.0
  0
SPLINE
  5
27C
100
AcDbEntity
  8
0
100
AcDbSpline
 62
7
  6
BYLAYER
 70
0
 71
3
 72
12
 73
8
 74
0
 42
0.0000001
 43
0.0000001
 44
0.0000000001
 40
0.0
 40
0.0
 40
0.0
 40
0.0
 40
0.2895798774
 40
0.5486331397
 40
0.7816360031
 40
0.8918382323
 40
1.0
 40
1.0
 40
1.0
 40
1.0
 10
37.7166614483
 20
56.9780865866
 30
0.0
 10
37.3264698954
 20
57.2033910686
 30
0.0
 10
36.6186717061
 20
57.6908426503
 30
0.0
 10
35.7731139725
 20
58.5790269132
 30
0.0
 10
35.3190605297
 20
59.4159440849
 30
0.0
 10
35.142270359
 20
60.0985153864
 30
0.0
 10
35.1129444764
 20
60.4389765724
 30
0.0
 10
35.1129622523
 20
60.6072694653
 30
0.0
  0
SPLINE
  5
27D
100
AcDbEntity
  8
0
100
AcDbSpline
 62
7
  6
BYLAYER
 70
0
 71
3
 72
12
 73
8
 74
0
 42
0.0000001
 43
0.0000001
 44
0.0000000001
 40
0.0
 40
0.0
 40
0.0
 40
0.0
 40
0.1142967575
 40
0.2377084711
 40
0.5003151005
 40
0.7629271526
 40
1.0
 40
1.0
 40
1.0
 40
1.0
 10
72.0214007324
 20
83.3168719703
 30
0.0
 10
72.0214007324
 20
83.494292493
 30
0.0
 10
72.0539588263
 20
83.863662451
 30
0.0
 10
72.2303351455
 20
84.6218106433
 30
0.0
 10
72.6408886323
 20
85.5524834821
 30
0.0
 10
73.344523881
 20
86.5135731483
 30
0.0
 10
73.9477152316
 20
87.0214051252
 30
0.0
 10
74.2664166198
 20
87.2054048084
 30
0.0
  0
SPLINE
  5
27E
100
AcDbEntity
  8
0
100
AcDbSpline
 62
7
  6
BYLAYER
 70
0
 71
3
 72
17
 73
13
 74
0
 42
0.0000001
 43
0.0000001
 44
0.0000000001
 40
0.0
 40
0.0
 40
0.0
 40
0.0
 40
0.1286926208
 40
0.2702795078
 40
0.4174383051
 40
0.5617803148
 40
0.6954501289
 40
0.8127134773
 40
0.8646759206
 40
0.9125113962
 40
0.9571388332
 40
1.0
 40
1.0
 40
1.0
 40
1.0
 10
135.484588345
 20
141.3495431454
 30
0.0
 10
135.2429756065
 20
141.2100487984
 30
0.0
 10
134.6959409759
 20
140.9843331287
 30
0.0
 10
133.8043699439
 20
140.8059900191
 30
0.0
 10
132.861389104
 20
140.7798736297
 30
0.0
 10
131.9439386022
 20
140.908805271
 30
0.0
 10
131.1264143489
 20
141.181874682
 30
0.0
 10
130.5578077887
 20
141.527961585
 30
0.0
 10
130.2241444186
 20
141.8628632795
 30
0.0
 10
130.0468415495
 20
142.1235736883
 30
0.0
 10
129.9376754161
 20
142.398619299
 30
0.0
 10
129.9127552242
 20
142.5890823132
 30
0.0
 10
129.91276792
 20
142.6820001068
 30
0.0
  0
SPLINE
  5
27F
100
AcDbEntity
  8
0
100
AcDbSpline
 62
7
  6
BYLAYER
 70
0
 71
3
 72
17
 73
13
 74
0
 42
0.0000001
 43
0.0000001
 44
0.0000000001
 40
0.0
 40
0.0
 40
0.0
 40
0.0
 40
0.1286926208
 40
0.2702795078
 40
0.4174383051
 40
0.5617803148
 40
0.6954501289
 40
0.8127134773
 40
0.8646759206
 40
0.9125113962
 40
0.9571388332
 40
1.0
 40
1.0
 40
1.0
 40
1.0
 10
58.0751028699
 20
96.6574226444
 30
0.0
 10
57.8334901314
 20
96.5179282975
 30
0.0
 10
57.2864555008
 20
96.2922126278
 30
0.0
 10
56.3948844688
 20
96.1138695181
 30
0.0
 10
55.4519036289
 20
96.0877531288
 30
0.0
 10
54.5344531271
 20
96.2166847701
 30
0.0
 10
53.7169288737
 20
96.4897541811
 30
0.0
 10
53.1483223136
 20
96.835841084
 30
0.0
 10
52.8146589434
 20
97.1707427786
 30
0.0
 10
52.6373560744
 20
97.4314531874
 30
0.0
 10
52.5281899409
 20
97.706498798
 30
0.0
 10
52.5032697491
 20
97.8969618123
 30
0.0
 10
52.5032824449
 20
97.9898796059
 30
0.0
  0
SPLINE
  5
280
100
AcDbEntity
  8
0
100
AcDbSpline
 62
7
  6
BYLAYER
 70
0
 71
3
 72
17
 73
13
 74
0
 42
0.0000001
 43
0.0000001
 44
0.0000000001
 40
0.0
 40
0.0
 40
0.0
 40
0.0
 40
0.1286926208
 40
0.2702795078
 40
0.4174383051
 40
0.5617803148
 40
0.6954501289
 40
0.8127134773
 40
0.8646759206
 40
0.9125113962
 40
0.9571388332
 40
1.0
 40
1.0
 40
1.0
 40
1.0
 10
104.0535610623
 20
159.4958446838
 30
0.0
 10
103.8119483237
 20
159.3563503368
 30
0.0
 10
103.2649136932
 20
159.1306346672
 30
0.0
 10
102.3733426611
 20
158.9522915575
 30
0.0
 10
101.4303618212
 20
158.9261751682
 30
0.0
 10
100.5129113194
 20
159.0551068095
 30
0.0
 10
99.6953870661
 20
159.3281762204
 30
0.0
 10
99.1267805059
 20
159.6742631234
 30
0.0
 10
98.7931171358
 20
160.0091648179
 30
0.0
 10
98.6158142667
 20
160.2698752267
 30
0.0
 10
98.5066481333
 20
160.5449208374
 30
0.0
 10
98.4817279414
 20
160.7353838517
 30
0.0
 10
98.4817406373
 20
160.8283016452
 30
0.0
  0
SPLINE
  5
281
100
AcDbEntity
  8
0
100
AcDbSpline
 62
7
  6
BYLAYER
 70
0
 71
3
 72
17
 73
13
 74
0
 42
0.0000001
 43
0.0000001
 44
0.0000000001
 40
0.0
 40
0.0
 40
0.0
 40
0.0
 40
0.1286926208
 40
0.2702795078
 40
0.4174383051
 40
0.5617803148
 40
0.6954501289
 40
0.8127134773
 40
0.8646759206
 40
0.9125113962
 40
0.9571388332
 40
1.0
 40
1.0
 40
1.0
 40
1.0
 10
26.6440755871
 20
114.8037241829
 30
0.0
 10
26.4024628486
 20
114.6642298359
 30
0.0
 10
25.855428218
 20
114.4385141662
 30
0.0
 10
24.963857186
 20
114.2601710566
 30
0.0
 10
24.0208763461
 20
114.2340546672
 30
0.0
 10
23.1034258443
 20
114.3629863085
 30
0.0
 10
22.2859015909
 20
114.6360557195
 30
0.0
 10
21.7172950308
 20
114.9821426225
 30
0.0
 10
21.3836316607
 20
115.317044317
 30
0.0
 10
21.2063287916
 20
115.5777547258
 30
0.0
 10
21.0971626581
 20
115.8528003365
 30
0.0
 10
21.0722424663
 20
116.0432633507
 30
0.0
 10
21.0722551621
 20
116.1361811443
 30
0.0
  0
SPLINE
  5
282
100
AcDbEntity
  8
0
100
AcDbSpline
 62
7
  6
BYLAYER
 70
0
 71
3
 72
15
 73
11
 74
0
 42
0.0000001
 43
0.0000001
 44
0.0000000001
 40
0.0
 40
0.0
 40
0.0
 40
0.0
 40
0.1141469224
 40
0.2373360365
 40
0.366976904
 40
0.5000005214
 40
0.6330240662
 40
0.7626647219
 40
0.8858535023
 40
1.0
 40
1.0
 40
1.0
 40
1.0
 10
106.2357350125
 20
163.4206520504
 30
0.0
 10
105.9283705221
 20
163.598105007
 30
0.0
 10
105.2561755265
 20
163.9110711752
 30
0.0
 10
104.1616300403
 20
164.2438113493
 30
0.0
 10
102.9765565991
 20
164.4484999048
 30
0.0
 10
101.7455993639
 20
164.5176418698
 30
0.0
 10
100.5146431127
 20
164.4484940624
 30
0.0
 10
99.3295725787
 20
164.2437998801
 30
0.0
 10
98.2350318047
 20
163.9110545028
 30
0.0
 10
97.5628409271
 20
163.5980849774
 30
0.0
 10
97.2554788598
 20
163.4206304645
 30
0.0
  0
SPLINE
  5
283
100
AcDbEntity
  8
0
100
AcDbSpline
 62
7
  6
BYLAYER
 70
0
 71
3
 72
11
 73
7
 74
0
 42
0.0000001
 43
0.0000001
 44
0.0000000001
 40
0.0
 40
0.0
 40
0.0
 40
0.0
 40
0.2897918692
 40
0.5490546457
 40
0.7822243928
 40
1.0
 40
1.0
 40
1.0
 40
1.0
 10
19.8429102666
 20
118.7267299351
 30
0.0
 10
19.5641936368
 20
118.5658137745
 30
0.0
 10
19.0586087708
 20
118.21777637
 30
0.0
 10
18.4546518219
 20
117.5826709286
 30
0.0
 10
18.0723307077
 20
116.8804456457
 30
0.0
 10
17.9831288456
 20
116.3762558654
 30
0.0
 10
17.9830911836
 20
116.1344011083
 30
0.0
  0
SPLINE
  5
284
100
AcDbEntity
  8
0
100
AcDbSpline
 62
7
  6
BYLAYER
 70
0
 71
3
 72
12
 73
8
 74
0
 42
0.0000001
 43
0.0000001
 44
0.0000000001
 40
0.0
 40
0.0
 40
0.0
 40
0.0
 40
0.1124368298
 40
0.2330871438
 40
0.4903619983
 40
0.7529140264
 40
1.0
 40
1.0
 40
1.0
 40
1.0
 10
81.293398439
 20
57.0635462717
 30
0.0
 10
81.0225634207
 20
56.9071805344
 30
0.0
 10
80.4352574483
 20
56.6266371412
 30
0.0
 10
79.1372517276
 20
56.199344266
 30
0.0
 10
77.3601925286
 20
55.9362854713
 30
0.0
 10
75.2180393302
 20
56.0399110059
 30
0.0
 10
73.8307461207
 20
56.3968252804
 30
0.0
 10
73.1935923118
 20
56.6543983071
 30
0.0
  0
SPLINE
  5
285
100
AcDbEntity
  8
0
100
AcDbSpline
 62
7
  6
BYLAYER
 70
0
 71
3
 72
9
 73
5
 74
0
 42
0.0000001
 43
0.0000001
 44
0.0000000001
 40
0.0
 40
0.0
 40
0.0
 40
0.0
 40
0.2588451597
 40
1.0
 40
1.0
 40
1.0
 40
1.0
 10
130.8687174812
 20
141.9405410032
 30
0.0
 10
130.8342805337
 20
141.920658941
 30
0.0
 10
130.7027729314
 20
141.8412539762
 30
0.0
 10
130.5775301189
 20
141.7512377196
 30
0.0
 10
130.4901940624
 20
141.6781899208
 30
0.0
  0
SPLINE
  5
286
100
AcDbEntity
  8
0
100
AcDbSpline
 62
7
  6
BYLAYER
 70
0
 71
3
 72
9
 73
5
 74
0
 42
0.0000001
 43
0.0000001
 44
0.0000000001
 40
0.0
 40
0.0
 40
0.0
 40
0.0
 40
0.2588451597
 40
1.0
 40
1.0
 40
1.0
 40
1.0
 10
53.4592320061
 20
97.2484205023
 30
0.0
 10
53.4247950586
 20
97.2285384401
 30
0.0
 10
53.2932874563
 20
97.1491334753
 30
0.0
 10
53.1680446438
 20
97.0591172186
 30
0.0
 10
53.0807085872
 20
96.9860694199
 30
0.0
  0
SPLINE
  5
287
100
AcDbEntity
  8
0
100
AcDbSpline
 62
7
  6
BYLAYER
 70
0
 71
3
 72
9
 73
5
 74
0
 42
0.0000001
 43
0.0000001
 44
0.0000000001
 40
0.0
 40
0.0
 40
0.0
 40
0.0
 40
0.2588451597
 40
1.0
 40
1.0
 40
1.0
 40
1.0
 10
99.4376901985
 20
160.0868425416
 30
0.0
 10
99.403253251
 20
160.0669604794
 30
0.0
 10
99.2717456487
 20
159.9875555146
 30
0.0
 10
99.1465028361
 20
159.897539258
 30
0.0
 10
99.0591667796
 20
159.8244914592
 30
0.0
  0
SPLINE
  5
288
100
AcDbEntity
  8
0
100
AcDbSpline
 62
7
  6
BYLAYER
 70
0
 71
3
 72
9
 73
5
 74
0
 42
0.0000001
 43
0.0000001
 44
0.0000000001
 40
0.0
 40
0.0
 40
0.0
 40
0.0
 40
0.2588451597
 40
1.0
 40
1.0
 40
1.0
 40
1.0
 10
22.0282047233
 20
115.3947220407
 30
0.0
 10
21.9937677758
 20
115.3748399785
 30
0.0
 10
21.8622601735
 20
115.2954350137
 30
0.0
 10
21.737017361
 20
115.2054187571
 30
0.0
 10
21.6496813044
 20
115.1323709583
 30
0.0
  0
SPLINE
  5
289
100
AcDbEntity
  8
0
100
AcDbSpline
 62
7
  6
BYLAYER
 70
0
 71
3
 72
9
 73
5
 74
0
 42
0.0000001
 43
0.0000001
 44
0.0000000001
 40
0.0
 40
0.0
 40
0.0
 40
0.0
 40
0.5163354478
 40
1.0
 40
1.0
 40
1.0
 40
1.0
 10
33.8549181421
 20
98.1136278021
 30
0.0
 10
33.263769751
 20
98.2834617507
 30
0.0
 10
32.1348156541
 20
98.6717328111
 30
0.0
 10
31.0587009045
 20
99.1913477196
 30
0.0
 10
30.5590132051
 20
99.4781460015
 30
0.0
  0
SPLINE
  5
28A
100
AcDbEntity
  8
0
100
AcDbSpline
 62
7
  6
BYLAYER
 70
0
 71
3
 72
9
 73
5
 74
0
 42
0.0000001
 43
0.0000001
 44
0.0000000001
 40
0.0
 40
0.0
 40
0.0
 40
0.0
 40
0.267444577
 40
1.0
 40
1.0
 40
1.0
 40
1.0
 10
30.5326275698
 20
99.4933347237
 30
0.0
 10
30.2954544879
 20
99.6302635687
 30
0.0
 10
29.4270755412
 20
100.1720218287
 30
0.0
 10
28.6325895187
 20
100.8432222575
 30
0.0
 10
28.1428432543
 20
101.4114211701
 30
0.0
  0
SPLINE
  5
28B
100
AcDbEntity
  8
0
100
AcDbSpline
 62
7
  6
BYLAYER
 70
0
 71
3
 72
10
 73
6
 74
0
 42
0.0000001
 43
0.0000001
 44
0.0000000001
 40
0.0
 40
0.0
 40
0.0
 40
0.0
 40
0.5214777182
 40
0.7638104886
 40
1.0
 40
1.0
 40
1.0
 40
1.0
 10
18.6480583121
 20
112.4271794757
 30
0.0
 10
18.4441770897
 20
112.6637205119
 30
0.0
 10
18.188571462
 20
113.0562863103
 30
0.0
 10
18.0122442119
 20
113.6316390695
 30
0.0
 10
17.9830691652
 20
113.9190457192
 30
0.0
 10
17.9830911868
 20
114.0604849687
 30
0.0
  0
SPLINE
  5
28C
100
AcDbEntity
  8
0
100
AcDbSpline
 62
7
  6
BYLAYER
 70
0
 71
3
 72
11
 73
7
 74
0
 42
0.0000001
 43
0.0000001
 44
0.0000000001
 40
0.0
 40
0.0
 40
0.0
 40
0.0
 40
0.2299779395
 40
0.4835437701
 40
0.7457808905
 40
1.0
 40
1.0
 40
1.0
 40
1.0
 10
60.2542310587
 20
93.3218546748
 30
0.0
 10
59.7550680855
 20
93.0336645181
 30
0.0
 10
58.6188897133
 20
92.5751822977
 30
0.0
 10
56.7708057041
 20
92.2365260183
 30
0.0
 10
54.8313939886
 20
92.229753645
 30
0.0
 10
53.5474895671
 20
92.4560514409
 30
0.0
 10
52.9351230388
 20
92.6319812533
 30
0.0
  0
SPLINE
  5
28D
100
AcDbEntity
  8
0
100
AcDbSpline
 62
7
  6
BYLAYER
 70
0
 71
3
 72
15
 73
11
 74
0
 42
0.0000001
 43
0.0000001
 44
0.0000000001
 40
0.0
 40
0.0
 40
0.0
 40
0.0
 40
0.1141462769
 40
0.2373347432
 40
0.3669750848
 40
0.4999983967
 40
0.6330219316
 40
0.7626629245
 40
0.8858524171
 40
1.0
 40
1.0
 40
1.0
 40
1.0
 10
121.143197184
 20
95.272508423
 30
0.0
 10
121.3890866676
 20
95.4144719353
 30
0.0
 10
121.8747955102
 20
95.7549895612
 30
0.0
 10
122.543144469
 20
96.3802103315
 30
0.0
 10
123.1589872052
 20
97.1193739606
 30
0.0
 10
123.6992733804
 20
97.9445482076
 30
0.0
 10
124.1437485615
 20
98.8250405018
 30
0.0
 10
124.4759595488
 20
99.7279635516
 30
0.0
 10
124.6832415575
 20
100.6193888141
 30
0.0
 10
124.7352846927
 20
101.2102894871
 30
0.0
 10
124.7352846929
 20
101.4942210311
 30
0.0
  0
SPLINE
  5
28E
100
AcDbEntity
  8
0
100
AcDbSpline
 62
7
  6
BYLAYER
 70
0
 71
3
 72
12
 73
8
 74
0
 42
0.0000001
 43
0.0000001
 44
0.0000000001
 40
0.0
 40
0.0
 40
0.0
 40
0.0
 40
0.1142967575
 40
0.2377084711
 40
0.5003151005
 40
0.7629271526
 40
1.0
 40
1.0
 40
1.0
 40
1.0
 10
119.257351266
 20
110.5883979373
 30
0.0
 10
119.257351266
 20
110.7658184599
 30
0.0
 10
119.2899093598
 20
111.1351884179
 30
0.0
 10
119.4662856791
 20
111.8933366102
 30
0.0
 10
119.8768391658
 20
112.824009449
 30
0.0
 10
120.5804744145
 20
113.7850991152
 30
0.0
 10
121.1836657652
 20
114.2929310921
 30
0.0
 10
121.5023671533
 20
114.4769307753
 30
0.0
  0
SPLINE
  5
28F
100
AcDbEntity
  8
0
100
AcDbSpline
 62
7
  6
BYLAYER
 70
0
 71
3
 72
17
 73
13
 74
0
 42
0.0000001
 43
0.0000001
 44
0.0000000001
 40
0.0
 40
0.0
 40
0.0
 40
0.0
 40
0.1286926208
 40
0.2702795078
 40
0.4174383051
 40
0.5617803148
 40
0.6954501289
 40
0.8127134773
 40
0.8646759206
 40
0.9125113962
 40
0.9571388332
 40
1.0
 40
1.0
 40
1.0
 40
1.0
 10
130.8687174812
 20
144.0144571427
 30
0.0
 10
131.1103302198
 20
144.1539514897
 30
0.0
 10
131.6573648503
 20
144.3796671593
 30
0.0
 10
132.5489358824
 20
144.558010269
 30
0.0
 10
133.4919167223
 20
144.5841266583
 30
0.0
 10
134.4093672241
 20
144.455195017
 30
0.0
 10
135.2268914774
 20
144.1821256061
 30
0.0
 10
135.7954980376
 20
143.8360387031
 30
0.0
 10
136.1291614077
 20
143.5011370086
 30
0.0
 10
136.3064642768
 20
143.2404265998
 30
0.0
 10
136.4156304102
 20
142.9653809891
 30
0.0
 10
136.4405506021
 20
142.7749179748
 30
0.0
 10
136.4405379062
 20
142.6820001813
 30
0.0
  0
SPLINE
  5
290
100
AcDbEntity
  8
0
100
AcDbSpline
 62
7
  6
BYLAYER
 70
0
 71
3
 72
11
 73
7
 74
0
 42
0.0000001
 43
0.0000001
 44
0.0000000001
 40
0.0
 40
0.0
 40
0.0
 40
0.0
 40
0.289777178
 40
0.5490714025
 40
0.7822268831
 40
1.0
 40
1.0
 40
1.0
 40
1.0
 10
71.0335766718
 20
82.5184241303
 30
0.0
 10
71.0335766719
 20
82.2609621945
 30
0.0
 10
71.0725055702
 20
81.7714472155
 30
0.0
 10
71.2708912028
 20
81.0989187879
 30
0.0
 10
71.6045861176
 20
80.5531927183
 30
0.0
 10
71.9181598201
 20
80.2896449845
 30
0.0
 10
72.0857259336
 20
80.1929028235
 30
0.0
  0
SPLINE
  5
291
100
AcDbEntity
  8
0
100
AcDbSpline
 62
7
  6
BYLAYER
 70
0
 71
3
 72
19
 73
15
 74
0
 42
0.0000001
 43
0.0000001
 44
0.0000000001
 40
0.0
 40
0.0
 40
0.0
 40
0.0
 40
0.1363149004
 40
0.287119037
 40
0.4407422329
 40
0.584734674
 40
0.6500205494
 40
0.7096949794
 40
0.7636672631
 40
0.8126422287
 40
0.858254544
 40
0.9029637347
 40
0.9494693882
 40
1.0
 40
1.0
 40
1.0
 40
1.0
 10
76.5115100987
 20
85.9092223474
 30
0.0
 10
76.5115100987
 20
85.5800552459
 30
0.0
 10
76.4004502101
 20
84.8860831112
 30
0.0
 10
76.00257561
 20
83.8918101101
 30
0.0
 10
75.4072055245
 20
82.9791422903
 30
0.0
 10
74.7817537584
 20
82.3527223455
 30
0.0
 10
74.2393878781
 20
81.9918048779
 30
0.0
 10
73.8452102246
 20
81.8098147546
 30
0.0
 10
73.4615681503
 20
81.7137573291
 30
0.0
 10
73.0989805004
 20
81.7084689712
 30
0.0
 10
72.7694981228
 20
81.7979102047
 30
0.0
 10
72.488115254
 20
81.9812372543
 30
0.0
 10
72.2674606157
 20
82.2488237576
 30
0.0
 10
72.1696972657
 20
82.4646207389
 30
0.0
 10
72.1309083259
 20
82.580310269
 30
0.0
  0
SPLINE
  5
292
100
AcDbEntity
  8
0
100
AcDbSpline
 62
7
  6
BYLAYER
 70
0
 71
3
 72
9
 73
5
 74
0
 42
0.0000001
 43
0.0000001
 44
0.0000000001
 40
0.0
 40
0.0
 40
0.0
 40
0.0
 40
0.234170239
 40
1.0
 40
1.0
 40
1.0
 40
1.0
 10
72.1309083259
 20
82.580310269
 30
0.0
 10
72.1123838389
 20
82.6355602759
 30
0.0
 10
72.0449779257
 20
82.8754134828
 30
0.0
 10
72.0214007324
 20
83.1262967332
 30
0.0
 10
72.0214007324
 20
83.3168719703
 30
0.0
  0
SPLINE
  5
293
100
AcDbEntity
  8
0
100
AcDbSpline
 62
7
  6
BYLAYER
 70
0
 71
3
 72
11
 73
7
 74
0
 42
0.0000001
 43
0.0000001
 44
0.0000000001
 40
0.0
 40
0.0
 40
0.0
 40
0.0
 40
0.2177732482
 40
0.4509008352
 40
0.7103635849
 40
1.0
 40
1.0
 40
1.0
 40
1.0
 10
75.024547955
 20
87.0481296435
 30
0.0
 10
75.1065930879
 20
87.0007157645
 30
0.0
 10
75.2602175269
 20
86.8717454672
 30
0.0
 10
75.423662958
 20
86.6043842014
 30
0.0
 10
75.520693645
 20
86.2749886036
 30
0.0
 10
75.5398463864
 20
86.035250095
 30
0.0
 10
75.5398463864
 20
85.9092200118
 30
0.0
  0
SPLINE
  5
294
100
AcDbEntity
  8
0
100
AcDbSpline
 62
7
  6
BYLAYER
 70
0
 71
3
 72
9
 73
5
 74
0
 42
0.0000001
 43
0.0000001
 44
0.0000000001
 40
0.0
 40
0.0
 40
0.0
 40
0.0
 40
0.2667315975
 40
1.0
 40
1.0
 40
1.0
 40
1.0
 10
74.2664166198
 20
87.2054048084
 30
0.0
 10
74.3235301335
 20
87.2383788362
 30
0.0
 10
74.5415441971
 20
87.3547912846
 30
0.0
 10
74.7768833711
 20
87.4414245012
 30
0.0
 10
74.9544751353
 20
87.4778999665
 30
0.0
  0
SPLINE
  5
295
100
AcDbEntity
  8
0
100
AcDbSpline
 62
7
  6
BYLAYER
 70
0
 71
3
 72
15
 73
11
 74
0
 42
0.0000001
 43
0.0000001
 44
0.0000000001
 40
0.0
 40
0.0
 40
0.0
 40
0.0
 40
0.1265830078
 40
0.2437570426
 40
0.3556470738
 40
0.467488172
 40
0.584492064
 40
0.7108419202
 40
0.8491668047
 40
1.0
 40
1.0
 40
1.0
 40
1.0
 10
74.9544751353
 20
87.4778999665
 30
0.0
 10
75.0616391196
 20
87.4999103126
 30
0.0
 10
75.2727833807
 20
87.5235809347
 30
0.0
 10
75.5810381638
 20
87.4870168955
 30
0.0
 10
75.8579948414
 20
87.376057858
 30
0.0
 10
76.0935018163
 20
87.1931562298
 30
0.0
 10
76.2804634215
 20
86.9457296194
 30
0.0
 10
76.4149897924
 20
86.6418424377
 30
0.0
 10
76.4951674729
 20
86.2899906502
 30
0.0
 10
76.5115100987
 20
86.0395818639
 30
0.0
 10
76.5115100987
 20
85.9092223474
 30
0.0
  0
SPLINE
  5
296
100
AcDbEntity
  8
0
100
AcDbSpline
 62
7
  6
BYLAYER
 70
0
 71
3
 72
17
 73
13
 74
0
 42
0.0000001
 43
0.0000001
 44
0.0000000001
 40
0.0
 40
0.0
 40
0.0
 40
0.0
 40
0.1286926208
 40
0.2702795078
 40
0.4174383051
 40
0.5617803148
 40
0.6954501289
 40
0.8127134773
 40
0.8646759206
 40
0.9125113962
 40
0.9571388332
 40
1.0
 40
1.0
 40
1.0
 40
1.0
 10
53.4592320061
 20
99.3223366418
 30
0.0
 10
53.7008447446
 20
99.4618309888
 30
0.0
 10
54.2478793752
 20
99.6875466584
 30
0.0
 10
55.1394504072
 20
99.8658897681
 30
0.0
 10
56.0824312471
 20
99.8920061574
 30
0.0
 10
56.9998817489
 20
99.7630745161
 30
0.0
 10
57.8174060023
 20
99.4900051052
 30
0.0
 10
58.3860125624
 20
99.1439182022
 30
0.0
 10
58.7196759325
 20
98.8090165077
 30
0.0
 10
58.8969788016
 20
98.5483060988
 30
0.0
 10
59.0061449351
 20
98.2732604882
 30
0.0
 10
59.0310651269
 20
98.0827974739
 30
0.0
 10
59.0310524311
 20
97.9898796804
 30
0.0
  0
SPLINE
  5
297
100
AcDbEntity
  8
0
100
AcDbSpline
 62
7
  6
BYLAYER
 70
0
 71
3
 72
11
 73
7
 74
0
 42
0.0000001
 43
0.0000001
 44
0.0000000001
 40
0.0
 40
0.0
 40
0.0
 40
0.0
 40
0.2505349504
 40
0.5107834929
 40
0.7653918695
 40
1.0
 40
1.0
 40
1.0
 40
1.0
 10
48.1990618272
 20
56.0824280116
 30
0.0
 10
47.383511191
 20
55.8304180789
 30
0.0
 10
45.6647789675
 20
55.488895772
 30
0.0
 10
43.0457101473
 20
55.4294895616
 30
0.0
 10
40.5079444516
 20
55.8066308895
 30
0.0
 10
38.9199926645
 20
56.3612499198
 30
0.0
 10
38.2041430072
 20
56.7169122077
 30
0.0
  0
SPLINE
  5
298
100
AcDbEntity
  8
0
100
AcDbSpline
 62
7
  6
BYLAYER
 70
0
 71
3
 72
17
 73
13
 74
0
 42
0.0000001
 43
0.0000001
 44
0.0000000001
 40
0.0
 40
0.0
 40
0.0
 40
0.0
 40
0.1286839723
 40
0.2702731138
 40
0.4174311221
 40
0.5617769804
 40
0.6954476236
 40
0.8127121074
 40
0.864676385
 40
0.9125098108
 40
0.9571396749
 40
1.0
 40
1.0
 40
1.0
 40
1.0
 10
75.5398463864
 20
85.9092200118
 30
0.0
 10
75.5398463864
 20
85.6965722142
 30
0.0
 10
75.4803588276
 20
85.2494417967
 30
0.0
 10
75.2583272073
 20
84.5929120746
 30
0.0
 10
74.9161643834
 20
83.9604565322
 30
0.0
 10
74.4813946151
 20
83.4039416499
 30
0.0
 10
73.9895407028
 20
82.9683328519
 30
0.0
 10
73.5443538937
 20
82.7248908282
 30
0.0
 10
73.1961013044
 20
82.6322680732
 30
0.0
 10
72.9564205014
 20
82.6146094747
 30
0.0
 10
72.7332405714
 20
82.6473318824
 30
0.0
 10
72.5980175161
 20
82.7035064136
 30
0.0
 10
72.5366951184
 20
82.7389446247
 30
0.0
  0
SPLINE
  5
299
100
AcDbEntity
  8
0
100
AcDbSpline
 62
7
  6
BYLAYER
 70
0
 71
3
 72
17
 73
13
 74
0
 42
0.0000001
 43
0.0000001
 44
0.0000000001
 40
0.0
 40
0.0
 40
0.0
 40
0.0
 40
0.1286926208
 40
0.2702795078
 40
0.4174383051
 40
0.5617803148
 40
0.6954501289
 40
0.8127134773
 40
0.8646759206
 40
0.9125113962
 40
0.9571388332
 40
1.0
 40
1.0
 40
1.0
 40
1.0
 10
99.4376901985
 20
162.1607586811
 30
0.0
 10
99.679302937
 20
162.3002530281
 30
0.0
 10
100.2263375676
 20
162.5259686978
 30
0.0
 10
101.1179085996
 20
162.7043118075
 30
0.0
 10
102.0608894395
 20
162.7304281968
 30
0.0
 10
102.9783399413
 20
162.6014965555
 30
0.0
 10
103.7958641946
 20
162.3284271445
 30
0.0
 10
104.3644707548
 20
161.9823402415
 30
0.0
 10
104.6981341249
 20
161.647438547
 30
0.0
 10
104.875436994
 20
161.3867281382
 30
0.0
 10
104.9846031274
 20
161.1116825275
 30
0.0
 10
105.0095233193
 20
160.9212195133
 30
0.0
 10
105.0095106235
 20
160.8283017197
 30
0.0
  0
SPLINE
  5
29A
100
AcDbEntity
  8
0
100
AcDbSpline
 62
7
  6
BYLAYER
 70
0
 71
3
 72
17
 73
13
 74
0
 42
0.0000001
 43
0.0000001
 44
0.0000000001
 40
0.0
 40
0.0
 40
0.0
 40
0.0
 40
0.1286926208
 40
0.2702795078
 40
0.4174383051
 40
0.5617803148
 40
0.6954501289
 40
0.8127134773
 40
0.8646759206
 40
0.9125113962
 40
0.9571388332
 40
1.0
 40
1.0
 40
1.0
 40
1.0
 10
22.0282047233
 20
117.4686381802
 30
0.0
 10
22.2698174618
 20
117.6081325272
 30
0.0
 10
22.8168520924
 20
117.8338481968
 30
0.0
 10
23.7084231244
 20
118.0121913065
 30
0.0
 10
24.6514039643
 20
118.0383076958
 30
0.0
 10
25.5688544661
 20
117.9093760545
 30
0.0
 10
26.3863787195
 20
117.6363066436
 30
0.0
 10
26.9549852796
 20
117.2902197406
 30
0.0
 10
27.2886486498
 20
116.9553180461
 30
0.0
 10
27.4659515188
 20
116.6946076373
 30
0.0
 10
27.5751176523
 20
116.4195620266
 30
0.0
 10
27.6000378441
 20
116.2290990123
 30
0.0
 10
27.6000251483
 20
116.1361812188
 30
0.0
  0
SPLINE
  5
29B
100
AcDbEntity
  8
0
100
AcDbSpline
 62
7
  6
BYLAYER
 70
0
 71
3
 72
11
 73
7
 74
0
 42
0.0000001
 43
0.0000001
 44
0.0000000001
 40
0.0
 40
0.0
 40
0.0
 40
0.0
 40
0.2177732482
 40
0.4509008352
 40
0.7103635849
 40
1.0
 40
1.0
 40
1.0
 40
1.0
 10
122.2604984885
 20
114.3196556104
 30
0.0
 10
122.3425436215
 20
114.2722417314
 30
0.0
 10
122.4961680605
 20
114.1432714341
 30
0.0
 10
122.6596134916
 20
113.8759101684
 30
0.0
 10
122.7566441785
 20
113.5465145706
 30
0.0
 10
122.77579692
 20
113.3067760619
 30
0.0
 10
122.77579692
 20
113.1807459787
 30
0.0
  0
SPLINE
  5
29C
100
AcDbEntity
  8
0
100
AcDbSpline
 62
7
  6
BYLAYER
 70
0
 71
3
 72
12
 73
8
 74
0
 42
0.0000001
 43
0.0000001
 44
0.0000000001
 40
0.0
 40
0.0
 40
0.0
 40
0.0
 40
0.2895577051
 40
0.5486551372
 40
0.7816333827
 40
0.8918396705
 40
1.0
 40
1.0
 40
1.0
 40
1.0
 10
137.666799652
 20
140.0896713437
 30
0.0
 10
137.9455009386
 20
140.2505786462
 30
0.0
 10
138.4510502148
 20
140.5988313203
 30
0.0
 10
139.0551480798
 20
141.2331839056
 30
0.0
 10
139.3793061764
 20
141.8310891962
 30
0.0
 10
139.505761029
 20
142.3185844285
 30
0.0
 10
139.5266062336
 20
142.5617901516
 30
0.0
 10
139.526606232
 20
142.682000144
 30
0.0
  0
SPLINE
  5
29D
100
AcDbEntity
  8
0
100
AcDbSpline
 62
7
  6
BYLAYER
 70
0
 71
3
 72
9
 73
5
 74
0
 42
0.0000001
 43
0.0000001
 44
0.0000000001
 40
0.0
 40
0.0
 40
0.0
 40
0.0
 40
0.2667315975
 40
1.0
 40
1.0
 40
1.0
 40
1.0
 10
121.5023671533
 20
114.4769307753
 30
0.0
 10
121.559480667
 20
114.5099048031
 30
0.0
 10
121.7774947307
 20
114.6263172515
 30
0.0
 10
122.0128339047
 20
114.7129504681
 30
0.0
 10
122.1904256688
 20
114.7494259334
 30
0.0
  0
SPLINE
  5
29E
100
AcDbEntity
  8
0
100
AcDbSpline
 62
7
  6
BYLAYER
 70
0
 71
3
 72
15
 73
11
 74
0
 42
0.0000001
 43
0.0000001
 44
0.0000000001
 40
0.0
 40
0.0
 40
0.0
 40
0.0
 40
0.1265830078
 40
0.2437570426
 40
0.3556470738
 40
0.467488172
 40
0.584492064
 40
0.7108419202
 40
0.8491668047
 40
1.0
 40
1.0
 40
1.0
 40
1.0
 10
122.1904256688
 20
114.7494259334
 30
0.0
 10
122.2975896532
 20
114.7714362795
 30
0.0
 10
122.5087339143
 20
114.7951069016
 30
0.0
 10
122.8169886974
 20
114.7585428624
 30
0.0
 10
123.093945375
 20
114.647583825
 30
0.0
 10
123.3294523498
 20
114.4646821968
 30
0.0
 10
123.516413955
 20
114.2172555863
 30
0.0
 10
123.650940326
 20
113.9133684046
 30
0.0
 10
123.7311180064
 20
113.5615166171
 30
0.0
 10
123.7474606323
 20
113.3111078309
 30
0.0
 10
123.7474606323
 20
113.1807483143
 30
0.0
  0
SPLINE
  5
29F
100
AcDbEntity
  8
0
100
AcDbSpline
 62
7
  6
BYLAYER
 70
0
 71
3
 72
11
 73
7
 74
0
 42
0.0000001
 43
0.0000001
 44
0.0000000001
 40
0.0
 40
0.0
 40
0.0
 40
0.0
 40
0.2177827477
 40
0.4509152641
 40
0.7103063952
 40
1.0
 40
1.0
 40
1.0
 40
1.0
 10
21.0722551621
 20
116.1361811443
 30
0.0
 10
21.072272148
 20
116.2604970853
 30
0.0
 10
21.1181859001
 20
116.5196138282
 30
0.0
 10
21.3146324609
 20
116.8806483676
 30
0.0
 10
21.6251680571
 20
117.2069966205
 30
0.0
 10
21.8849946588
 20
117.3859563044
 30
0.0
 10
22.0282047233
 20
117.4686381802
 30
0.0
  0
SPLINE
  5
2A0
100
AcDbEntity
  8
0
100
AcDbSpline
 62
7
  6
BYLAYER
 70
0
 71
3
 72
11
 73
7
 74
0
 42
0.0000001
 43
0.0000001
 44
0.0000000001
 40
0.0
 40
0.0
 40
0.0
 40
0.0
 40
0.2177827477
 40
0.4509152641
 40
0.7103063952
 40
1.0
 40
1.0
 40
1.0
 40
1.0
 10
52.5032824449
 20
97.9898796059
 30
0.0
 10
52.5032994308
 20
98.1141955468
 30
0.0
 10
52.5492131829
 20
98.3733122898
 30
0.0
 10
52.7456597437
 20
98.7343468291
 30
0.0
 10
53.0561953398
 20
99.0606950821
 30
0.0
 10
53.3160219415
 20
99.239654766
 30
0.0
 10
53.4592320061
 20
99.3223366418
 30
0.0
  0
SPLINE
  5
2A1
100
AcDbEntity
  8
0
100
AcDbSpline
 62
7
  6
BYLAYER
 70
0
 71
3
 72
11
 73
7
 74
0
 42
0.0000001
 43
0.0000001
 44
0.0000000001
 40
0.0
 40
0.0
 40
0.0
 40
0.0
 40
0.219750745
 40
0.4604002055
 40
0.7212845273
 40
1.0
 40
1.0
 40
1.0
 40
1.0
 10
28.1428432543
 20
103.4853373096
 30
0.0
 10
28.4622568802
 20
103.1147566884
 30
0.0
 10
29.2135864646
 20
102.407463791
 30
0.0
 10
30.552609814
 20
101.5110739836
 30
0.0
 10
32.1199062239
 20
100.7510766126
 30
0.0
 10
33.2585281085
 20
100.3588837876
 30
0.0
 10
33.8549181421
 20
100.1875439416
 30
0.0
  0
SPLINE
  5
2A2
100
AcDbEntity
  8
0
100
AcDbSpline
 62
7
  6
BYLAYER
 70
0
 71
3
 72
11
 73
7
 74
0
 42
0.0000001
 43
0.0000001
 44
0.0000000001
 40
0.0
 40
0.0
 40
0.0
 40
0.0
 40
0.2542190663
 40
0.5164561762
 40
0.7700220201
 40
1.0
 40
1.0
 40
1.0
 40
1.0
 10
52.9351230388
 20
94.7058973928
 30
0.0
 10
53.5474894631
 20
94.5299676103
 30
0.0
 10
54.8313937437
 20
94.3036698146
 30
0.0
 10
56.7708053578
 20
94.3104421264
 30
0.0
 10
58.6188894844
 20
94.6490983623
 30
0.0
 10
59.7550679979
 20
95.107580607
 30
0.0
 10
60.2542310587
 20
95.3957708143
 30
0.0
  0
SPLINE
  5
2A3
100
AcDbEntity
  8
0
100
AcDbSpline
 62
7
  6
BYLAYER
 70
0
 71
3
 72
9
 73
5
 74
0
 42
0.0000001
 43
0.0000001
 44
0.0000000001
 40
0.0
 40
0.0
 40
0.0
 40
0.0
 40
0.2362273801
 40
1.0
 40
1.0
 40
1.0
 40
1.0
 10
28.1031645298
 20
101.4371410797
 30
0.0
 10
28.2284109566
 20
101.2892242626
 30
0.0
 10
28.7849313853
 20
100.6853932408
 30
0.0
 10
29.4352493437
 20
100.1718527497
 30
0.0
 10
29.9584040955
 20
99.8268726917
 30
0.0
  0
SPLINE
  5
2A4
100
AcDbEntity
  8
0
100
AcDbSpline
 62
7
  6
BYLAYER
 70
0
 71
3
 72
11
 73
7
 74
0
 42
0.0000001
 43
0.0000001
 44
0.0000000001
 40
0.0
 40
0.0
 40
0.0
 40
0.0
 40
0.2177827477
 40
0.4509152641
 40
0.7103063952
 40
1.0
 40
1.0
 40
1.0
 40
1.0
 10
129.91276792
 20
142.6820001068
 30
0.0
 10
129.912784906
 20
142.8063160478
 30
0.0
 10
129.958698658
 20
143.0654327907
 30
0.0
 10
130.1551452188
 20
143.4264673301
 30
0.0
 10
130.465680815
 20
143.752815583
 30
0.0
 10
130.7255074167
 20
143.9317752669
 30
0.0
 10
130.8687174812
 20
144.0144571427
 30
0.0
  0
SPLINE
  5
2A5
100
AcDbEntity
  8
0
100
AcDbSpline
 62
7
  6
BYLAYER
 70
0
 71
3
 72
11
 73
7
 74
0
 42
0.0000001
 43
0.0000001
 44
0.0000000001
 40
0.0
 40
0.0
 40
0.0
 40
0.0
 40
0.2177827477
 40
0.4509152641
 40
0.7103063952
 40
1.0
 40
1.0
 40
1.0
 40
1.0
 10
98.4817406373
 20
160.8283016452
 30
0.0
 10
98.4817576232
 20
160.9526175862
 30
0.0
 10
98.5276713752
 20
161.2117343291
 30
0.0
 10
98.724117936
 20
161.5727688685
 30
0.0
 10
99.0346535322
 20
161.8991171215
 30
0.0
 10
99.2944801339
 20
162.0780768054
 30
0.0
 10
99.4376901985
 20
162.1607586811
 30
0.0
  0
SPLINE
  5
2A6
100
AcDbEntity
  8
0
100
AcDbSpline
 62
7
  6
BYLAYER
 70
0
 71
3
 72
9
 73
5
 74
0
 42
0.0000001
 43
0.0000001
 44
0.0000000001
 40
0.0
 40
0.0
 40
0.0
 40
0.0
 40
0.2418021883
 40
1.0
 40
1.0
 40
1.0
 40
1.0
 10
31.3990663038
 20
99.0166195713
 30
0.0
 10
31.5875603991
 20
98.9262471832
 30
0.0
 10
32.3756023358
 20
98.5703428225
 30
0.0
 10
33.1944097867
 20
98.2839248676
 30
0.0
 10
33.8240611957
 20
98.1017914007
 30
0.0
  0
SPLINE
  5
2A7
100
AcDbEntity
  8
0
100
AcDbSpline
 62
7
  6
BYLAYER
 70
0
 71
3
 72
10
 73
6
 74
0
 42
0.0000001
 43
0.0000001
 44
0.0000000001
 40
0.0
 40
0.0
 40
0.0
 40
0.0
 40
0.2361894919
 40
0.4785222682
 40
1.0
 40
1.0
 40
1.0
 40
1.0
 10
17.9830911836
 20
116.1344011083
 30
0.0
 10
17.9830691584
 20
115.9929618706
 30
0.0
 10
18.0122442189
 20
115.7055552307
 30
0.0
 10
18.1885714499
 20
115.1302024682
 30
0.0
 10
18.4441770846
 20
114.7376366573
 30
0.0
 10
18.6480583121
 20
114.5010956152
 30
0.0
  0
SPLINE
  5
2A8
100
AcDbEntity
  8
0
100
AcDbSpline
 62
7
  6
BYLAYER
 70
0
 71
3
 72
15
 73
11
 74
0
 42
0.0000001
 43
0.0000001
 44
0.0000000001
 40
0.0
 40
0.0
 40
0.0
 40
0.0
 40
0.1196812367
 40
0.2459753186
 40
0.3765107783
 40
0.5086276545
 40
0.6395716239
 40
0.7666533228
 40
0.8874627905
 40
1.0
 40
1.0
 40
1.0
 40
1.0
 10
37.2296194959
 20
70.8461448089
 30
0.0
 10
37.792562477
 20
70.6070091422
 30
0.0
 10
38.9842170657
 20
70.1947143656
 30
0.0
 10
40.8669508839
 20
69.7802986453
 30
0.0
 10
42.8463409654
 20
69.5621126113
 30
0.0
 10
44.8612071694
 20
69.5469306177
 30
0.0
 10
46.8496614839
 20
69.7352557057
 30
0.0
 10
48.7508934207
 20
70.1212678929
 30
0.0
 10
50.5061456914
 20
70.6932104363
 30
0.0
 10
51.5871448779
 20
71.2078899487
 30
0.0
 10
52.0852141974
 20
71.4954486878
 30
0.0
  0
SPLINE
  5
2A9
100
AcDbEntity
  8
0
100
AcDbSpline
 62
7
  6
BYLAYER
 70
0
 71
3
 72
11
 73
7
 74
0
 42
0.0000001
 43
0.0000001
 44
0.0000000001
 40
0.0
 40
0.0
 40
0.0
 40
0.0
 40
0.2398396358
 40
0.4926793288
 40
0.7493054002
 40
1.0
 40
1.0
 40
1.0
 40
1.0
 10
49.4981306644
 20
71.2278623149
 30
0.0
 10
48.7898102429
 20
70.9648970181
 30
0.0
 10
47.2855436973
 20
70.5524245936
 30
0.0
 10
44.9352295753
 20
70.2656358832
 30
0.0
 10
42.533691743
 20
70.3020111856
 30
0.0
 10
40.9477027005
 20
70.5469113716
 30
0.0
 10
40.1788077804
 20
70.7272241878
 30
0.0
  0
SPLINE
  5
2AA
100
AcDbEntity
  8
0
100
AcDbSpline
 62
7
  6
BYLAYER
 70
0
 71
3
 72
9
 73
5
 74
0
 42
0.0000001
 43
0.0000001
 44
0.0000000001
 40
0.0
 40
0.0
 40
0.0
 40
0.0
 40
0.263820867
 40
1.0
 40
1.0
 40
1.0
 40
1.0
 10
52.0852141974
 20
71.4954486878
 30
0.0
 10
52.2586907043
 20
71.595604798
 30
0.0
 10
52.9053044191
 20
71.9933362242
 30
0.0
 10
53.5072896146
 20
72.4676699091
 30
0.0
 10
53.9024715982
 20
72.8629822219
 30
0.0
  0
SPLINE
  5
2AB
100
AcDbEntity
  8
0
100
AcDbSpline
 62
7
  6
BYLAYER
 70
0
 71
3
 72
19
 73
15
 74
0
 42
0.0000001
 43
0.0000001
 44
0.0000000001
 40
0.0
 40
0.0
 40
0.0
 40
0.0
 40
0.1363149004
 40
0.287119037
 40
0.4407422329
 40
0.584734674
 40
0.6500205494
 40
0.7096949794
 40
0.7636672631
 40
0.8126422287
 40
0.858254544
 40
0.9029637347
 40
0.9494693882
 40
1.0
 40
1.0
 40
1.0
 40
1.0
 10
123.7474606323
 20
113.1807483143
 30
0.0
 10
123.7474606323
 20
112.8515812128
 30
0.0
 10
123.6364007436
 20
112.1576090781
 30
0.0
 10
123.2385261435
 20
111.163336077
 30
0.0
 10
122.6431560581
 20
110.2506682572
 30
0.0
 10
122.017704292
 20
109.6242483124
 30
0.0
 10
121.4753384116
 20
109.2633308449
 30
0.0
 10
121.0811607581
 20
109.0813407215
 30
0.0
 10
120.6975186839
 20
108.985283296
 30
0.0
 10
120.334931034
 20
108.9799949381
 30
0.0
 10
120.0054486564
 20
109.0694361716
 30
0.0
 10
119.7240657876
 20
109.2527632213
 30
0.0
 10
119.5034111493
 20
109.5203497246
 30
0.0
 10
119.4056477993
 20
109.7361467058
 30
0.0
 10
119.3668588594
 20
109.8518362359
 30
0.0
  0
SPLINE
  5
2AC
100
AcDbEntity
  8
0
100
AcDbSpline
 62
7
  6
BYLAYER
 70
0
 71
3
 72
9
 73
5
 74
0
 42
0.0000001
 43
0.0000001
 44
0.0000000001
 40
0.0
 40
0.0
 40
0.0
 40
0.0
 40
0.234170239
 40
1.0
 40
1.0
 40
1.0
 40
1.0
 10
119.3668588594
 20
109.8518362359
 30
0.0
 10
119.3483343725
 20
109.9070862428
 30
0.0
 10
119.2809284592
 20
110.1469394498
 30
0.0
 10
119.257351266
 20
110.3978227001
 30
0.0
 10
119.257351266
 20
110.5883979373
 30
0.0
  0
SPLINE
  5
2AD
100
AcDbEntity
  8
0
100
AcDbSpline
 62
7
  6
BYLAYER
 70
0
 71
3
 72
17
 73
13
 74
0
 42
0.0000001
 43
0.0000001
 44
0.0000000001
 40
0.0
 40
0.0
 40
0.0
 40
0.0
 40
0.1286839723
 40
0.2702731138
 40
0.4174311221
 40
0.5617769804
 40
0.6954476236
 40
0.8127121074
 40
0.864676385
 40
0.9125098108
 40
0.9571396749
 40
1.0
 40
1.0
 40
1.0
 40
1.0
 10
122.77579692
 20
113.1807459787
 30
0.0
 10
122.77579692
 20
112.9680981812
 30
0.0
 10
122.7163093611
 20
112.5209677636
 30
0.0
 10
122.4942777409
 20
111.8644380416
 30
0.0
 10
122.152114917
 20
111.2319824991
 30
0.0
 10
121.7173451486
 20
110.6754676168
 30
0.0
 10
121.2254912363
 20
110.2398588188
 30
0.0
 10
120.7803044273
 20
109.9964167951
 30
0.0
 10
120.4320518379
 20
109.9037940401
 30
0.0
 10
120.1923710349
 20
109.8861354417
 30
0.0
 10
119.9691911049
 20
109.9188578493
 30
0.0
 10
119.8339680497
 20
109.9750323805
 30
0.0
 10
119.772645652
 20
110.0104705916
 30
0.0
  0
ELLIPSE
  5
2AE
100
AcDbEntity
  8
0
100
AcDbEllipse
 62
7
  6
BYLAYER
 10
71.6335224025
 20
86.3197791891
 30
0.0
 11
5.0801255878
 21
2.2830132413
 31
0.0
 40
0.7133435069
 41
2.8313661658
 42
3.6167770879
  0
ENDSEC
  0
SECTION
  2
OBJECTS
  0
DICTIONARY
  5
C
100
AcDbDictionary
280
0
281
1
  3
ACAD_GROUP
350
D
  3
ACAD_MLINESTYLE
350
17
  3
ACAD_LAYOUT
350
1A
  3
ACAD_PLOTSETTINGS
350
19
  3
ACAD_PLOTSTYLENAME
350
E
  0
DICTIONARY
  5
D
102
{ACAD_REACTORS
330
C
102
}
100
AcDbDictionary
280
0
281
1
  0
ACDBDICTIONARYWDFLT
  5
E
102
{ACAD_REACTORS
330
C
102
}
100
AcDbDictionary
281
1
  3
Normal
350
F
100
AcDbDictionaryWithDefault
340
F
  0
DICTIONARY
  5
17
102
{ACAD_REACTORS
330
C
102
}
100
AcDbDictionary
280
0
281
1
  3
Standard
350
18
  0
DICTIONARY
  5
19
102
{ACAD_REACTORS
330
C
102
}
100
AcDbDictionary
281
1
  0
DICTIONARY
  5
1A
102
{ACAD_REACTORS
330
C
102
}
100
AcDbDictionary
281
1
  3
Model
350
2AF
  3
Layout1
350
2B0
  0
ACDBPLACEHOLDER
  5
F
102
{ACAD_REACTORS
330
E
102
}
  0
MLINESTYLE
  5
18
102
{ACAD_REACTORS
330
17
102
}
100
AcDbMlineStyle
  2
STANDARD
 70
0
  3

 62
256
 51
90.0
 52
90.0
 71
2
 49
0.5
 62
256
  6
BYLAYER
 49
-0.5
 62
256
  6
BYLAYER
  0
LAYOUT
  5
2AF
102
{ACAD_REACTORS
330
1A
102
}
100
AcDbPlotSettings
  1

  2
none_device
  4

  6

 40
0.0
 41
0.0
 42
0.0
 43
0.0
 44
210.0
 45
297.0
 46
0.0
 47
0.0
 48
0.0
 49
0.0
140
0.0
141
0.0
142
1.0
143
1.0
 70
1024
 72
1
 73
0
 74
0
  7

 75
0
147
1.0
148
0.0
149
0.0
100
AcDbLayout
  1
Model
 70
0
 71
0
 10
0.0
 20
0.0
 11
210.0
 21
297.0
 12
0.0
 22
0.0
 32
0.0
 14
0.0
 24
0.0
 34
0.0
 15
0.0
 25
0.0
 35
0.0
146
0.0
 13
0.0
 23
0.0
 33
0.0
 16
1.0
 26
0.0
 36
0.0
 17
0.0
 27
1.0
 37
0.0
 76
0
330
210
345
0
346
0
  0
LAYOUT
  5
2B0
102
{ACAD_REACTORS
330
1A
102
}
100
AcDbPlotSettings
  1

  2
none_device
  4

  6

 40
0.0
 41
0.0
 42
0.0
 43
0.0
 44
210.0
 45
297.0
 46
0.0
 47
0.0
 48
0.0
 49
0.0
140
0.0
141
0.0
142
1.0
143
1.0
 70
0
 72
1
 73
0
 74
0
  7

 75
0
147
1.0
148
0.0
149
0.0
100
AcDbLayout
  1
Layout1
 70
0
 71
1
 10
0.0
 20
0.0
 11
210.0
 21
297.0
 12
0.0
 22
0.0
 32
0.0
 14
0.0
 24
0.0
 34
0.0
 15
0.0
 25
0.0
 35
0.0
146
0.0
 13
0.0
 23
0.0
 33
0.0
 16
1.0
 26
0.0
 36
0.0
 17
0.0
 27
1.0
 37
0.0
 76
0
330
211
345
0
346
0
  0
ENDSEC
  0
EOF
