999
DXF file: C:\Users\sesa63760\Dev\_Creo\CAD\MCADID0002504_3D-CAD\drw0001_1.dxf
999
Pro/ENGINEER 2019471 by Parametric Technology Corporation
  0
SECTION
  2
HEADER
  9
$ACADVER
  1
AC1024
  9
$DWGCODEPAGE
  3
ANSI_1252
  9
$EXTMAX
 10
53.7962563913
 20
76.0832768963
 30
0.0
  9
$EXTMIN
 10
0.0
 20
0.0
 30
0.0
  9
$LIMMIN
 10
0.0
 20
0.0
  9
$LIMMAX
 10
53.7962563913
 20
76.0832768963
  9
$VIEWCTR
 10
26.8981281957
 20
38.0416384481
  9
$VIEWSIZE
 40
76.0832768963
  9
$CLAYER
  8
0
  9
$LTSCALE
 40
4.959502494
  9
$CELTYPE
  6
BYLAYER
  9
$DIMSCALE
 40
1.0
  9
$DIMASZ
 40
0.6404316237
  9
$DIMEXO
 40
1.0
  9
$DIMDLI
 40
3.4265653595
  9
$DIMEXE
 40
1.0
  9
$DIMCEN
 40
0.8115549536
  9
$DIMLFAC
 40
1.0
  9
$DIMBLK
  1
_FILLED
  9
$DIMALT
 70
0
  9
$DIMALTF
 40
0.0393700787
  9
$DIMTXT
 40
0.8966042732
  9
$DIMTOL
 70
1
  9
$DIMLIM
 70
0
  9
$DIMTFAC
 40
1.0
  9
$DIMTP
 40
0.01
  9
$DIMTM
 40
0.01
  9
$DIMGAP
 40
0.625
  9
$DIMDSEP
 70
46
  9
$AUNITS
 70
0
  9
$PDMODE
 70
3
  9
$PDSIZE
 40
0.3125
  9
$HANDSEED
  5
261
  9
$TILEMODE
 70
1
  9
$MEASUREMENT
 70
1
  9
$INSUNITS
 70
4
  0
ENDSEC
  0
SECTION
  2
CLASSES
  0
CLASS
  1
ACDBDICTIONARYWDFLT
  2
AcDbDictionaryWithDefault
  3
AutoCAD 2000
 90
0
 91
1
280
0
281
0
  0
CLASS
  1
ACDBPLACEHOLDER
  2
AcDbPlaceHolder
  3
AutoCAD 2000
 90
0
 91
1
280
0
281
0
  0
CLASS
  1
LAYOUT
  2
AcDbLayout
  3
AutoCAD 2000
 90
0
 91
0
280
0
281
0
  0
ENDSEC
  0
SECTION
  2
TABLES
  0
TABLE
  2
VPORT
  5
8
100
AcDbSymbolTable
 70
2
  0
VPORT
  5
1F4
100
AcDbSymbolTableRecord
100
AcDbViewportTableRecord
  2
*ACTIVE
 70
0
 10
0.0
 20
0.0
 11
1.0
 21
1.0
 12
26.8981281957
 22
38.0416384481
 13
0.0
 23
0.0
 14
1.0
 24
1.0
 15
0.0
 25
0.0
 16
0.0
 26
0.0
 36
1.0
 17
0.0
 27
0.0
 37
0.0
 40
76.0832768963
 41
0.7070707071
 42
50.0
 43
0.0
 44
0.0
 50
0.0
 51
0.0
 71
0
 72
100
 73
1
 74
1
 75
0
 76
0
 77
0
 78
0
  0
ENDTAB
  0
TABLE
  2
LTYPE
  5
5
100
AcDbSymbolTable
 70
6
  0
LTYPE
  5
14
100
AcDbSymbolTableRecord
100
AcDbLinetypeTableRecord
  2
BYBLOCK
 70
0
  3

 72
65
 73
0
 40
0.0
  0
LTYPE
  5
15
100
AcDbSymbolTableRecord
100
AcDbLinetypeTableRecord
  2
BYLAYER
 70
0
  3

 72
65
 73
0
 40
0.0
  0
LTYPE
  5
16
100
AcDbSymbolTableRecord
100
AcDbLinetypeTableRecord
  2
CONTINUOUS
 70
64
  3
Solid line
 72
65
 73
0
 40
0.0
  0
LTYPE
  5
1F5
100
AcDbSymbolTableRecord
100
AcDbLinetypeTableRecord
  2
CENTER
 70
64
  3
____ _ ____ _ ____ _ ____ _ ____ _ ____ _ ____
 72
65
 73
4
 40
0.6
 49
0.375
 74
0
 49
-0.075
 74
0
 49
0.075
 74
0
 49
-0.075
 74
0
  0
LTYPE
  5
1F6
100
AcDbSymbolTableRecord
100
AcDbLinetypeTableRecord
  2
HIDDEN
 70
64
  3
- - - - - - - - - - - - - - - - - - - -
 72
65
 73
2
 40
0.2
 49
0.1
 74
0
 49
-0.1
 74
0
  0
LTYPE
  5
1F7
100
AcDbSymbolTableRecord
100
AcDbLinetypeTableRecord
  2
PHANTOM
 70
64
  3
_____ _ _ _____ _ _ _____ _ _ _____
 72
65
 73
6
 40
0.8
 49
0.45
 74
0
 49
-0.05
 74
0
 49
0.1
 74
0
 49
-0.05
 74
0
 49
0.1
 74
0
 49
-0.05
 74
0
  0
LTYPE
  5
1F8
100
AcDbSymbolTableRecord
100
AcDbLinetypeTableRecord
  2
DOT
 70
64
  3
. . . . . . . . . . . . . . . . . . . .
 72
65
 73
2
 40
0.2
 49
0.1
 74
0
 49
-0.1
 74
0
  0
LTYPE
  5
1F9
100
AcDbSymbolTableRecord
100
AcDbLinetypeTableRecord
  2
DASHED
 70
64
  3
- - - - - - - - - - - - - - - - - - - -
 72
65
 73
2
 40
0.2
 49
0.1
 74
0
 49
-0.1
 74
0
  0
ENDTAB
  0
TABLE
  2
LAYER
  5
2
100
AcDbSymbolTable
 70
36
  0
LAYER
  5
10
100
AcDbSymbolTableRecord
100
AcDbLayerTableRecord
  2
0
 70
0
 62
7
  6
CONTINUOUS
370
-3
390
F
  0
LAYER
  5
1FA
100
AcDbSymbolTableRecord
100
AcDbLayerTableRecord
  2
DEFAULT_1
 70
0
 62
7
  6
CENTER
370
-3
390
F
  0
LAYER
  5
1FB
100
AcDbSymbolTableRecord
100
AcDbLayerTableRecord
  2
DEFAULT_2
 70
0
 62
7
  6
HIDDEN
370
-3
390
F
  0
LAYER
  5
1FC
100
AcDbSymbolTableRecord
100
AcDbLayerTableRecord
  2
DEFAULT_3
 70
0
 62
7
  6
PHANTOM
370
-3
390
F
  0
LAYER
  5
1FD
100
AcDbSymbolTableRecord
100
AcDbLayerTableRecord
  2
00_COMPONENTS
 70
0
 62
7
  6
CONTINUOUS
370
-3
390
F
  0
LAYER
  5
1FE
100
AcDbSymbolTableRecord
100
AcDbLayerTableRecord
  2
01_1_DEFAULT_DATUMS
 70
0
 62
7
  6
CONTINUOUS
370
-3
390
F
  0
LAYER
  5
1FF
100
AcDbSymbolTableRecord
100
AcDbLayerTableRecord
  2
01_PLANES
 70
0
 62
7
  6
CONTINUOUS
370
-3
390
F
  0
LAYER
  5
200
100
AcDbSymbolTableRecord
100
AcDbLayerTableRecord
  2
02_COORD_SYS
 70
0
 62
7
  6
CONTINUOUS
370
-3
390
F
  0
LAYER
  5
201
100
AcDbSymbolTableRecord
100
AcDbLayerTableRecord
  2
03_AXES
 70
0
 62
7
  6
CONTINUOUS
370
-3
390
F
  0
LAYER
  5
202
100
AcDbSymbolTableRecord
100
AcDbLayerTableRecord
  2
04_POINTS
 70
0
 62
7
  6
CONTINUOUS
370
-3
390
F
  0
LAYER
  5
203
100
AcDbSymbolTableRecord
100
AcDbLayerTableRecord
  2
05_CURVES
 70
0
 62
7
  6
CONTINUOUS
370
-3
390
F
  0
LAYER
  5
204
100
AcDbSymbolTableRecord
100
AcDbLayerTableRecord
  2
06_SURFS
 70
0
 62
7
  6
CONTINUOUS
370
-3
390
F
  0
LAYER
  5
205
100
AcDbSymbolTableRecord
100
AcDbLayerTableRecord
  2
07_COSMETICS
 70
0
 62
7
  6
CONTINUOUS
370
-3
390
F
  0
LAYER
  5
206
100
AcDbSymbolTableRecord
100
AcDbLayerTableRecord
  2
10_NOTES
 70
0
 62
7
  6
CONTINUOUS
370
-3
390
F
  0
LAYER
  5
207
100
AcDbSymbolTableRecord
100
AcDbLayerTableRecord
  2
11_NOTES_PUB
 70
0
 62
7
  6
CONTINUOUS
370
-3
390
F
  0
LAYER
  5
208
100
AcDbSymbolTableRecord
100
AcDbLayerTableRecord
  2
13_REF_GTOL
 70
0
 62
7
  6
CONTINUOUS
370
-3
390
F
  0
LAYER
  5
209
100
AcDbSymbolTableRecord
100
AcDbLayerTableRecord
  2
16_MISC
 70
0
 62
7
  6
CONTINUOUS
370
-3
390
F
  0
LAYER
  5
20A
100
AcDbSymbolTableRecord
100
AcDbLayerTableRecord
  2
17_NO_PRINT
 70
0
 62
7
  6
CONTINUOUS
370
-3
390
F
  0
LAYER
  5
20B
100
AcDbSymbolTableRecord
100
AcDbLayerTableRecord
  2
18_DATUM_CAMS_JOINTS
 70
0
 62
7
  6
CONTINUOUS
370
-3
390
F
  0
LAYER
  5
20C
100
AcDbSymbolTableRecord
100
AcDbLayerTableRecord
  2
19_DATUM_FUNCTIONAL
 70
0
 62
7
  6
CONTINUOUS
370
-3
390
F
  0
LAYER
  5
20D
100
AcDbSymbolTableRecord
100
AcDbLayerTableRecord
  2
20_DATUM_KINEMATIC_SCHEME
 70
0
 62
7
  6
CONTINUOUS
370
-3
390
F
  0
ENDTAB
  0
TABLE
  2
STYLE
  5
3
100
AcDbSymbolTable
 70
1
  0
STYLE
  5
11
100
AcDbSymbolTableRecord
100
AcDbTextStyleTableRecord
  2
STANDARD
 70
0
 40
0.0
 41
1.0
 50
0.0
 71
0
 42
0.2
  3
ARIAL.TTF
  4

  0
STYLE
  5
20E
100
AcDbSymbolTableRecord
100
AcDbTextStyleTableRecord
  2
TEXTSTYLE_1
 70
0
 40
0.0
 41
0.8
 50
0.0
 71
0
 42
0.2
  3
gdt
  4

  0
ENDTAB
  0
TABLE
  2
VIEW
  5
6
100
AcDbSymbolTable
 70
0
  0
ENDTAB
  0
TABLE
  2
UCS
  5
7
100
AcDbSymbolTable
 70
0
  0
ENDTAB
  0
TABLE
  2
APPID
  5
9
100
AcDbSymbolTable
 70
1
  0
APPID
  5
20F
100
AcDbSymbolTableRecord
100
AcDbRegAppTableRecord
  2
ACAD
 70
0
  0
ENDTAB
  0
TABLE
  2
BLOCK_RECORD
  5
1
100
AcDbSymbolTable
 70
0
  0
BLOCK_RECORD
  5
210
100
AcDbSymbolTableRecord
100
AcDbBlockTableRecord
  2
*Model_Space
  0
BLOCK_RECORD
  5
211
100
AcDbSymbolTableRecord
100
AcDbBlockTableRecord
  2
*Paper_Space
  0
BLOCK_RECORD
  5
212
100
AcDbSymbolTableRecord
100
AcDbBlockTableRecord
  2
_FILLED
  0
ENDTAB
  0
TABLE
  2
DIMSTYLE
  5
A
100
AcDbSymbolTable
 70
1
100
AcDbDimStyleTable
 71
0
  0
DIMSTYLE
105
213
100
AcDbSymbolTableRecord
100
AcDbDimStyleTableRecord
  2
STANDARD
 70
0
  3

  4

 40
1.0
 41
0.6404316237
 42
1.0
 43
0.38
 44
1.0
 45
0.0
 46
0.0
 47
0.01
 48
0.01
140
0.8966042732
141
0.09
142
0.0
143
25.4
144
1.0
145
0.0
146
1.0
147
0.625
 71
1
 72
0
 73
0
 74
0
 75
0
 76
0
 77
1
 78
8
 79
2
170
0
171
1
172
0
173
0
174
0
175
0
176
0
177
0
178
0
270
2
179
2
271
2
272
2
273
2
274
2
275
0
280
0
281
0
282
0
283
1
284
8
285
0
286
0
287
3
288
0
340
11
278
46
341
212
342
212
343
212
344
212
  0
ENDTAB
  0
ENDSEC
  0
SECTION
  2
BLOCKS
  0
BLOCK
  5
20
100
AcDbEntity
  8
0
100
AcDbBlockBegin
  2
*Model_Space
 70
0
 10
0.0
 20
0.0
 30
0.0
  3
*Model_Space
  1

  0
ENDBLK
  5
21
100
AcDbEntity
  8
0
100
AcDbBlockEnd
  0
BLOCK
  5
1C
100
AcDbEntity
  8
0
100
AcDbBlockBegin
  2
*Paper_Space
 70
0
 10
0.0
 20
0.0
 30
0.0
  3
*Paper_Space
  1

  0
ENDBLK
  5
1D
100
AcDbEntity
  8
0
100
AcDbBlockEnd
  0
BLOCK
  5
214
100
AcDbEntity
  8
0
100
AcDbBlockBegin
  2
_FILLED
 70
64
 10
0.0
 20
0.0
  3
_FILLED
  1

  0
SOLID
  5
215
100
AcDbEntity
  8
0
  6
BYBLOCK
 62
0
100
AcDbTrace
 10
0.0
 20
0.0
 11
-1.0
 21
0.25
 12
-1.0
 22
-0.25
 13
-1.0
 23
-0.25
  0
ENDBLK
  5
216
100
AcDbEntity
  8
0
  6
BYBLOCK
 62
0
100
AcDbBlockEnd
  0
ENDSEC
  0
SECTION
  2
ENTITIES
  0
LINE
  5
217
100
AcDbEntity
  8
0
100
AcDbLine
 62
7
  6
BYLAYER
 10
6.2327598583
 20
30.8758071481
 11
6.2327598583
 21
25.6910167993
  0
LINE
  5
218
100
AcDbEntity
  8
0
100
AcDbLine
 62
7
  6
BYLAYER
 10
10.9952598583
 20
30.8758071481
 11
10.9952598583
 21
34.8940196684
  0
LINE
  5
219
100
AcDbEntity
  8
0
100
AcDbLine
 62
7
  6
BYLAYER
 10
13.6146348583
 20
35.4124987032
 11
13.6146348583
 21
34.8940196684
  0
LINE
  5
21A
100
AcDbEntity
  8
0
100
AcDbLine
 62
7
  6
BYLAYER
 10
17.9008848583
 20
35.4124987032
 11
17.9008848583
 21
34.8940196684
  0
LINE
  5
21B
100
AcDbEntity
  8
0
100
AcDbLine
 62
7
  6
BYLAYER
 10
18.8052814889
 20
29.0869095345
 11
18.8052814889
 21
32.3274035025
  0
LINE
  5
21C
100
AcDbEntity
  8
0
100
AcDbLine
 62
7
  6
BYLAYER
 10
30.6530388558
 20
50.6851131936
 11
26.911919981
 21
48.0912284712
  0
LINE
  5
21D
100
AcDbEntity
  8
0
100
AcDbLine
 62
7
  6
BYLAYER
 10
20.5202598583
 20
34.4403505129
 11
20.5202598583
 21
34.8940196684
  0
LINE
  5
21E
100
AcDbEntity
  8
0
100
AcDbLine
 62
7
  6
BYLAYER
 10
21.524735897
 20
38.9040490965
 11
22.6472632386
 21
40.8483342779
  0
LINE
  5
21F
100
AcDbEntity
  8
0
100
AcDbLine
 62
7
  6
BYLAYER
 10
25.6368521927
 20
45.5869200696
 11
13.7165845798
 21
37.3220664034
  0
LINE
  5
220
100
AcDbEntity
  8
0
100
AcDbLine
 62
7
  6
BYLAYER
 10
26.911919981
 20
48.0912284712
 11
25.6368521927
 21
45.5869200696
  0
LINE
  5
221
100
AcDbEntity
  8
0
100
AcDbLine
 62
7
  6
BYLAYER
 10
30.4909230378
 20
45.3768463429
 11
22.6472632386
 21
40.8483342779
  0
LWPOLYLINE
  5
222
100
AcDbEntity
  8
0
100
AcDbPolyline
 62
7
  6
BYLAYER
 90
3
 70
0
 10
25.2825377956
 20
30.8758072446
 10
25.2744588908
 20
31.1052628274
 10
24.9352107859
 20
32.033908507
  0
LINE
  5
223
100
AcDbEntity
  8
0
100
AcDbLine
 62
7
  6
BYLAYER
 10
25.2827598583
 20
30.8758071481
 11
25.2827598583
 21
25.6910167993
  0
LINE
  5
224
100
AcDbEntity
  8
0
100
AcDbLine
 62
7
  6
BYLAYER
 10
24.6117024437
 20
39.7141904318
 11
23.4891751022
 21
37.7699052503
  0
LINE
  5
225
100
AcDbEntity
  8
0
100
AcDbLine
 62
7
  6
BYLAYER
 10
32.455362243
 20
44.2427024968
 11
24.6117024437
 21
39.7141904318
  0
LINE
  5
226
100
AcDbEntity
  8
0
100
AcDbLine
 62
7
  6
BYLAYER
 10
23.4891751022
 20
37.7699052503
 11
31.3328349014
 21
42.2984173153
  0
LINE
  5
227
100
AcDbEntity
  8
0
100
AcDbLine
 62
7
  6
BYLAYER
 10
21.524735897
 20
38.9040490965
 11
23.4891751022
 21
37.7699052503
  0
LINE
  5
228
100
AcDbEntity
  8
0
100
AcDbLine
 62
7
  6
BYLAYER
 10
27.3564768436
 20
48.3994595894
 11
27.3564533263
 21
51.6606322893
  0
LINE
  5
229
100
AcDbEntity
  8
0
100
AcDbLine
 62
7
  6
BYLAYER
 10
36.5956289707
 20
42.5004629592
 11
45.5325640906
 21
46.7969462202
  0
LINE
  5
22A
100
AcDbEntity
  8
0
100
AcDbLine
 62
7
  6
BYLAYER
 10
24.6117024437
 20
39.7141904318
 11
22.6472632386
 21
40.8483342779
  0
LINE
  5
22B
100
AcDbEntity
  8
0
100
AcDbLine
 62
7
  6
BYLAYER
 10
31.3328349014
 20
42.2984173153
 11
32.455362243
 21
44.2427024968
  0
LINE
  5
22C
100
AcDbEntity
  8
0
100
AcDbLine
 62
7
  6
BYLAYER
 10
18.8052814889
 20
32.3274035025
 11
35.0643784049
 21
40.1440584072
  0
LWPOLYLINE
  5
22D
100
AcDbEntity
  8
0
100
AcDbPolyline
 62
7
  6
BYLAYER
 90
3
 70
0
 10
11.2722823321
 20
35.647447242
 10
10.229113122
 20
35.3538260692
 10
9.0225397263
 20
34.7643003349
  0
LINE
  5
22E
100
AcDbEntity
  8
0
100
AcDbLine
 62
7
  6
BYLAYER
 10
36.5956289707
 20
36.0194750233
 11
35.0643784049
 21
36.9035644392
  0
LINE
  5
22F
100
AcDbEntity
  8
0
100
AcDbLine
 62
7
  6
BYLAYER
 10
31.3252033261
 20
54.9011548772
 11
31.3252284418
 21
51.4183391689
  0
LINE
  5
230
100
AcDbEntity
  8
0
100
AcDbLine
 62
7
  6
BYLAYER
 10
35.0643784049
 20
40.1440584072
 11
36.5956289707
 21
42.5004629592
  0
LINE
  5
231
100
AcDbEntity
  8
0
100
AcDbLine
 62
7
  6
BYLAYER
 10
35.0643784049
 20
36.9035644392
 11
18.8052814889
 21
29.0869095345
  0
LINE
  5
232
100
AcDbEntity
  8
0
100
AcDbLine
 62
7
  6
BYLAYER
 10
35.0643784049
 20
40.1440584072
 11
31.3328349014
 21
42.2984173153
  0
LINE
  5
233
100
AcDbEntity
  8
0
100
AcDbLine
 62
7
  6
BYLAYER
 10
28.2458396095
 20
44.0806545585
 11
25.6368521927
 21
45.5869200696
  0
LINE
  5
234
100
AcDbEntity
  8
0
100
AcDbLine
 62
7
  6
BYLAYER
 10
34.9335137077
 20
50.1620617291
 11
34.9335137077
 21
50.6851234825
  0
LINE
  5
235
100
AcDbEntity
  8
0
100
AcDbLine
 62
7
  6
BYLAYER
 10
34.8973011974
 20
50.318524509
 11
34.9335137077
 21
50.6851234825
  0
LINE
  5
236
100
AcDbEntity
  8
0
100
AcDbLine
 62
7
  6
BYLAYER
 10
45.5325640906
 20
40.3159582842
 11
36.5956289707
 21
36.0194750233
  0
LINE
  5
237
100
AcDbEntity
  8
0
100
AcDbLine
 62
7
  6
BYLAYER
 10
35.2338813361
 20
51.4183485642
 11
35.2338813361
 21
49.3088041756
  0
LINE
  5
238
100
AcDbEntity
  8
0
100
AcDbLine
 62
7
  6
BYLAYER
 10
32.455362243
 20
44.2427024968
 11
30.4909230378
 21
45.3768463429
  0
LINE
  5
239
100
AcDbEntity
  8
0
100
AcDbLine
 62
7
  6
BYLAYER
 10
36.5956289707
 20
42.5004629592
 11
26.911919981
 21
48.0912284712
  0
LINE
  5
23A
100
AcDbEntity
  8
0
100
AcDbLine
 62
7
  6
BYLAYER
 10
34.9335137077
 20
50.6851234825
 11
30.6530388558
 21
50.6851131936
  0
LINE
  5
23B
100
AcDbEntity
  8
0
100
AcDbLine
 62
7
  6
BYLAYER
 10
31.3252284418
 20
51.4183391689
 11
35.2338813361
 21
51.4183485642
  0
LINE
  5
23C
100
AcDbEntity
  8
0
100
AcDbLine
 62
7
  6
BYLAYER
 10
40.4533283261
 20
54.9011768185
 11
31.3252033261
 21
54.9011548772
  0
LINE
  5
23D
100
AcDbEntity
  8
0
100
AcDbLine
 62
7
  6
BYLAYER
 10
45.5325640906
 20
46.7969462202
 11
45.5325640906
 21
40.3159582842
  0
LINE
  5
23E
100
AcDbEntity
  8
0
100
AcDbLine
 62
7
  6
BYLAYER
 10
48.390861373
 20
43.8375366348
 11
48.390861373
 21
50.3185245708
  0
SPLINE
  5
23F
100
AcDbEntity
  8
0
100
AcDbSpline
 62
7
  6
BYLAYER
 70
0
 71
3
 72
26
 73
22
 74
0
 42
0.0000001
 43
0.0000001
 44
0.0000000001
 40
0.0
 40
0.0
 40
0.0
 40
0.0
 40
0.0623768569
 40
0.1287154312
 40
0.1983021067
 40
0.27027449
 40
0.3436471468
 40
0.4173757234
 40
0.4903966805
 40
0.5616797404
 40
0.630273324
 40
0.6953570308
 40
0.7563006705
 40
0.8127341012
 40
0.8646309885
 40
0.8890163541
 40
0.9124637816
 40
0.9351070445
 40
0.9571105421
 40
0.978669496
 40
1.0
 40
1.0
 40
1.0
 40
1.0
 10
22.4929799904
 20
21.8025236125
 30
0.0
 10
22.1507787812
 20
21.6049548316
 30
0.0
 10
21.4173988315
 20
21.2433707974
 30
0.0
 10
20.2343886057
 20
20.8147005168
 30
0.0
 10
18.9559408284
 20
20.490177908
 30
0.0
 10
17.6094641816
 20
20.2766542013
 30
0.0
 10
16.2234624626
 20
20.1786838781
 30
0.0
 10
14.8275274945
 20
20.1983176518
 30
0.0
 10
13.4514290181
 20
20.335162644
 30
0.0
 10
12.1245038689
 20
20.586295666
 30
0.0
 10
10.874937334
 20
20.9464230293
 30
0.0
 10
9.7291651113
 20
21.4080062622
 30
0.0
 10
8.7111976758
 20
21.9617139554
 30
0.0
 10
7.8425502764
 20
22.5963530998
 30
0.0
 10
7.2461453126
 20
23.1954591241
 30
0.0
 10
6.8679351437
 20
23.7026434671
 30
0.0
 10
6.6382535131
 20
24.0864535932
 30
0.0
 10
6.4579760814
 20
24.4793347569
 30
0.0
 10
6.3283777863
 20
24.8792754082
 30
0.0
 10
6.250209308
 20
25.2838875354
 30
0.0
 10
6.2327681698
 20
25.555894147
 30
0.0
 10
6.2327768956
 20
25.6910167148
 30
0.0
  0
SPLINE
  5
240
100
AcDbEntity
  8
0
100
AcDbSpline
 62
7
  6
BYLAYER
 70
0
 71
3
 72
22
 73
18
 74
0
 42
0.0000001
 43
0.0000001
 44
0.0000000001
 40
0.0
 40
0.0
 40
0.0
 40
0.0
 40
0.042817792
 40
0.0874047579
 40
0.1351916362
 40
0.18710842
 40
0.2435607516
 40
0.3045240729
 40
0.3696305257
 40
0.4382455394
 40
0.5095534022
 40
0.582597067
 40
0.7296203677
 40
0.8016152723
 40
0.8712274255
 40
0.9376271491
 40
1.0
 40
1.0
 40
1.0
 40
1.0
 10
17.9008723228
 20
35.4124987023
 30
0.0
 10
17.9008618584
 20
35.4735053148
 30
0.0
 10
17.8845794583
 20
35.59857352
 30
0.0
 10
17.8128119433
 20
35.7791384918
 30
0.0
 10
17.6964633584
 20
35.9503523385
 30
0.0
 10
17.5386946728
 20
36.1087473829
 30
0.0
 10
17.3432302401
 20
36.2515825116
 30
0.0
 10
17.1142092664
 20
36.3761684679
 30
0.0
 10
16.8564060446
 20
36.4800028332
 30
0.0
 10
16.575275635
 20
36.5610515231
 30
0.0
 10
16.2766997957
 20
36.6175548735
 30
0.0
 10
15.8632124955
 20
36.6586560092
 30
0.0
 10
15.4448091344
 20
36.6471106335
 30
0.0
 10
15.0382311281
 20
36.582708808
 30
0.0
 10
14.7505036237
 20
36.5096836552
 30
0.0
 10
14.4843418883
 20
36.4131667909
 30
0.0
 10
14.319297892
 20
36.3318437617
 30
0.0
 10
14.2423353286
 20
36.2874096703
 30
0.0
  0
SPLINE
  5
241
100
AcDbEntity
  8
0
100
AcDbSpline
 62
7
  6
BYLAYER
 70
0
 71
3
 72
15
 73
11
 74
0
 42
0.0000001
 43
0.0000001
 44
0.0000000001
 40
0.0
 40
0.0
 40
0.0
 40
0.0
 40
0.1485648376
 40
0.2895093528
 40
0.4227286073
 40
0.5486396178
 40
0.6680017783
 40
0.7819380692
 40
0.8919858987
 40
1.0
 40
1.0
 40
1.0
 40
1.0
 10
9.0225397263
 20
34.7643003349
 30
0.0
 10
8.8077484283
 20
34.6402912614
 30
0.0
 10
8.398911458
 20
34.3811217056
 30
0.0
 10
7.8399278372
 20
33.9485225121
 30
0.0
 10
7.3564416323
 20
33.4857316061
 30
0.0
 10
6.9533267957
 20
32.9970534492
 30
0.0
 10
6.6345521639
 20
32.4868655569
 30
0.0
 10
6.4038750392
 20
31.9596744145
 30
0.0
 10
6.2640764347
 20
31.4209035975
 30
0.0
 10
6.2327888866
 20
31.0561295169
 30
0.0
 10
6.2327770953
 20
30.875807056
 30
0.0
  0
SPLINE
  5
242
100
AcDbEntity
  8
0
100
AcDbSpline
 62
7
  6
BYLAYER
 70
0
 71
3
 72
24
 73
20
 74
0
 42
0.0000001
 43
0.0000001
 44
0.0000000001
 40
0.0
 40
0.0
 40
0.0
 40
0.0
 40
0.0213183173
 40
0.0428476852
 40
0.0872545394
 40
0.1346487003
 40
0.1859311108
 40
0.241542325
 40
0.3015228225
 40
0.3655893813
 40
0.4332125994
 40
0.5036806732
 40
0.576148786
 40
0.649683262
 40
0.723312869
 40
0.796059874
 40
0.8669718768
 40
0.9352193686
 40
1.0
 40
1.0
 40
1.0
 40
1.0
 10
20.5202338132
 20
34.8940196772
 30
0.0
 10
20.5202324862
 20
34.9589657838
 30
0.0
 10
20.5121917239
 20
35.0896507723
 30
0.0
 10
20.4636371446
 20
35.3515503442
 30
0.0
 10
20.3397990855
 20
35.6773494797
 30
0.0
 10
20.1004994864
 20
36.0449683253
 30
0.0
 10
19.7753814924
 20
36.3874981391
 30
0.0
 10
19.3714329836
 20
36.6989708355
 30
0.0
 10
18.8966527418
 20
36.9740099472
 30
0.0
 10
18.36027838
 20
37.2076217498
 30
0.0
 10
17.7727413868
 20
37.3954352649
 30
0.0
 10
17.1455130478
 20
37.5338197053
 30
0.0
 10
16.4909134728
 20
37.6200469389
 30
0.0
 10
15.8218468967
 20
37.6524699359
 30
0.0
 10
15.1515071832
 20
37.6304321989
 30
0.0
 10
14.4931579077
 20
37.554348224
 30
0.0
 10
13.8596583544
 20
37.4257483602
 30
0.0
 10
13.2636987057
 20
37.2470890827
 30
0.0
 10
12.8881047046
 20
37.0924770165
 30
0.0
 10
12.7102382278
 20
37.0069666787
 30
0.0
  0
SPLINE
  5
243
100
AcDbEntity
  8
0
100
AcDbSpline
 62
7
  6
BYLAYER
 70
0
 71
3
 72
11
 73
7
 74
0
 42
0.0000001
 43
0.0000001
 44
0.0000000001
 40
0.0
 40
0.0
 40
0.0
 40
0.0
 40
0.2434707847
 40
0.4897579157
 40
0.7413236999
 40
1.0
 40
1.0
 40
1.0
 40
1.0
 10
27.3564827454
 20
51.6606322823
 30
0.0
 10
27.3564813141
 20
51.827336278
 30
0.0
 10
27.388445725
 20
52.1635104588
 30
0.0
 10
27.5307435787
 20
52.6536375442
 30
0.0
 10
27.763560971
 20
53.1193084184
 30
0.0
 10
27.9721388753
 20
53.4019362818
 30
0.0
 10
28.08830695
 20
53.5356328292
 30
0.0
  0
SPLINE
  5
244
100
AcDbEntity
  8
0
100
AcDbSpline
 62
7
  6
BYLAYER
 70
0
 71
3
 72
12
 73
8
 74
0
 42
0.0000001
 43
0.0000001
 44
0.0000000001
 40
0.0
 40
0.0
 40
0.0
 40
0.0
 40
0.1168244587
 40
0.2365041405
 40
0.4836053048
 40
0.7394021978
 40
1.0
 40
1.0
 40
1.0
 40
1.0
 10
28.08830695
 20
53.5356328292
 30
0.0
 10
28.1806229652
 20
53.641878306
 30
0.0
 10
28.3813187053
 20
53.8453646186
 30
0.0
 10
28.8377308968
 20
54.2092569807
 30
0.0
 10
29.501267058
 20
54.5730364077
 30
0.0
 10
30.3872959369
 20
54.8407588531
 30
0.0
 10
31.0112370343
 20
54.9011541225
 30
0.0
 10
31.3252033261
 20
54.9011548772
 30
0.0
  0
SPLINE
  5
245
100
AcDbEntity
  8
0
100
AcDbSpline
 62
7
  6
BYLAYER
 70
0
 71
3
 72
15
 73
11
 74
0
 42
0.0000001
 43
0.0000001
 44
0.0000000001
 40
0.0
 40
0.0
 40
0.0
 40
0.0
 40
0.1080096916
 40
0.2180559241
 40
0.3319966178
 40
0.4513535231
 40
0.5772591985
 40
0.7104909687
 40
0.8514574038
 40
1.0
 40
1.0
 40
1.0
 40
1.0
 10
46.0095958569
 20
50.3185245141
 30
0.0
 10
46.0096056702
 20
50.2133408714
 30
0.0
 10
45.9913233312
 20
50.0005645507
 30
0.0
 10
45.9098166089
 20
49.6862728479
 30
0.0
 10
45.7752025874
 20
49.3787704075
 30
0.0
 10
45.5893098377
 20
49.0811343069
 30
0.0
 10
45.3541348259
 20
48.796087423
 30
0.0
 10
45.0720950843
 20
48.5260936345
 30
0.0
 10
44.7459916525
 20
48.2737630449
 30
0.0
 10
44.5075157531
 20
48.1225645616
 30
0.0
 10
44.3822397834
 20
48.0502368785
 30
0.0
  0
SPLINE
  5
246
100
AcDbEntity
  8
0
100
AcDbSpline
 62
7
  6
BYLAYER
 70
0
 71
3
 72
14
 73
10
 74
0
 42
0.0000001
 43
0.0000001
 44
0.0000000001
 40
0.0
 40
0.0
 40
0.0
 40
0.0
 40
0.115388103
 40
0.2334818577
 40
0.3545278239
 40
0.4785877733
 40
0.6055305487
 40
0.7350764421
 40
1.0
 40
1.0
 40
1.0
 40
1.0
 10
27.6581617334
 20
48.6838414288
 30
0.0
 10
27.7204230897
 20
48.8066764829
 30
0.0
 10
27.8641065051
 20
49.0466282813
 30
0.0
 10
28.1284368502
 20
49.3784622558
 30
0.0
 10
28.4400474676
 20
49.681409032
 30
0.0
 10
28.7941711794
 20
49.9509522305
 30
0.0
 10
29.1855761894
 20
50.1833420583
 30
0.0
 10
29.7530862858
 20
50.4407800085
 30
0.0
 10
30.2115945921
 20
50.565721403
 30
0.0
 10
30.5233770625
 20
50.6182744566
 30
0.0
  0
SPLINE
  5
247
100
AcDbEntity
  8
0
100
AcDbSpline
 62
7
  6
BYLAYER
 70
0
 71
3
 72
21
 73
17
 74
0
 42
0.0000001
 43
0.0000001
 44
0.0000000001
 40
0.0
 40
0.0
 40
0.0
 40
0.0
 40
0.045056497
 40
0.0909622077
 40
0.1384908249
 40
0.1882798428
 40
0.2408064781
 40
0.2963796614
 40
0.3551522743
 40
0.4171429867
 40
0.4822481447
 40
0.5502721098
 40
0.6209350777
 40
0.6938918909
 40
0.8449736029
 40
1.0
 40
1.0
 40
1.0
 40
1.0
 10
48.3908547477
 20
50.3185245706
 30
0.0
 10
48.3908547666
 20
50.4687924608
 30
0.0
 10
48.3647186195
 20
50.7727656334
 30
0.0
 10
48.2482877038
 20
51.2217635556
 30
0.0
 10
48.0559928046
 20
51.6610668777
 30
0.0
 10
47.7903893893
 20
52.0862628762
 30
0.0
 10
47.4544124767
 20
52.4934878412
 30
0.0
 10
47.0515301767
 20
52.87908449
 30
0.0
 10
46.5857364839
 20
53.2396796045
 30
0.0
 10
46.0614357357
 20
53.5719240581
 30
0.0
 10
45.4836819165
 20
53.8729020343
 30
0.0
 10
44.8578986112
 20
54.1396988689
 30
0.0
 10
44.1900491463
 20
54.3699261445
 30
0.0
 10
43.2410618557
 20
54.6280543668
 30
0.0
 10
41.9921392434
 20
54.8438559576
 30
0.0
 10
40.9703567504
 20
54.9011780613
 30
0.0
 10
40.4533283261
 20
54.9011768185
 30
0.0
  0
SPLINE
  5
248
100
AcDbEntity
  8
0
100
AcDbSpline
 62
7
  6
BYLAYER
 70
0
 71
3
 72
15
 73
11
 74
0
 42
0.0000001
 43
0.0000001
 44
0.0000000001
 40
0.0
 40
0.0
 40
0.0
 40
0.0
 40
0.1107199522
 40
0.22307979
 40
0.3386059994
 40
0.4585952322
 40
0.5840963018
 40
0.7159040131
 40
0.8545202965
 40
1.0
 40
1.0
 40
1.0
 40
1.0
 10
48.390854853
 20
43.8375366346
 30
0.0
 10
48.3908550172
 20
43.7047466391
 30
0.0
 10
48.3705282076
 20
43.4367800003
 30
0.0
 10
48.2798059494
 20
43.039530515
 30
0.0
 10
48.1295274397
 20
42.6488767646
 30
0.0
 10
47.9213826353
 20
42.267878986
 30
0.0
 10
47.657013985
 20
41.8993714155
 30
0.0
 10
47.3386399258
 20
41.5458748031
 30
0.0
 10
46.9687621092
 20
41.2101296396
 30
0.0
 10
46.6964287185
 20
41.0045442028
 30
0.0
 10
46.553043492
 20
40.9051288245
 30
0.0
  0
SPLINE
  5
249
100
AcDbEntity
  8
0
100
AcDbSpline
 62
7
  6
BYLAYER
 70
0
 71
3
 72
9
 73
5
 74
0
 42
0.0000001
 43
0.0000001
 44
0.0000000001
 40
0.0
 40
0.0
 40
0.0
 40
0.0
 40
0.2415069015
 40
1.0
 40
1.0
 40
1.0
 40
1.0
 10
46.553043492
 20
40.9051288245
 30
0.0
 10
46.4750419792
 20
40.8510468936
 30
0.0
 10
46.1471639942
 20
40.6342092613
 30
0.0
 10
45.8012292229
 20
40.4451206009
 30
0.0
 10
45.5325640906
 20
40.3159582842
 30
0.0
  0
SPLINE
  5
24A
100
AcDbEntity
  8
0
100
AcDbSpline
 62
7
  6
BYLAYER
 70
0
 71
3
 72
15
 73
11
 74
0
 42
0.0000001
 43
0.0000001
 44
0.0000000001
 40
0.0
 40
0.0
 40
0.0
 40
0.0
 40
0.1080126507
 40
0.2180593103
 40
0.3319947875
 40
0.4513563837
 40
0.577267038
 40
0.7104871234
 40
0.8514341404
 40
1.0
 40
1.0
 40
1.0
 40
1.0
 10
25.282742821
 20
25.6910168838
 30
0.0
 10
25.2827311765
 20
25.5106968527
 30
0.0
 10
25.2514442339
 20
25.1459271926
 30
0.0
 10
25.1116485428
 20
24.6071615999
 30
0.0
 10
24.8809743605
 20
24.0799739471
 30
0.0
 10
24.5622046888
 20
23.5697864101
 30
0.0
 10
24.1590912278
 20
23.0811073329
 30
0.0
 10
23.6756038891
 20
22.61831036
 30
0.0
 10
23.1166135076
 20
22.1857079881
 30
0.0
 10
22.7077727562
 20
21.9265335334
 30
0.0
 10
22.4929799904
 20
21.8025236125
 30
0.0
  0
SPLINE
  5
24B
100
AcDbEntity
  8
0
100
AcDbSpline
 62
7
  6
BYLAYER
 70
0
 71
3
 72
25
 73
21
 74
0
 42
0.0000001
 43
0.0000001
 44
0.0000000001
 40
0.0
 40
0.0
 40
0.0
 40
0.0
 40
0.0623741894
 40
0.128725075
 40
0.1983103597
 40
0.270286925
 40
0.3436629253
 40
0.4173936158
 40
0.4904173434
 40
0.5617035291
 40
0.6303008193
 40
0.695387952
 40
0.7563351271
 40
0.81277235
 40
0.8646733325
 40
0.9124483899
 40
0.935090628
 40
0.9570938621
 40
0.9786578686
 40
1.0
 40
1.0
 40
1.0
 40
1.0
 10
44.3822397834
 20
48.0502368785
 30
0.0
 10
44.1826432876
 20
47.9350004758
 30
0.0
 10
43.7548235505
 20
47.7240942506
 30
0.0
 10
43.0647606296
 20
47.4740077524
 30
0.0
 10
42.3189854834
 20
47.2847215955
 30
0.0
 10
41.5335717542
 20
47.1601460967
 30
0.0
 10
40.7250844079
 20
47.1029935697
 30
0.0
 10
39.9108092374
 20
47.1144555326
 30
0.0
 10
39.1081051235
 20
47.1942725423
 30
0.0
 10
38.3340754247
 20
47.3407516663
 30
0.0
 10
37.6051670883
 20
47.5508022823
 30
0.0
 10
36.9367948992
 20
47.820064851
 30
0.0
 10
36.3430034021
 20
48.1430090798
 30
0.0
 10
35.8361918402
 20
48.5133382012
 30
0.0
 10
35.4272196548
 20
48.923896545
 30
0.0
 10
35.1712314403
 20
49.3005914829
 30
0.0
 10
35.0285430792
 20
49.611578271
 30
0.0
 10
34.9529070403
 20
49.8448732116
 30
0.0
 10
34.9072796724
 20
50.0809391111
 30
0.0
 10
34.8971484824
 20
50.2396649239
 30
0.0
 10
34.897153797
 20
50.3185245123
 30
0.0
  0
SPLINE
  5
24C
100
AcDbEntity
  8
0
100
AcDbSpline
 62
7
  6
BYLAYER
 70
0
 71
3
 72
13
 73
9
 74
0
 42
0.0000001
 43
0.0000001
 44
0.0000000001
 40
0.0
 40
0.0
 40
0.0
 40
0.0
 40
0.2893482524
 40
0.5483238656
 40
0.6677499411
 40
0.7817640476
 40
0.8919050495
 40
1.0
 40
1.0
 40
1.0
 40
1.0
 10
14.2423353286
 20
36.2874096703
 30
0.0
 10
14.1482838933
 20
36.2331093729
 30
0.0
 10
13.9777116601
 20
36.1157120538
 30
0.0
 10
13.8032649921
 20
35.932203958
 30
0.0
 10
13.7050325243
 20
35.7749836446
 30
0.0
 10
13.6531719941
 20
35.6563572401
 30
0.0
 10
13.6216894632
 20
35.535147884
 30
0.0
 10
13.6146404346
 20
35.4530699819
 30
0.0
 10
13.6146473938
 20
35.4124987042
 30
0.0
  0
SPLINE
  5
24D
100
AcDbEntity
  8
0
100
AcDbSpline
 62
7
  6
BYLAYER
 70
0
 71
3
 72
15
 73
11
 74
0
 42
0.0000001
 43
0.0000001
 44
0.0000000001
 40
0.0
 40
0.0
 40
0.0
 40
0.0
 40
0.1511928569
 40
0.2943333419
 40
0.4289889814
 40
0.5554054589
 40
0.6742780669
 40
0.7867727291
 40
0.8946164181
 40
1.0
 40
1.0
 40
1.0
 40
1.0
 10
12.7102382278
 20
37.0069666787
 30
0.0
 10
12.580084133
 20
36.9443943447
 30
0.0
 10
12.3316963357
 20
36.811743071
 30
0.0
 10
11.9898127485
 20
36.5846464708
 30
0.0
 10
11.6925416892
 20
36.3369406381
 30
0.0
 10
11.443531671
 20
36.0715273562
 30
0.0
 10
11.2458201181
 20
35.7912615964
 30
0.0
 10
11.1021802619
 20
35.4991580211
 30
0.0
 10
11.0148630812
 20
35.1988534157
 30
0.0
 10
10.9952838468
 20
34.9946782378
 30
0.0
 10
10.9952859035
 20
34.8940196596
 30
0.0
  0
SPLINE
  5
24E
100
AcDbEntity
  8
0
100
AcDbSpline
 62
7
  6
BYLAYER
 70
0
 71
3
 72
21
 73
17
 74
0
 42
0.0000001
 43
0.0000001
 44
0.0000000001
 40
0.0
 40
0.0
 40
0.0
 40
0.0
 40
0.0551523038
 40
0.111040747
 40
0.1682120854
 40
0.2271078809
 40
0.2879348178
 40
0.3507065572
 40
0.4152447824
 40
0.4812136732
 40
0.6152603616
 40
0.7488270153
 40
0.814235842
 40
0.8780540369
 40
0.9400079123
 40
1.0
 40
1.0
 40
1.0
 40
1.0
 10
28.1503607613
 20
53.5205023876
 30
0.0
 10
28.1521171526
 20
53.6583967496
 30
0.0
 10
28.1830500816
 20
53.936413353
 30
0.0
 10
28.3097918499
 20
54.3400091132
 30
0.0
 10
28.5134781359
 20
54.7213820389
 30
0.0
 10
28.7882448656
 20
55.0707248645
 30
0.0
 10
29.1269262472
 20
55.3794389693
 30
0.0
 10
29.5206899475
 20
55.6400115371
 30
0.0
 10
29.9596311775
 20
55.8461926428
 30
0.0
 10
30.5930821102
 20
56.0427819793
 30
0.0
 10
31.4329512878
 20
56.1281060917
 30
0.0
 10
32.2656523392
 20
55.9969225272
 30
0.0
 10
32.8825478538
 20
55.765401995
 30
0.0
 10
33.3035703952
 20
55.5353131801
 30
0.0
 10
33.6749355178
 20
55.253470421
 30
0.0
 10
33.8867181908
 20
55.0318202168
 30
0.0
 10
33.9806105493
 20
54.9148314149
 30
0.0
  0
SPLINE
  5
24F
100
AcDbEntity
  8
0
100
AcDbSpline
 62
7
  6
BYLAYER
 70
0
 71
3
 72
25
 73
21
 74
0
 42
0.0000001
 43
0.0000001
 44
0.0000000001
 40
0.0
 40
0.0
 40
0.0
 40
0.0
 40
0.0647777008
 40
0.1330164016
 40
0.203923313
 40
0.2766650022
 40
0.350289119
 40
0.4238191842
 40
0.4962826816
 40
0.5667473278
 40
0.6343670383
 40
0.69842915
 40
0.7584056061
 40
0.8140138147
 40
0.8652921166
 40
0.9126817813
 40
0.9352159369
 40
0.9571557542
 40
0.9786834178
 40
1.0
 40
1.0
 40
1.0
 40
1.0
 10
18.8052814889
 20
28.7628601377
 30
0.0
 10
18.6274105105
 20
28.6773476358
 30
0.0
 10
18.2518256173
 20
28.5227318803
 30
0.0
 10
17.6558703891
 20
28.3440824662
 30
0.0
 10
17.0223838467
 20
28.2154862914
 30
0.0
 10
16.3640376242
 20
28.1393906274
 30
0.0
 10
15.6936967738
 20
28.1173527284
 30
0.0
 10
15.0246271521
 20
28.1497780807
 30
0.0
 10
14.3700201842
 20
28.2360114298
 30
0.0
 10
13.7427784756
 20
28.3743821498
 30
0.0
 10
13.1552334549
 20
28.562200099
 30
0.0
 10
12.6188596854
 20
28.7958306114
 30
0.0
 10
12.1440804007
 20
29.0708589329
 30
0.0
 10
11.7401092817
 20
29.3823596702
 30
0.0
 10
11.4150267645
 20
29.7247540313
 30
0.0
 10
11.212254405
 20
30.0365952032
 30
0.0
 10
11.09931379
 20
30.2932325021
 30
0.0
 10
11.0394047195
 20
30.4856765272
 30
0.0
 10
11.0033439958
 20
30.6801906679
 30
0.0
 10
10.9952739256
 20
30.8108617636
 30
0.0
 10
10.9952682297
 20
30.8758071657
 30
0.0
  0
SPLINE
  5
250
100
AcDbEntity
  8
0
100
AcDbSpline
 62
7
  6
BYLAYER
 70
0
 71
3
 72
15
 73
11
 74
0
 42
0.0000001
 43
0.0000001
 44
0.0000000001
 40
0.0
 40
0.0
 40
0.0
 40
0.0
 40
0.1053819345
 40
0.2132245981
 40
0.3257190121
 40
0.4445911797
 40
0.5710077249
 40
0.705664727
 40
0.8488073542
 40
1.0
 40
1.0
 40
1.0
 40
1.0
 10
20.5202335773
 20
34.440350497
 30
0.0
 10
20.5202362758
 20
34.3396935163
 30
0.0
 10
20.500654783
 20
34.1355212743
 30
0.0
 10
20.4133427656
 20
33.8352182393
 30
0.0
 10
20.2697012833
 20
33.5431172971
 30
0.0
 10
20.0719946223
 20
33.2628491261
 30
0.0
 10
19.8229832515
 20
32.9974356577
 30
0.0
 10
19.525711064
 20
32.7497260846
 30
0.0
 10
19.183824089
 20
32.5226289509
 30
0.0
 10
18.935435371
 20
32.3899757343
 30
0.0
 10
18.8052814889
 20
32.3274035025
 30
0.0
  0
SPLINE
  5
251
100
AcDbEntity
  8
0
100
AcDbSpline
 62
7
  6
BYLAYER
 70
0
 71
3
 72
24
 73
20
 74
0
 42
0.0000001
 43
0.0000001
 44
0.0000000001
 40
0.0
 40
0.0
 40
0.0
 40
0.0
 40
0.0213183173
 40
0.0428476852
 40
0.0872545394
 40
0.1346487003
 40
0.1859311108
 40
0.241542325
 40
0.3015228225
 40
0.3655893813
 40
0.4332125994
 40
0.5036806732
 40
0.576148786
 40
0.649683262
 40
0.723312869
 40
0.796059874
 40
0.8669718768
 40
0.9352193686
 40
1.0
 40
1.0
 40
1.0
 40
1.0
 10
10.9952859035
 20
34.8940196596
 30
0.0
 10
10.9952872305
 20
34.829073553
 30
0.0
 10
11.0033279928
 20
34.6983885645
 30
0.0
 10
11.0518825721
 20
34.4364889925
 30
0.0
 10
11.1757206312
 20
34.1106898571
 30
0.0
 10
11.4150202303
 20
33.7430710115
 30
0.0
 10
11.7401382243
 20
33.4005411976
 30
0.0
 10
12.1440867331
 20
33.0890685013
 30
0.0
 10
12.6188669748
 20
32.8140293895
 30
0.0
 10
13.1552413367
 20
32.5804175869
 30
0.0
 10
13.7427783299
 20
32.3926040718
 30
0.0
 10
14.3700066689
 20
32.2542196315
 30
0.0
 10
15.0246062439
 20
32.1679923978
 30
0.0
 10
15.69367282
 20
32.1355694009
 30
0.0
 10
16.3640125335
 20
32.1576071378
 30
0.0
 10
17.022361809
 20
32.2336911128
 30
0.0
 10
17.6558613622
 20
32.3622909765
 30
0.0
 10
18.251821011
 20
32.540950254
 30
0.0
 10
18.627415012
 20
32.6955623203
 30
0.0
 10
18.8052814889
 20
32.781072658
 30
0.0
  0
SPLINE
  5
252
100
AcDbEntity
  8
0
100
AcDbSpline
 62
7
  6
BYLAYER
 70
0
 71
3
 72
25
 73
21
 74
0
 42
0.0000001
 43
0.0000001
 44
0.0000000001
 40
0.0
 40
0.0
 40
0.0
 40
0.0
 40
0.062376385
 40
0.1287258889
 40
0.1983135893
 40
0.2702911566
 40
0.3436671937
 40
0.4173995127
 40
0.4904249365
 40
0.5617123096
 40
0.630310521
 40
0.6953987985
 40
0.7563462984
 40
0.8127831809
 40
0.8646835269
 40
0.9124583986
 40
0.9351026544
 40
0.9571080672
 40
0.97866813
 40
1.0
 40
1.0
 40
1.0
 40
1.0
 10
36.5244829627
 20
52.5868122631
 30
0.0
 10
36.7240864041
 20
52.7020526758
 30
0.0
 10
37.1519061318
 20
52.9129657996
 30
0.0
 10
37.8419837077
 20
53.1630465895
 30
0.0
 10
38.5877655126
 20
53.3523352316
 30
0.0
 10
39.3731927223
 20
53.4769059695
 30
0.0
 10
40.1816892372
 20
53.5340602626
 30
0.0
 10
40.9959767985
 20
53.5225986081
 30
0.0
 10
41.7986963399
 20
53.4427686197
 30
0.0
 10
42.5727367792
 20
53.296271973
 30
0.0
 10
43.3016530716
 20
53.086208416
 30
0.0
 10
43.9700342938
 20
52.8169447572
 30
0.0
 10
44.563823205
 20
52.493987142
 30
0.0
 10
45.0706170976
 20
52.1236332931
 30
0.0
 10
45.4795506575
 20
51.7130518582
 30
0.0
 10
45.7355742029
 20
51.3363677354
 30
0.0
 10
45.8781954388
 20
51.0253356472
 30
0.0
 10
45.9538577343
 20
50.7920472778
 30
0.0
 10
45.9994107859
 20
50.5560133473
 30
0.0
 10
46.009588503
 20
50.3973461548
 30
0.0
 10
46.0095958569
 20
50.3185245141
 30
0.0
  0
SPLINE
  5
253
100
AcDbEntity
  8
0
100
AcDbSpline
 62
7
  6
BYLAYER
 70
0
 71
3
 72
10
 73
6
 74
0
 42
0.0000001
 43
0.0000001
 44
0.0000000001
 40
0.0
 40
0.0
 40
0.0
 40
0.0
 40
0.4687024933
 40
0.7264785578
 40
1.0
 40
1.0
 40
1.0
 40
1.0
 10
35.2338813361
 20
51.4183485642
 30
0.0
 10
35.3803771989
 20
51.6500857555
 30
0.0
 10
35.6663178553
 20
51.9735597257
 30
0.0
 10
36.1235540757
 20
52.3388678227
 30
0.0
 10
36.3859261388
 20
52.506816921
 30
0.0
 10
36.5244829627
 20
52.5868122631
 30
0.0
  0
SPLINE
  5
254
100
AcDbEntity
  8
0
100
AcDbSpline
 62
7
  6
BYLAYER
 70
0
 71
3
 72
15
 73
11
 74
0
 42
0.0000001
 43
0.0000001
 44
0.0000000001
 40
0.0
 40
0.0
 40
0.0
 40
0.0
 40
0.1454794411
 40
0.2840954118
 40
0.4159029752
 40
0.5414040731
 40
0.6613933923
 40
0.7769197559
 40
0.8892797958
 40
1.0
 40
1.0
 40
1.0
 40
1.0
 10
46.553043492
 20
47.3861167604
 30
0.0
 10
46.696428458
 20
47.4855319581
 30
0.0
 10
46.968761373
 20
47.6911168672
 30
0.0
 10
47.3386386013
 20
48.0268613849
 30
0.0
 10
47.6570123917
 20
48.3803575155
 30
0.0
 10
47.9213813663
 20
48.7488648016
 30
0.0
 10
48.1295264286
 20
49.1298628017
 30
0.0
 10
48.2798054805
 20
49.5205169031
 30
0.0
 10
48.3705279744
 20
49.9177671085
 30
0.0
 10
48.390854731
 20
50.1857342746
 30
0.0
 10
48.3908547477
 20
50.3185245706
 30
0.0
  0
SPLINE
  5
255
100
AcDbEntity
  8
0
100
AcDbSpline
 62
7
  6
BYLAYER
 70
0
 71
3
 72
9
 73
5
 74
0
 42
0.0000001
 43
0.0000001
 44
0.0000000001
 40
0.0
 40
0.0
 40
0.0
 40
0.0
 40
0.2585514237
 40
1.0
 40
1.0
 40
1.0
 40
1.0
 10
45.5325640906
 20
46.7969462202
 30
0.0
 10
45.6241429159
 20
46.8409732702
 30
0.0
 10
45.9752384832
 20
47.0175648271
 30
0.0
 10
46.313577979
 20
47.2200846303
 30
0.0
 10
46.553043492
 20
47.3861167604
 30
0.0
  0
SPLINE
  5
256
100
AcDbEntity
  8
0
100
AcDbSpline
 62
7
  6
BYLAYER
 70
0
 71
3
 72
10
 73
6
 74
0
 42
0.0000001
 43
0.0000001
 44
0.0000000001
 40
0.0
 40
0.0
 40
0.0
 40
0.0
 40
0.4710857268
 40
0.7286724279
 40
1.0
 40
1.0
 40
1.0
 40
1.0
 10
20.0304823435
 20
29.6613082422
 30
0.0
 10
19.8747869878
 20
29.4786901099
 30
0.0
 10
19.5945148936
 20
29.2287141432
 30
0.0
 10
19.1681783225
 20
28.949497033
 30
0.0
 10
18.9298527481
 20
28.8227484913
 30
0.0
 10
18.8052814889
 20
28.7628601377
 30
0.0
  0
SPLINE
  5
257
100
AcDbEntity
  8
0
100
AcDbSpline
 62
7
  6
BYLAYER
 70
0
 71
3
 72
13
 73
9
 74
0
 42
0.0000001
 43
0.0000001
 44
0.0000000001
 40
0.0
 40
0.0
 40
0.0
 40
0.0
 40
0.2893482524
 40
0.5483238656
 40
0.6677499411
 40
0.7817640476
 40
0.8919050495
 40
1.0
 40
1.0
 40
1.0
 40
1.0
 10
17.273184388
 20
34.5375877362
 30
0.0
 10
17.3672358233
 20
34.5918880336
 30
0.0
 10
17.5378080565
 20
34.7092853527
 30
0.0
 10
17.7122547246
 20
34.8927934485
 30
0.0
 10
17.8104871924
 20
35.0500137619
 30
0.0
 10
17.8623477226
 20
35.1686401664
 30
0.0
 10
17.8938302535
 20
35.2898495225
 30
0.0
 10
17.900879282
 20
35.3719274246
 30
0.0
 10
17.9008723228
 20
35.4124987023
 30
0.0
  0
SPLINE
  5
258
100
AcDbEntity
  8
0
100
AcDbSpline
 62
7
  6
BYLAYER
 70
0
 71
3
 72
15
 73
11
 74
0
 42
0.0000001
 43
0.0000001
 44
0.0000000001
 40
0.0
 40
0.0
 40
0.0
 40
0.0
 40
0.1485648376
 40
0.2895093528
 40
0.4227286073
 40
0.5486396178
 40
0.6680017783
 40
0.7819380692
 40
0.8919858987
 40
1.0
 40
1.0
 40
1.0
 40
1.0
 10
22.4929799904
 20
26.9873139613
 30
0.0
 10
22.7077712884
 20
27.1113230347
 30
0.0
 10
23.1166082586
 20
27.3704925905
 30
0.0
 10
23.6755918794
 20
27.8030917841
 30
0.0
 10
24.1590780844
 20
28.2658826901
 30
0.0
 10
24.562192921
 20
28.7545608469
 30
0.0
 10
24.8809675528
 20
29.2647487392
 30
0.0
 10
25.1116446775
 20
29.7919398816
 30
0.0
 10
25.2514432819
 20
30.3307106987
 30
0.0
 10
25.2827308301
 20
30.6954847793
 30
0.0
 10
25.2827426214
 20
30.8758072401
 30
0.0
  0
SPLINE
  5
259
100
AcDbEntity
  8
0
100
AcDbSpline
 62
7
  6
BYLAYER
 70
0
 71
3
 72
16
 73
12
 74
0
 42
0.0000001
 43
0.0000001
 44
0.0000000001
 40
0.0
 40
0.0
 40
0.0
 40
0.0
 40
0.136376816
 40
0.2712136733
 40
0.3376376951
 40
0.4031807413
 40
0.5310201592
 40
0.6542555587
 40
0.7729236157
 40
0.8877256663
 40
1.0
 40
1.0
 40
1.0
 40
1.0
 10
31.3252284418
 20
51.4183391689
 30
0.0
 10
31.0780783563
 20
51.4183385749
 30
0.0
 10
30.5857906866
 20
51.3808125679
 30
0.0
 10
29.9874891869
 20
51.2406042655
 30
0.0
 10
29.5329271536
 20
51.0743507297
 30
0.0
 10
29.1050511574
 20
50.8768260675
 30
0.0
 10
28.6155961393
 20
50.5714237718
 30
0.0
 10
28.1172156775
 20
50.1177812913
 30
0.0
 10
27.7299095175
 20
49.594575209
 30
0.0
 10
27.4684848572
 20
49.0199770754
 30
0.0
 10
27.3845279743
 20
48.6128195876
 30
0.0
 10
27.3667042266
 20
48.4101316109
 30
0.0
  0
SPLINE
  5
25A
100
AcDbEntity
  8
0
100
AcDbSpline
 62
7
  6
BYLAYER
 70
0
 71
3
 72
22
 73
18
 74
0
 42
0.0000001
 43
0.0000001
 44
0.0000000001
 40
0.0
 40
0.0
 40
0.0
 40
0.0
 40
0.0623730393
 40
0.1287711859
 40
0.1983808089
 40
0.2703736989
 40
0.4173932591
 40
0.4904368036
 40
0.5617459914
 40
0.6303626777
 40
0.6954705694
 40
0.756435241
 40
0.8128879676
 40
0.8648052562
 40
0.912592706
 40
0.9571804621
 40
1.0
 40
1.0
 40
1.0
 40
1.0
 10
17.273184388
 20
34.0191087013
 30
0.0
 10
17.1962215992
 20
33.9746744797
 30
0.0
 10
17.031179654
 20
33.8933517822
 30
0.0
 10
16.7650231015
 20
33.7968371416
 30
0.0
 10
16.4773045404
 20
33.7238125164
 30
0.0
 10
16.0707387316
 20
33.6594101043
 30
0.0
 10
15.6523438008
 20
33.6478583103
 30
0.0
 10
15.2388602669
 20
33.6889593629
 30
0.0
 10
14.9402790278
 20
33.7454558504
 30
0.0
 10
14.6591421489
 20
33.8265056647
 30
0.0
 10
14.4013327109
 20
33.9303408229
 30
0.0
 10
14.1723045965
 20
34.054923592
 30
0.0
 10
13.9768388583
 20
34.197762281
 30
0.0
 10
13.8190648668
 20
34.3561546027
 30
0.0
 10
13.7027128171
 20
34.5273699427
 30
0.0
 10
13.6309454144
 20
34.7079393165
 30
0.0
 10
13.6146585315
 20
34.8330105732
 30
0.0
 10
13.6146477081
 20
34.8940196677
 30
0.0
  0
SPLINE
  5
25B
100
AcDbEntity
  8
0
100
AcDbSpline
 62
7
  6
BYLAYER
 70
0
 71
3
 72
15
 73
11
 74
0
 42
0.0000001
 43
0.0000001
 44
0.0000000001
 40
0.0
 40
0.0
 40
0.0
 40
0.0
 40
0.1511928569
 40
0.2943333419
 40
0.4289889814
 40
0.5554054589
 40
0.6742780669
 40
0.7867727291
 40
0.8946164181
 40
1.0
 40
1.0
 40
1.0
 40
1.0
 10
18.8052814889
 20
32.781072658
 30
0.0
 10
18.9354355837
 20
32.8436449921
 30
0.0
 10
19.183823381
 20
32.9762962657
 30
0.0
 10
19.5257069682
 20
33.203392866
 30
0.0
 10
19.8229780275
 20
33.4510986986
 30
0.0
 10
20.0719880457
 20
33.7165119806
 30
0.0
 10
20.2696995986
 20
33.9967777403
 30
0.0
 10
20.4133394548
 20
34.2888813156
 30
0.0
 10
20.5006566355
 20
34.5891859211
 30
0.0
 10
20.5202358699
 20
34.7933610989
 30
0.0
 10
20.5202338132
 20
34.8940196772
 30
0.0
  0
SPLINE
  5
25C
100
AcDbEntity
  8
0
100
AcDbSpline
 62
7
  6
BYLAYER
 70
0
 71
3
 72
22
 73
18
 74
0
 42
0.0000001
 43
0.0000001
 44
0.0000000001
 40
0.0
 40
0.0
 40
0.0
 40
0.0
 40
0.042817792
 40
0.0874047579
 40
0.1351916362
 40
0.18710842
 40
0.2435607516
 40
0.3045240729
 40
0.3696305257
 40
0.4382455394
 40
0.5095534022
 40
0.582597067
 40
0.7296203677
 40
0.8016152723
 40
0.8712274255
 40
0.9376271491
 40
1.0
 40
1.0
 40
1.0
 40
1.0
 10
13.6146473938
 20
35.4124987042
 30
0.0
 10
13.6146578583
 20
35.3514920917
 30
0.0
 10
13.6309402584
 20
35.2264238865
 30
0.0
 10
13.7027077734
 20
35.0458589147
 30
0.0
 10
13.8190563583
 20
34.874645068
 30
0.0
 10
13.9768250438
 20
34.7162500236
 30
0.0
 10
14.1722894766
 20
34.5734148949
 30
0.0
 10
14.4013104503
 20
34.4488289386
 30
0.0
 10
14.6591136721
 20
34.3449945733
 30
0.0
 10
14.9402440817
 20
34.2639458834
 30
0.0
 10
15.238819921
 20
34.207442533
 30
0.0
 10
15.6523072212
 20
34.1663413973
 30
0.0
 10
16.0707105823
 20
34.177886773
 30
0.0
 10
16.4772885886
 20
34.2422885985
 30
0.0
 10
16.765016093
 20
34.3153137513
 30
0.0
 10
17.0311778284
 20
34.4118306156
 30
0.0
 10
17.1962218247
 20
34.4931536448
 30
0.0
 10
17.273184388
 20
34.5375877362
 30
0.0
  0
SPLINE
  5
25D
100
AcDbEntity
  8
0
100
AcDbSpline
 62
7
  6
BYLAYER
 70
0
 71
3
 72
13
 73
9
 74
0
 42
0.0000001
 43
0.0000001
 44
0.0000000001
 40
0.0
 40
0.0
 40
0.0
 40
0.0
 40
0.1080956554
 40
0.2182373497
 40
0.3322516511
 40
0.4516791317
 40
0.710657803
 40
1.0
 40
1.0
 40
1.0
 40
1.0
 10
17.9008720086
 20
34.8940196691
 30
0.0
 10
17.9008792062
 20
34.8534481614
 30
0.0
 10
17.8938256159
 20
34.7713702024
 30
0.0
 10
17.8623464172
 20
34.6501598844
 30
0.0
 10
17.8104863371
 20
34.5315321233
 30
0.0
 10
17.7122508228
 20
34.3743118628
 30
0.0
 10
17.5378049834
 20
34.1908044129
 30
0.0
 10
17.3672337749
 20
34.073407816
 30
0.0
 10
17.273184388
 20
34.0191087013
 30
0.0
  0
SPLINE
  5
25E
100
AcDbEntity
  8
0
100
AcDbSpline
 62
7
  6
BYLAYER
 70
0
 71
3
 72
26
 73
22
 74
0
 42
0.0000001
 43
0.0000001
 44
0.0000000001
 40
0.0
 40
0.0
 40
0.0
 40
0.0
 40
0.0213308193
 40
0.0428901272
 40
0.0648939918
 40
0.087537661
 40
0.1109854935
 40
0.1353712478
 40
0.1872688365
 40
0.2437027659
 40
0.3046466162
 40
0.369730149
 40
0.4383230938
 40
0.5096051462
 40
0.58262494
 40
0.6563524379
 40
0.7297243029
 40
0.8016963497
 40
0.871283
 40
0.9376223989
 40
1.0
 40
1.0
 40
1.0
 40
1.0
 10
6.2327770953
 20
30.875807056
 30
0.0
 10
6.2327682595
 20
30.7406824931
 30
0.0
 10
6.2502097375
 20
30.4686715447
 30
0.0
 10
6.3283822651
 20
30.0640535564
 30
0.0
 10
6.4579825969
 20
29.6641059995
 30
0.0
 10
6.6382676394
 20
29.2712200151
 30
0.0
 10
6.867955085
 20
28.8874045847
 30
0.0
 10
7.2461751237
 20
28.3802156975
 30
0.0
 10
7.842591632
 20
27.7811069688
 30
0.0
 10
8.7112512652
 20
27.1464693563
 30
0.0
 10
9.7292256405
 20
26.5927674219
 30
0.0
 10
10.8749972805
 20
26.1311931491
 30
0.0
 10
12.1245542844
 20
25.7710748139
 30
0.0
 10
13.4514625205
 20
25.5199487328
 30
0.0
 10
14.8275405973
 20
25.3831075317
 30
0.0
 10
16.223456263
 20
25.3634743266
 30
0.0
 10
17.6094440764
 20
25.4614425643
 30
0.0
 10
18.9559136065
 20
25.6749638393
 30
0.0
 10
20.2343652439
 20
25.999483232
 30
0.0
 10
21.4173848938
 20
26.4281562255
 30
0.0
 10
22.1507747028
 20
26.7897428257
 30
0.0
 10
22.4929799904
 20
26.9873139613
 30
0.0
  0
ENDSEC
  0
SECTION
  2
OBJECTS
  0
DICTIONARY
  5
C
100
AcDbDictionary
280
0
281
1
  3
ACAD_GROUP
350
D
  3
ACAD_MLINESTYLE
350
17
  3
ACAD_LAYOUT
350
1A
  3
ACAD_PLOTSETTINGS
350
19
  3
ACAD_PLOTSTYLENAME
350
E
  0
DICTIONARY
  5
D
102
{ACAD_REACTORS
330
C
102
}
100
AcDbDictionary
280
0
281
1
  0
ACDBDICTIONARYWDFLT
  5
E
102
{ACAD_REACTORS
330
C
102
}
100
AcDbDictionary
281
1
  3
Normal
350
F
100
AcDbDictionaryWithDefault
340
F
  0
DICTIONARY
  5
17
102
{ACAD_REACTORS
330
C
102
}
100
AcDbDictionary
280
0
281
1
  3
Standard
350
18
  0
DICTIONARY
  5
19
102
{ACAD_REACTORS
330
C
102
}
100
AcDbDictionary
281
1
  0
DICTIONARY
  5
1A
102
{ACAD_REACTORS
330
C
102
}
100
AcDbDictionary
281
1
  3
Model
350
25F
  3
Layout1
350
260
  0
ACDBPLACEHOLDER
  5
F
102
{ACAD_REACTORS
330
E
102
}
  0
MLINESTYLE
  5
18
102
{ACAD_REACTORS
330
17
102
}
100
AcDbMlineStyle
  2
STANDARD
 70
0
  3

 62
256
 51
90.0
 52
90.0
 71
2
 49
0.5
 62
256
  6
BYLAYER
 49
-0.5
 62
256
  6
BYLAYER
  0
LAYOUT
  5
25F
102
{ACAD_REACTORS
330
1A
102
}
100
AcDbPlotSettings
  1

  2
none_device
  4

  6

 40
0.0
 41
0.0
 42
0.0
 43
0.0
 44
210.0
 45
297.0
 46
0.0
 47
0.0
 48
0.0
 49
0.0
140
0.0
141
0.0
142
1.0
143
1.0
 70
1024
 72
1
 73
0
 74
0
  7

 75
0
147
1.0
148
0.0
149
0.0
100
AcDbLayout
  1
Model
 70
0
 71
0
 10
0.0
 20
0.0
 11
210.0
 21
297.0
 12
0.0
 22
0.0
 32
0.0
 14
0.0
 24
0.0
 34
0.0
 15
0.0
 25
0.0
 35
0.0
146
0.0
 13
0.0
 23
0.0
 33
0.0
 16
1.0
 26
0.0
 36
0.0
 17
0.0
 27
1.0
 37
0.0
 76
0
330
210
345
0
346
0
  0
LAYOUT
  5
260
102
{ACAD_REACTORS
330
1A
102
}
100
AcDbPlotSettings
  1

  2
none_device
  4

  6

 40
0.0
 41
0.0
 42
0.0
 43
0.0
 44
210.0
 45
297.0
 46
0.0
 47
0.0
 48
0.0
 49
0.0
140
0.0
141
0.0
142
1.0
143
1.0
 70
0
 72
1
 73
0
 74
0
  7

 75
0
147
1.0
148
0.0
149
0.0
100
AcDbLayout
  1
Layout1
 70
0
 71
1
 10
0.0
 20
0.0
 11
210.0
 21
297.0
 12
0.0
 22
0.0
 32
0.0
 14
0.0
 24
0.0
 34
0.0
 15
0.0
 25
0.0
 35
0.0
146
0.0
 13
0.0
 23
0.0
 33
0.0
 16
1.0
 26
0.0
 36
0.0
 17
0.0
 27
1.0
 37
0.0
 76
0
330
211
345
0
346
0
  0
ENDSEC
  0
EOF
