999
DXF file: C:\Users\sesa63760\Dev\_Creo\CAD\MCADID0003824_3D-CAD\drw0001_2.dxf
999
Pro/ENGINEER 2019471 by Parametric Technology Corporation
  0
SECTION
  2
HEADER
  9
$ACADVER
  1
AC1024
  9
$DWGCODEPAGE
  3
ANSI_1252
  9
$EXTMAX
 10
52.859312075
 20
74.7581699346
 30
0.0
  9
$EXTMIN
 10
0.0
 20
0.0
 30
0.0
  9
$LIMMIN
 10
0.0
 20
0.0
  9
$LIMMAX
 10
52.859312075
 20
74.7581699346
  9
$VIEWCTR
 10
26.4296560375
 20
37.3790849673
  9
$VIEWSIZE
 40
74.7581699346
  9
$CLAYER
  8
0
  9
$LTSCALE
 40
4.8731251513
  9
$CELTYPE
  6
BYLAYER
  9
$DIMSCALE
 40
1.0
  9
$DIMASZ
 40
0.6292775247
  9
$DIMEXO
 40
1.0
  9
$DIMDLI
 40
3.3668864682
  9
$DIMEXE
 40
1.0
  9
$DIMCEN
 40
0.7974204793
  9
$DIMLFAC
 40
1.0
  9
$DIMBLK
  1
_FILLED
  9
$DIMALT
 70
0
  9
$DIMALTF
 40
0.0393700787
  9
$DIMTXT
 40
0.8809885346
  9
$DIMTOL
 70
1
  9
$DIMLIM
 70
0
  9
$DIMTFAC
 40
1.0
  9
$DIMTP
 40
0.01
  9
$DIMTM
 40
0.01
  9
$DIMGAP
 40
0.625
  9
$DIMDSEP
 70
46
  9
$AUNITS
 70
0
  9
$PDMODE
 70
3
  9
$PDSIZE
 40
0.3125
  9
$HANDSEED
  5
26E
  9
$TILEMODE
 70
1
  9
$MEASUREMENT
 70
1
  9
$INSUNITS
 70
4
  0
ENDSEC
  0
SECTION
  2
CLASSES
  0
CLASS
  1
ACDBDICTIONARYWDFLT
  2
AcDbDictionaryWithDefault
  3
AutoCAD 2000
 90
0
 91
1
280
0
281
0
  0
CLASS
  1
ACDBPLACEHOLDER
  2
AcDbPlaceHolder
  3
AutoCAD 2000
 90
0
 91
1
280
0
281
0
  0
CLASS
  1
LAYOUT
  2
AcDbLayout
  3
AutoCAD 2000
 90
0
 91
0
280
0
281
0
  0
ENDSEC
  0
SECTION
  2
TABLES
  0
TABLE
  2
VPORT
  5
8
100
AcDbSymbolTable
 70
2
  0
VPORT
  5
1F4
100
AcDbSymbolTableRecord
100
AcDbViewportTableRecord
  2
*ACTIVE
 70
0
 10
0.0
 20
0.0
 11
1.0
 21
1.0
 12
26.4296560375
 22
37.3790849673
 13
0.0
 23
0.0
 14
1.0
 24
1.0
 15
0.0
 25
0.0
 16
0.0
 26
0.0
 36
1.0
 17
0.0
 27
0.0
 37
0.0
 40
74.7581699346
 41
0.7070707071
 42
50.0
 43
0.0
 44
0.0
 50
0.0
 51
0.0
 71
0
 72
100
 73
1
 74
1
 75
0
 76
0
 77
0
 78
0
  0
ENDTAB
  0
TABLE
  2
LTYPE
  5
5
100
AcDbSymbolTable
 70
6
  0
LTYPE
  5
14
100
AcDbSymbolTableRecord
100
AcDbLinetypeTableRecord
  2
BYBLOCK
 70
0
  3

 72
65
 73
0
 40
0.0
  0
LTYPE
  5
15
100
AcDbSymbolTableRecord
100
AcDbLinetypeTableRecord
  2
BYLAYER
 70
0
  3

 72
65
 73
0
 40
0.0
  0
LTYPE
  5
16
100
AcDbSymbolTableRecord
100
AcDbLinetypeTableRecord
  2
CONTINUOUS
 70
64
  3
Solid line
 72
65
 73
0
 40
0.0
  0
LTYPE
  5
1F5
100
AcDbSymbolTableRecord
100
AcDbLinetypeTableRecord
  2
CENTER
 70
64
  3
____ _ ____ _ ____ _ ____ _ ____ _ ____ _ ____
 72
65
 73
4
 40
0.6
 49
0.375
 74
0
 49
-0.075
 74
0
 49
0.075
 74
0
 49
-0.075
 74
0
  0
LTYPE
  5
1F6
100
AcDbSymbolTableRecord
100
AcDbLinetypeTableRecord
  2
HIDDEN
 70
64
  3
- - - - - - - - - - - - - - - - - - - -
 72
65
 73
2
 40
0.2
 49
0.1
 74
0
 49
-0.1
 74
0
  0
LTYPE
  5
1F7
100
AcDbSymbolTableRecord
100
AcDbLinetypeTableRecord
  2
PHANTOM
 70
64
  3
_____ _ _ _____ _ _ _____ _ _ _____
 72
65
 73
6
 40
0.8
 49
0.45
 74
0
 49
-0.05
 74
0
 49
0.1
 74
0
 49
-0.05
 74
0
 49
0.1
 74
0
 49
-0.05
 74
0
  0
LTYPE
  5
1F8
100
AcDbSymbolTableRecord
100
AcDbLinetypeTableRecord
  2
DOT
 70
64
  3
. . . . . . . . . . . . . . . . . . . .
 72
65
 73
2
 40
0.2
 49
0.1
 74
0
 49
-0.1
 74
0
  0
LTYPE
  5
1F9
100
AcDbSymbolTableRecord
100
AcDbLinetypeTableRecord
  2
DASHED
 70
64
  3
- - - - - - - - - - - - - - - - - - - -
 72
65
 73
2
 40
0.2
 49
0.1
 74
0
 49
-0.1
 74
0
  0
ENDTAB
  0
TABLE
  2
LAYER
  5
2
100
AcDbSymbolTable
 70
36
  0
LAYER
  5
10
100
AcDbSymbolTableRecord
100
AcDbLayerTableRecord
  2
0
 70
0
 62
7
  6
CONTINUOUS
370
-3
390
F
  0
LAYER
  5
1FA
100
AcDbSymbolTableRecord
100
AcDbLayerTableRecord
  2
DEFAULT_1
 70
0
 62
7
  6
CENTER
370
-3
390
F
  0
LAYER
  5
1FB
100
AcDbSymbolTableRecord
100
AcDbLayerTableRecord
  2
DEFAULT_2
 70
0
 62
7
  6
HIDDEN
370
-3
390
F
  0
LAYER
  5
1FC
100
AcDbSymbolTableRecord
100
AcDbLayerTableRecord
  2
DEFAULT_3
 70
0
 62
7
  6
PHANTOM
370
-3
390
F
  0
LAYER
  5
1FD
100
AcDbSymbolTableRecord
100
AcDbLayerTableRecord
  2
00_COMPONENTS
 70
0
 62
7
  6
CONTINUOUS
370
-3
390
F
  0
LAYER
  5
1FE
100
AcDbSymbolTableRecord
100
AcDbLayerTableRecord
  2
01_1_DEFAULT_DATUMS
 70
0
 62
7
  6
CONTINUOUS
370
-3
390
F
  0
LAYER
  5
1FF
100
AcDbSymbolTableRecord
100
AcDbLayerTableRecord
  2
01_PLANES
 70
0
 62
7
  6
CONTINUOUS
370
-3
390
F
  0
LAYER
  5
200
100
AcDbSymbolTableRecord
100
AcDbLayerTableRecord
  2
02_COORD_SYS
 70
0
 62
7
  6
CONTINUOUS
370
-3
390
F
  0
LAYER
  5
201
100
AcDbSymbolTableRecord
100
AcDbLayerTableRecord
  2
03_AXES
 70
0
 62
7
  6
CONTINUOUS
370
-3
390
F
  0
LAYER
  5
202
100
AcDbSymbolTableRecord
100
AcDbLayerTableRecord
  2
04_POINTS
 70
0
 62
7
  6
CONTINUOUS
370
-3
390
F
  0
LAYER
  5
203
100
AcDbSymbolTableRecord
100
AcDbLayerTableRecord
  2
05_CURVES
 70
0
 62
7
  6
CONTINUOUS
370
-3
390
F
  0
LAYER
  5
204
100
AcDbSymbolTableRecord
100
AcDbLayerTableRecord
  2
06_SURFS
 70
0
 62
7
  6
CONTINUOUS
370
-3
390
F
  0
LAYER
  5
205
100
AcDbSymbolTableRecord
100
AcDbLayerTableRecord
  2
07_COSMETICS
 70
0
 62
7
  6
CONTINUOUS
370
-3
390
F
  0
LAYER
  5
206
100
AcDbSymbolTableRecord
100
AcDbLayerTableRecord
  2
10_NOTES
 70
0
 62
7
  6
CONTINUOUS
370
-3
390
F
  0
LAYER
  5
207
100
AcDbSymbolTableRecord
100
AcDbLayerTableRecord
  2
11_NOTES_PUB
 70
0
 62
7
  6
CONTINUOUS
370
-3
390
F
  0
LAYER
  5
208
100
AcDbSymbolTableRecord
100
AcDbLayerTableRecord
  2
13_REF_GTOL
 70
0
 62
7
  6
CONTINUOUS
370
-3
390
F
  0
LAYER
  5
209
100
AcDbSymbolTableRecord
100
AcDbLayerTableRecord
  2
16_MISC
 70
0
 62
7
  6
CONTINUOUS
370
-3
390
F
  0
LAYER
  5
20A
100
AcDbSymbolTableRecord
100
AcDbLayerTableRecord
  2
17_NO_PRINT
 70
0
 62
7
  6
CONTINUOUS
370
-3
390
F
  0
LAYER
  5
20B
100
AcDbSymbolTableRecord
100
AcDbLayerTableRecord
  2
18_DATUM_CAMS_JOINTS
 70
0
 62
7
  6
CONTINUOUS
370
-3
390
F
  0
LAYER
  5
20C
100
AcDbSymbolTableRecord
100
AcDbLayerTableRecord
  2
19_DATUM_FUNCTIONAL
 70
0
 62
7
  6
CONTINUOUS
370
-3
390
F
  0
LAYER
  5
20D
100
AcDbSymbolTableRecord
100
AcDbLayerTableRecord
  2
20_DATUM_KINEMATIC_SCHEME
 70
0
 62
7
  6
CONTINUOUS
370
-3
390
F
  0
ENDTAB
  0
TABLE
  2
STYLE
  5
3
100
AcDbSymbolTable
 70
1
  0
STYLE
  5
11
100
AcDbSymbolTableRecord
100
AcDbTextStyleTableRecord
  2
STANDARD
 70
0
 40
0.0
 41
1.0
 50
0.0
 71
0
 42
0.2
  3
ARIAL.TTF
  4

  0
STYLE
  5
20E
100
AcDbSymbolTableRecord
100
AcDbTextStyleTableRecord
  2
TEXTSTYLE_1
 70
0
 40
0.0
 41
0.8
 50
0.0
 71
0
 42
0.2
  3
gdt
  4

  0
ENDTAB
  0
TABLE
  2
VIEW
  5
6
100
AcDbSymbolTable
 70
0
  0
ENDTAB
  0
TABLE
  2
UCS
  5
7
100
AcDbSymbolTable
 70
0
  0
ENDTAB
  0
TABLE
  2
APPID
  5
9
100
AcDbSymbolTable
 70
1
  0
APPID
  5
20F
100
AcDbSymbolTableRecord
100
AcDbRegAppTableRecord
  2
ACAD
 70
0
  0
ENDTAB
  0
TABLE
  2
BLOCK_RECORD
  5
1
100
AcDbSymbolTable
 70
0
  0
BLOCK_RECORD
  5
210
100
AcDbSymbolTableRecord
100
AcDbBlockTableRecord
  2
*Model_Space
  0
BLOCK_RECORD
  5
211
100
AcDbSymbolTableRecord
100
AcDbBlockTableRecord
  2
*Paper_Space
  0
BLOCK_RECORD
  5
212
100
AcDbSymbolTableRecord
100
AcDbBlockTableRecord
  2
_FILLED
  0
ENDTAB
  0
TABLE
  2
DIMSTYLE
  5
A
100
AcDbSymbolTable
 70
1
100
AcDbDimStyleTable
 71
0
  0
DIMSTYLE
105
213
100
AcDbSymbolTableRecord
100
AcDbDimStyleTableRecord
  2
STANDARD
 70
0
  3

  4

 40
1.0
 41
0.6292775247
 42
1.0
 43
0.38
 44
1.0
 45
0.0
 46
0.0
 47
0.01
 48
0.01
140
0.8809885346
141
0.09
142
0.0
143
25.4
144
1.0
145
0.0
146
1.0
147
0.625
 71
1
 72
0
 73
0
 74
0
 75
0
 76
0
 77
1
 78
8
 79
2
170
0
171
1
172
0
173
0
174
0
175
0
176
0
177
0
178
0
270
2
179
2
271
2
272
2
273
2
274
2
275
0
280
0
281
0
282
0
283
1
284
8
285
0
286
0
287
3
288
0
340
11
278
46
341
212
342
212
343
212
344
212
  0
ENDTAB
  0
ENDSEC
  0
SECTION
  2
BLOCKS
  0
BLOCK
  5
20
100
AcDbEntity
  8
0
100
AcDbBlockBegin
  2
*Model_Space
 70
0
 10
0.0
 20
0.0
 30
0.0
  3
*Model_Space
  1

  0
ENDBLK
  5
21
100
AcDbEntity
  8
0
100
AcDbBlockEnd
  0
BLOCK
  5
1C
100
AcDbEntity
  8
0
100
AcDbBlockBegin
  2
*Paper_Space
 70
0
 10
0.0
 20
0.0
 30
0.0
  3
*Paper_Space
  1

  0
ENDBLK
  5
1D
100
AcDbEntity
  8
0
100
AcDbBlockEnd
  0
BLOCK
  5
214
100
AcDbEntity
  8
0
100
AcDbBlockBegin
  2
_FILLED
 70
64
 10
0.0
 20
0.0
  3
_FILLED
  1

  0
SOLID
  5
215
100
AcDbEntity
  8
0
  6
BYBLOCK
 62
0
100
AcDbTrace
 10
0.0
 20
0.0
 11
-1.0
 21
0.25
 12
-1.0
 22
-0.25
 13
-1.0
 23
-0.25
  0
ENDBLK
  5
216
100
AcDbEntity
  8
0
  6
BYBLOCK
 62
0
100
AcDbBlockEnd
  0
ENDSEC
  0
SECTION
  2
ENTITIES
  0
LINE
  5
217
100
AcDbEntity
  8
0
100
AcDbLine
 62
7
  6
BYLAYER
 10
5.7956691094
 20
33.8418300654
 11
5.7956691094
 21
40.6418300654
  0
LINE
  5
218
100
AcDbEntity
  8
0
100
AcDbLine
 62
7
  6
BYLAYER
 10
6.3956691094
 20
33.2418300654
 11
6.3956691094
 21
41.2418300654
  0
LINE
  5
219
100
AcDbEntity
  8
0
100
AcDbLine
 62
7
  6
BYLAYER
 10
5.7956691094
 20
40.6418300654
 11
6.3956691094
 21
41.2418300654
  0
LINE
  5
21A
100
AcDbEntity
  8
0
100
AcDbLine
 62
7
  6
BYLAYER
 10
6.3956691094
 20
33.2418300654
 11
5.7956691094
 21
33.8418300654
  0
LINE
  5
21B
100
AcDbEntity
  8
0
100
AcDbLine
 62
7
  6
BYLAYER
 10
16.7400691094
 20
31.7668300654
 11
16.7400691094
 21
42.7168300654
  0
LINE
  5
21C
100
AcDbEntity
  8
0
100
AcDbLine
 62
7
  6
BYLAYER
 10
17.1346302834
 20
43.4002300654
 11
16.7400691094
 21
42.7168300654
  0
LINE
  5
21D
100
AcDbEntity
  8
0
100
AcDbLine
 62
7
  6
BYLAYER
 10
16.7400691094
 20
31.7668300654
 11
17.1346302834
 21
31.0834300654
  0
LINE
  5
21E
100
AcDbEntity
  8
0
100
AcDbLine
 62
7
  6
BYLAYER
 10
17.1346302834
 20
31.0834300654
 11
17.1346302834
 21
31.0905302157
  0
LINE
  5
21F
100
AcDbEntity
  8
0
100
AcDbLine
 62
7
  6
BYLAYER
 10
17.1346302834
 20
33.9101517435
 11
17.1346302834
 21
34.4222085376
  0
LINE
  5
220
100
AcDbEntity
  8
0
100
AcDbLine
 62
7
  6
BYLAYER
 10
17.1346302834
 20
40.0614515932
 11
17.1346302834
 21
40.5735083872
  0
LINE
  5
221
100
AcDbEntity
  8
0
100
AcDbLine
 62
7
  6
BYLAYER
 10
17.1346302834
 20
43.393129915
 11
17.1346302834
 21
43.4002300654
  0
LINE
  5
222
100
AcDbEntity
  8
0
100
AcDbLine
 62
7
  6
BYLAYER
 10
17.7233079354
 20
43.4002300654
 11
17.7233079354
 21
43.393129915
  0
LINE
  5
223
100
AcDbEntity
  8
0
100
AcDbLine
 62
7
  6
BYLAYER
 10
17.7233079354
 20
40.5735083872
 11
17.7233079354
 21
40.0614515932
  0
LINE
  5
224
100
AcDbEntity
  8
0
100
AcDbLine
 62
7
  6
BYLAYER
 10
17.7233079354
 20
34.4222085376
 11
17.7233079354
 21
33.9101517435
  0
LINE
  5
225
100
AcDbEntity
  8
0
100
AcDbLine
 62
7
  6
BYLAYER
 10
17.7233079354
 20
31.0905302157
 11
17.7233079354
 21
31.0834300654
  0
LINE
  5
226
100
AcDbEntity
  8
0
100
AcDbLine
 62
7
  6
BYLAYER
 10
18.1178691094
 20
42.7168300654
 11
18.1178691094
 21
31.7668300654
  0
LINE
  5
227
100
AcDbEntity
  8
0
100
AcDbLine
 62
7
  6
BYLAYER
 10
19.8124302834
 20
43.4002300654
 11
19.4178691094
 21
42.7168300654
  0
LINE
  5
228
100
AcDbEntity
  8
0
100
AcDbLine
 62
7
  6
BYLAYER
 10
19.4178691094
 20
31.7668300654
 11
19.8124302834
 21
31.0834300654
  0
LINE
  5
229
100
AcDbEntity
  8
0
100
AcDbLine
 62
7
  6
BYLAYER
 10
19.4178691094
 20
31.7668300654
 11
19.4178691094
 21
42.7168300654
  0
LINE
  5
22A
100
AcDbEntity
  8
0
100
AcDbLine
 62
7
  6
BYLAYER
 10
19.8124302834
 20
31.0834300654
 11
19.8124302834
 21
31.0905302157
  0
LINE
  5
22B
100
AcDbEntity
  8
0
100
AcDbLine
 62
7
  6
BYLAYER
 10
19.8124302834
 20
33.9101517435
 11
19.8124302834
 21
34.4222085376
  0
LINE
  5
22C
100
AcDbEntity
  8
0
100
AcDbLine
 62
7
  6
BYLAYER
 10
19.8124302834
 20
40.0614515932
 11
19.8124302834
 21
40.5735083872
  0
LINE
  5
22D
100
AcDbEntity
  8
0
100
AcDbLine
 62
7
  6
BYLAYER
 10
19.8124302834
 20
43.393129915
 11
19.8124302834
 21
43.4002300654
  0
LINE
  5
22E
100
AcDbEntity
  8
0
100
AcDbLine
 62
7
  6
BYLAYER
 10
20.4011079354
 20
43.4002300654
 11
20.4011079354
 21
43.393129915
  0
LINE
  5
22F
100
AcDbEntity
  8
0
100
AcDbLine
 62
7
  6
BYLAYER
 10
20.4011079354
 20
40.5735083872
 11
20.4011079354
 21
40.0614515932
  0
LINE
  5
230
100
AcDbEntity
  8
0
100
AcDbLine
 62
7
  6
BYLAYER
 10
20.4011079354
 20
34.4222085376
 11
20.4011079354
 21
33.9101517435
  0
LINE
  5
231
100
AcDbEntity
  8
0
100
AcDbLine
 62
7
  6
BYLAYER
 10
20.4011079354
 20
31.0905302157
 11
20.4011079354
 21
31.0834300654
  0
LINE
  5
232
100
AcDbEntity
  8
0
100
AcDbLine
 62
7
  6
BYLAYER
 10
20.7956691094
 20
42.7168300654
 11
20.7956691094
 21
31.7668300654
  0
LINE
  5
233
100
AcDbEntity
  8
0
100
AcDbLine
 62
7
  6
BYLAYER
 10
17.1346302834
 20
31.0834300654
 11
17.7233079354
 21
31.0834300654
  0
LINE
  5
234
100
AcDbEntity
  8
0
100
AcDbLine
 62
7
  6
BYLAYER
 10
19.8124302834
 20
31.0834300654
 11
20.4011079354
 21
31.0834300654
  0
LINE
  5
235
100
AcDbEntity
  8
0
100
AcDbLine
 62
7
  6
BYLAYER
 10
20.4011079354
 20
31.0905302157
 11
19.8124302834
 21
31.0905302157
  0
LINE
  5
236
100
AcDbEntity
  8
0
100
AcDbLine
 62
7
  6
BYLAYER
 10
17.7233079354
 20
31.0905302157
 11
17.1346302834
 21
31.0905302157
  0
LINE
  5
237
100
AcDbEntity
  8
0
100
AcDbLine
 62
7
  6
BYLAYER
 10
17.7233079354
 20
31.0834300654
 11
18.1178691094
 21
31.7668300654
  0
LINE
  5
238
100
AcDbEntity
  8
0
100
AcDbLine
 62
7
  6
BYLAYER
 10
18.1178691094
 20
42.7168300654
 11
17.7233079354
 21
43.4002300654
  0
LINE
  5
239
100
AcDbEntity
  8
0
100
AcDbLine
 62
7
  6
BYLAYER
 10
31.1956691094
 20
33.2418300654
 11
20.7956691094
 21
33.2418300654
  0
LINE
  5
23A
100
AcDbEntity
  8
0
100
AcDbLine
 62
7
  6
BYLAYER
 10
19.4178691094
 20
33.2418300654
 11
18.1178691094
 21
33.2418300654
  0
LINE
  5
23B
100
AcDbEntity
  8
0
100
AcDbLine
 62
7
  6
BYLAYER
 10
16.7400691094
 20
33.2418300654
 11
6.3956691094
 21
33.2418300654
  0
LINE
  5
23C
100
AcDbEntity
  8
0
100
AcDbLine
 62
7
  6
BYLAYER
 10
17.1346302834
 20
33.9101517435
 11
17.7233079354
 21
33.9101517435
  0
LINE
  5
23D
100
AcDbEntity
  8
0
100
AcDbLine
 62
7
  6
BYLAYER
 10
19.8124302834
 20
33.9101517435
 11
20.4011079354
 21
33.9101517435
  0
LINE
  5
23E
100
AcDbEntity
  8
0
100
AcDbLine
 62
7
  6
BYLAYER
 10
47.7956691094
 20
33.9918300654
 11
31.7956691094
 21
33.9918300654
  0
LINE
  5
23F
100
AcDbEntity
  8
0
100
AcDbLine
 62
7
  6
BYLAYER
 10
20.4011079354
 20
34.4222085376
 11
19.8124302834
 21
34.4222085376
  0
LINE
  5
240
100
AcDbEntity
  8
0
100
AcDbLine
 62
7
  6
BYLAYER
 10
17.7233079354
 20
34.4222085376
 11
17.1346302834
 21
34.4222085376
  0
LINE
  5
241
100
AcDbEntity
  8
0
100
AcDbLine
 62
7
  6
BYLAYER
 10
20.4011079354
 20
31.0834300654
 11
20.7956691094
 21
31.7668300654
  0
LINE
  5
242
100
AcDbEntity
  8
0
100
AcDbLine
 62
7
  6
BYLAYER
 10
20.7956691094
 20
42.7168300654
 11
20.4011079354
 21
43.4002300654
  0
LINE
  5
243
100
AcDbEntity
  8
0
100
AcDbLine
 62
7
  6
BYLAYER
 10
17.1346302834
 20
40.0614515932
 11
17.7233079354
 21
40.0614515932
  0
LINE
  5
244
100
AcDbEntity
  8
0
100
AcDbLine
 62
7
  6
BYLAYER
 10
19.8124302834
 20
40.0614515932
 11
20.4011079354
 21
40.0614515932
  0
LINE
  5
245
100
AcDbEntity
  8
0
100
AcDbLine
 62
7
  6
BYLAYER
 10
31.1956691094
 20
41.2418300654
 11
31.1956691094
 21
33.2418300654
  0
LINE
  5
246
100
AcDbEntity
  8
0
100
AcDbLine
 62
7
  6
BYLAYER
 10
31.7956691094
 20
40.4918300654
 11
47.7956691094
 21
40.4918300654
  0
LINE
  5
247
100
AcDbEntity
  8
0
100
AcDbLine
 62
7
  6
BYLAYER
 10
20.4011079354
 20
40.5735083872
 11
19.8124302834
 21
40.5735083872
  0
LINE
  5
248
100
AcDbEntity
  8
0
100
AcDbLine
 62
7
  6
BYLAYER
 10
17.7233079354
 20
40.5735083872
 11
17.1346302834
 21
40.5735083872
  0
LINE
  5
249
100
AcDbEntity
  8
0
100
AcDbLine
 62
7
  6
BYLAYER
 10
6.3956691094
 20
41.2418300654
 11
16.7400691094
 21
41.2418300654
  0
LINE
  5
24A
100
AcDbEntity
  8
0
100
AcDbLine
 62
7
  6
BYLAYER
 10
18.1178691094
 20
41.2418300654
 11
19.4178691094
 21
41.2418300654
  0
LINE
  5
24B
100
AcDbEntity
  8
0
100
AcDbLine
 62
7
  6
BYLAYER
 10
20.7956691094
 20
41.2418300654
 11
31.1956691094
 21
41.2418300654
  0
LINE
  5
24C
100
AcDbEntity
  8
0
100
AcDbLine
 62
7
  6
BYLAYER
 10
31.7956691094
 20
40.6418300654
 11
31.7956691094
 21
33.8418300654
  0
LINE
  5
24D
100
AcDbEntity
  8
0
100
AcDbLine
 62
7
  6
BYLAYER
 10
31.7956691094
 20
33.8418300654
 11
31.1956691094
 21
33.2418300654
  0
LINE
  5
24E
100
AcDbEntity
  8
0
100
AcDbLine
 62
7
  6
BYLAYER
 10
31.1956691094
 20
41.2418300654
 11
31.7956691094
 21
40.6418300654
  0
LINE
  5
24F
100
AcDbEntity
  8
0
100
AcDbLine
 62
7
  6
BYLAYER
 10
17.1346302834
 20
43.393129915
 11
17.7233079354
 21
43.393129915
  0
LINE
  5
250
100
AcDbEntity
  8
0
100
AcDbLine
 62
7
  6
BYLAYER
 10
19.8124302834
 20
43.393129915
 11
20.4011079354
 21
43.393129915
  0
LINE
  5
251
100
AcDbEntity
  8
0
100
AcDbLine
 62
7
  6
BYLAYER
 10
20.4011079354
 20
43.4002300654
 11
19.8124302834
 21
43.4002300654
  0
LINE
  5
252
100
AcDbEntity
  8
0
100
AcDbLine
 62
7
  6
BYLAYER
 10
17.7233079354
 20
43.4002300654
 11
17.1346302834
 21
43.4002300654
  0
LINE
  5
253
100
AcDbEntity
  8
0
100
AcDbLine
 62
7
  6
BYLAYER
 10
47.7956691094
 20
40.4918300654
 11
47.7956691094
 21
33.9918300654
  0
SPLINE
  5
254
100
AcDbEntity
  8
0
100
AcDbSpline
 62
7
  6
BYLAYER
 70
0
 71
3
 72
12
 73
8
 74
0
 42
0.0000001
 43
0.0000001
 44
0.0000000001
 40
0.0
 40
0.0
 40
0.0
 40
0.0
 40
0.2599885023
 40
0.5122208865
 40
0.7579337738
 40
0.8792259754
 40
1.0
 40
1.0
 40
1.0
 40
1.0
 10
19.8124302834
 20
31.0905302157
 30
0.0
 10
19.7525554204
 20
31.2037838743
 30
0.0
 10
19.6432256404
 20
31.4317078565
 30
0.0
 10
19.51636216
 20
31.7837483095
 30
0.0
 10
19.4492728992
 20
32.0824818006
 30
0.0
 10
19.4223859596
 20
32.3215041365
 30
0.0
 10
19.4178691094
 20
32.4408306871
 30
0.0
 10
19.4178691094
 20
32.5003409796
 30
0.0
  0
SPLINE
  5
255
100
AcDbEntity
  8
0
100
AcDbSpline
 62
7
  6
BYLAYER
 70
0
 71
3
 72
13
 73
9
 74
0
 42
0.0000001
 43
0.0000001
 44
0.0000000001
 40
0.0
 40
0.0
 40
0.0
 40
0.0
 40
0.1207600106
 40
0.2420297294
 40
0.3642612925
 40
0.4878451936
 40
0.740039194
 40
1.0
 40
1.0
 40
1.0
 40
1.0
 10
20.7956691094
 20
32.5003409796
 30
0.0
 10
20.7956691094
 20
32.4408292504
 30
0.0
 10
20.7911744353
 20
32.3215064699
 30
0.0
 10
20.7710568568
 20
32.1429717553
 30
0.0
 10
20.7379004339
 20
31.9649778318
 30
0.0
 10
20.6767246929
 20
31.7271373671
 30
0.0
 10
20.5703473842
 20
31.4316653039
 30
0.0
 10
20.4609848132
 20
31.2037876853
 30
0.0
 10
20.4011079354
 20
31.0905302157
 30
0.0
  0
SPLINE
  5
256
100
AcDbEntity
  8
0
100
AcDbSpline
 62
7
  6
BYLAYER
 70
0
 71
3
 72
11
 73
7
 74
0
 42
0.0000001
 43
0.0000001
 44
0.0000000001
 40
0.0
 40
0.0
 40
0.0
 40
0.0
 40
0.2500037018
 40
0.5000032728
 40
0.7500026492
 40
1.0
 40
1.0
 40
1.0
 40
1.0
 10
19.8124302834
 20
34.4222085376
 30
0.0
 10
19.7516331592
 20
34.6522047797
 30
0.0
 10
19.6409808815
 20
35.1152034096
 30
0.0
 10
19.5150140436
 20
35.818135842
 30
0.0
 10
19.4358490998
 20
36.5279696104
 30
0.0
 10
19.4178691094
 20
37.0039399934
 30
0.0
 10
19.4178691094
 20
37.2418300654
 30
0.0
  0
SPLINE
  5
257
100
AcDbEntity
  8
0
100
AcDbSpline
 62
7
  6
BYLAYER
 70
0
 71
3
 72
13
 73
9
 74
0
 42
0.0000001
 43
0.0000001
 44
0.0000000001
 40
0.0
 40
0.0
 40
0.0
 40
0.0
 40
0.1207600106
 40
0.2420297294
 40
0.3642612925
 40
0.4878451936
 40
0.740039194
 40
1.0
 40
1.0
 40
1.0
 40
1.0
 10
19.4178691094
 20
32.5003409796
 30
0.0
 10
19.4178691094
 20
32.5598527088
 30
0.0
 10
19.4223637835
 20
32.6791754894
 30
0.0
 10
19.442481362
 20
32.8577102039
 30
0.0
 10
19.4756377849
 20
33.0357041274
 30
0.0
 10
19.5368135259
 20
33.2735445921
 30
0.0
 10
19.6431908346
 20
33.5690166554
 30
0.0
 10
19.7525534056
 20
33.796894274
 30
0.0
 10
19.8124302834
 20
33.9101517435
 30
0.0
  0
SPLINE
  5
258
100
AcDbEntity
  8
0
100
AcDbSpline
 62
7
  6
BYLAYER
 70
0
 71
3
 72
13
 73
9
 74
0
 42
0.0000001
 43
0.0000001
 44
0.0000000001
 40
0.0
 40
0.0
 40
0.0
 40
0.0
 40
0.1207600106
 40
0.2420297294
 40
0.3642612925
 40
0.4878451936
 40
0.740039194
 40
1.0
 40
1.0
 40
1.0
 40
1.0
 10
19.4178691094
 20
41.9833191511
 30
0.0
 10
19.4178691094
 20
42.0428308803
 30
0.0
 10
19.4223637835
 20
42.1621536608
 30
0.0
 10
19.442481362
 20
42.3406883754
 30
0.0
 10
19.4756377849
 20
42.5186822989
 30
0.0
 10
19.5368135259
 20
42.7565227636
 30
0.0
 10
19.6431908346
 20
43.0519948269
 30
0.0
 10
19.7525534056
 20
43.2798724454
 30
0.0
 10
19.8124302834
 20
43.393129915
 30
0.0
  0
SPLINE
  5
259
100
AcDbEntity
  8
0
100
AcDbSpline
 62
7
  6
BYLAYER
 70
0
 71
3
 72
12
 73
8
 74
0
 42
0.0000001
 43
0.0000001
 44
0.0000000001
 40
0.0
 40
0.0
 40
0.0
 40
0.0
 40
0.2599885023
 40
0.5122208865
 40
0.7579337738
 40
0.8792259754
 40
1.0
 40
1.0
 40
1.0
 40
1.0
 10
20.4011079354
 20
43.393129915
 30
0.0
 10
20.4609827984
 20
43.2798762564
 30
0.0
 10
20.5703125784
 20
43.0519522743
 30
0.0
 10
20.6971760588
 20
42.6999118212
 30
0.0
 10
20.7642653196
 20
42.4011783301
 30
0.0
 10
20.7911522592
 20
42.1621559942
 30
0.0
 10
20.7956691094
 20
42.0428294436
 30
0.0
 10
20.7956691094
 20
41.9833191511
 30
0.0
  0
SPLINE
  5
25A
100
AcDbEntity
  8
0
100
AcDbSpline
 62
7
  6
BYLAYER
 70
0
 71
3
 72
12
 73
8
 74
0
 42
0.0000001
 43
0.0000001
 44
0.0000000001
 40
0.0
 40
0.0
 40
0.0
 40
0.0
 40
0.2599885023
 40
0.5122208865
 40
0.7579337738
 40
0.8792259754
 40
1.0
 40
1.0
 40
1.0
 40
1.0
 10
20.4011079354
 20
33.9101517435
 30
0.0
 10
20.4609827984
 20
33.796898085
 30
0.0
 10
20.5703125784
 20
33.5689741028
 30
0.0
 10
20.6971760588
 20
33.2169336497
 30
0.0
 10
20.7642653196
 20
32.9182001587
 30
0.0
 10
20.7911522592
 20
32.6791778227
 30
0.0
 10
20.7956691094
 20
32.5598512721
 30
0.0
 10
20.7956691094
 20
32.5003409796
 30
0.0
  0
SPLINE
  5
25B
100
AcDbEntity
  8
0
100
AcDbSpline
 62
7
  6
BYLAYER
 70
0
 71
3
 72
11
 73
7
 74
0
 42
0.0000001
 43
0.0000001
 44
0.0000000001
 40
0.0
 40
0.0
 40
0.0
 40
0.0
 40
0.2499941267
 40
0.499989762
 40
0.7499912518
 40
1.0
 40
1.0
 40
1.0
 40
1.0
 10
20.7956691094
 20
37.2418300654
 30
0.0
 10
20.7956691094
 20
37.0039430484
 30
0.0
 10
20.7776971053
 20
36.527978125
 30
0.0
 10
20.6984975176
 20
35.8181542591
 30
0.0
 10
20.5725962279
 20
35.1152067966
 30
0.0
 10
20.4619062901
 20
34.6522094348
 30
0.0
 10
20.4011079354
 20
34.4222085376
 30
0.0
  0
SPLINE
  5
25C
100
AcDbEntity
  8
0
100
AcDbSpline
 62
7
  6
BYLAYER
 70
0
 71
3
 72
11
 73
7
 74
0
 42
0.0000001
 43
0.0000001
 44
0.0000000001
 40
0.0
 40
0.0
 40
0.0
 40
0.0
 40
0.2499941267
 40
0.499989762
 40
0.7499912518
 40
1.0
 40
1.0
 40
1.0
 40
1.0
 10
19.4178691094
 20
37.2418300654
 30
0.0
 10
19.4178691094
 20
37.4797170823
 30
0.0
 10
19.4358411135
 20
37.9556820058
 30
0.0
 10
19.5150407012
 20
38.6655058716
 30
0.0
 10
19.6409419909
 20
39.3684533341
 30
0.0
 10
19.7516319287
 20
39.831450696
 30
0.0
 10
19.8124302834
 20
40.0614515932
 30
0.0
  0
SPLINE
  5
25D
100
AcDbEntity
  8
0
100
AcDbSpline
 62
7
  6
BYLAYER
 70
0
 71
3
 72
12
 73
8
 74
0
 42
0.0000001
 43
0.0000001
 44
0.0000000001
 40
0.0
 40
0.0
 40
0.0
 40
0.0
 40
0.2599885023
 40
0.5122208865
 40
0.7579337738
 40
0.8792259754
 40
1.0
 40
1.0
 40
1.0
 40
1.0
 10
19.8124302834
 20
40.5735083872
 30
0.0
 10
19.7525554204
 20
40.6867620458
 30
0.0
 10
19.6432256404
 20
40.9146860279
 30
0.0
 10
19.51636216
 20
41.266726481
 30
0.0
 10
19.4492728992
 20
41.565459972
 30
0.0
 10
19.4223859596
 20
41.804482308
 30
0.0
 10
19.4178691094
 20
41.9238088586
 30
0.0
 10
19.4178691094
 20
41.9833191511
 30
0.0
  0
SPLINE
  5
25E
100
AcDbEntity
  8
0
100
AcDbSpline
 62
7
  6
BYLAYER
 70
0
 71
3
 72
13
 73
9
 74
0
 42
0.0000001
 43
0.0000001
 44
0.0000000001
 40
0.0
 40
0.0
 40
0.0
 40
0.0
 40
0.1207600106
 40
0.2420297294
 40
0.3642612925
 40
0.4878451936
 40
0.740039194
 40
1.0
 40
1.0
 40
1.0
 40
1.0
 10
20.7956691094
 20
41.9833191511
 30
0.0
 10
20.7956691094
 20
41.9238074219
 30
0.0
 10
20.7911744353
 20
41.8044846414
 30
0.0
 10
20.7710568568
 20
41.6259499268
 30
0.0
 10
20.7379004339
 20
41.4479560033
 30
0.0
 10
20.6767246929
 20
41.2101155386
 30
0.0
 10
20.5703473842
 20
40.9146434753
 30
0.0
 10
20.4609848132
 20
40.6867658567
 30
0.0
 10
20.4011079354
 20
40.5735083872
 30
0.0
  0
SPLINE
  5
25F
100
AcDbEntity
  8
0
100
AcDbSpline
 62
7
  6
BYLAYER
 70
0
 71
3
 72
11
 73
7
 74
0
 42
0.0000001
 43
0.0000001
 44
0.0000000001
 40
0.0
 40
0.0
 40
0.0
 40
0.0
 40
0.2500037018
 40
0.5000032728
 40
0.7500026492
 40
1.0
 40
1.0
 40
1.0
 40
1.0
 10
20.4011079354
 20
40.0614515932
 30
0.0
 10
20.4619050596
 20
39.831455351
 30
0.0
 10
20.5725573373
 20
39.3684567211
 30
0.0
 10
20.6985241752
 20
38.6655242887
 30
0.0
 10
20.777689119
 20
37.9556905203
 30
0.0
 10
20.7956691094
 20
37.4797201373
 30
0.0
 10
20.7956691094
 20
37.2418300654
 30
0.0
  0
SPLINE
  5
260
100
AcDbEntity
  8
0
100
AcDbSpline
 62
7
  6
BYLAYER
 70
0
 71
3
 72
12
 73
8
 74
0
 42
0.0000001
 43
0.0000001
 44
0.0000000001
 40
0.0
 40
0.0
 40
0.0
 40
0.0
 40
0.2599885023
 40
0.5122208865
 40
0.7579337738
 40
0.8792259754
 40
1.0
 40
1.0
 40
1.0
 40
1.0
 10
17.1346302834
 20
31.0905302157
 30
0.0
 10
17.0747554204
 20
31.2037838743
 30
0.0
 10
16.9654256404
 20
31.4317078565
 30
0.0
 10
16.83856216
 20
31.7837483095
 30
0.0
 10
16.7714728992
 20
32.0824818006
 30
0.0
 10
16.7445859596
 20
32.3215041365
 30
0.0
 10
16.7400691094
 20
32.4408306871
 30
0.0
 10
16.7400691094
 20
32.5003409796
 30
0.0
  0
SPLINE
  5
261
100
AcDbEntity
  8
0
100
AcDbSpline
 62
7
  6
BYLAYER
 70
0
 71
3
 72
13
 73
9
 74
0
 42
0.0000001
 43
0.0000001
 44
0.0000000001
 40
0.0
 40
0.0
 40
0.0
 40
0.0
 40
0.1207600106
 40
0.2420297294
 40
0.3642612925
 40
0.4878451936
 40
0.740039194
 40
1.0
 40
1.0
 40
1.0
 40
1.0
 10
18.1178691094
 20
32.5003409796
 30
0.0
 10
18.1178691094
 20
32.4408292504
 30
0.0
 10
18.1133744353
 20
32.3215064699
 30
0.0
 10
18.0932568568
 20
32.1429717553
 30
0.0
 10
18.0601004339
 20
31.9649778318
 30
0.0
 10
17.9989246929
 20
31.7271373671
 30
0.0
 10
17.8925473842
 20
31.4316653039
 30
0.0
 10
17.7831848132
 20
31.2037876853
 30
0.0
 10
17.7233079354
 20
31.0905302157
 30
0.0
  0
SPLINE
  5
262
100
AcDbEntity
  8
0
100
AcDbSpline
 62
7
  6
BYLAYER
 70
0
 71
3
 72
11
 73
7
 74
0
 42
0.0000001
 43
0.0000001
 44
0.0000000001
 40
0.0
 40
0.0
 40
0.0
 40
0.0
 40
0.2500037018
 40
0.5000032728
 40
0.7500026492
 40
1.0
 40
1.0
 40
1.0
 40
1.0
 10
17.1346302834
 20
34.4222085376
 30
0.0
 10
17.0738331592
 20
34.6522047797
 30
0.0
 10
16.9631808815
 20
35.1152034096
 30
0.0
 10
16.8372140436
 20
35.818135842
 30
0.0
 10
16.7580490998
 20
36.5279696104
 30
0.0
 10
16.7400691094
 20
37.0039399934
 30
0.0
 10
16.7400691094
 20
37.2418300654
 30
0.0
  0
SPLINE
  5
263
100
AcDbEntity
  8
0
100
AcDbSpline
 62
7
  6
BYLAYER
 70
0
 71
3
 72
13
 73
9
 74
0
 42
0.0000001
 43
0.0000001
 44
0.0000000001
 40
0.0
 40
0.0
 40
0.0
 40
0.0
 40
0.1207600106
 40
0.2420297294
 40
0.3642612925
 40
0.4878451936
 40
0.740039194
 40
1.0
 40
1.0
 40
1.0
 40
1.0
 10
16.7400691094
 20
32.5003409796
 30
0.0
 10
16.7400691094
 20
32.5598527088
 30
0.0
 10
16.7445637835
 20
32.6791754894
 30
0.0
 10
16.764681362
 20
32.8577102039
 30
0.0
 10
16.7978377849
 20
33.0357041274
 30
0.0
 10
16.8590135259
 20
33.2735445921
 30
0.0
 10
16.9653908346
 20
33.5690166554
 30
0.0
 10
17.0747534056
 20
33.796894274
 30
0.0
 10
17.1346302834
 20
33.9101517435
 30
0.0
  0
SPLINE
  5
264
100
AcDbEntity
  8
0
100
AcDbSpline
 62
7
  6
BYLAYER
 70
0
 71
3
 72
13
 73
9
 74
0
 42
0.0000001
 43
0.0000001
 44
0.0000000001
 40
0.0
 40
0.0
 40
0.0
 40
0.0
 40
0.1207600106
 40
0.2420297294
 40
0.3642612925
 40
0.4878451936
 40
0.740039194
 40
1.0
 40
1.0
 40
1.0
 40
1.0
 10
16.7400691094
 20
41.9833191511
 30
0.0
 10
16.7400691094
 20
42.0428308803
 30
0.0
 10
16.7445637835
 20
42.1621536608
 30
0.0
 10
16.764681362
 20
42.3406883754
 30
0.0
 10
16.7978377849
 20
42.5186822989
 30
0.0
 10
16.8590135259
 20
42.7565227636
 30
0.0
 10
16.9653908346
 20
43.0519948269
 30
0.0
 10
17.0747534056
 20
43.2798724454
 30
0.0
 10
17.1346302834
 20
43.393129915
 30
0.0
  0
SPLINE
  5
265
100
AcDbEntity
  8
0
100
AcDbSpline
 62
7
  6
BYLAYER
 70
0
 71
3
 72
12
 73
8
 74
0
 42
0.0000001
 43
0.0000001
 44
0.0000000001
 40
0.0
 40
0.0
 40
0.0
 40
0.0
 40
0.2599885023
 40
0.5122208865
 40
0.7579337738
 40
0.8792259754
 40
1.0
 40
1.0
 40
1.0
 40
1.0
 10
17.7233079354
 20
43.393129915
 30
0.0
 10
17.7831827984
 20
43.2798762564
 30
0.0
 10
17.8925125784
 20
43.0519522743
 30
0.0
 10
18.0193760588
 20
42.6999118212
 30
0.0
 10
18.0864653196
 20
42.4011783301
 30
0.0
 10
18.1133522592
 20
42.1621559942
 30
0.0
 10
18.1178691094
 20
42.0428294436
 30
0.0
 10
18.1178691094
 20
41.9833191511
 30
0.0
  0
SPLINE
  5
266
100
AcDbEntity
  8
0
100
AcDbSpline
 62
7
  6
BYLAYER
 70
0
 71
3
 72
12
 73
8
 74
0
 42
0.0000001
 43
0.0000001
 44
0.0000000001
 40
0.0
 40
0.0
 40
0.0
 40
0.0
 40
0.2599885023
 40
0.5122208865
 40
0.7579337738
 40
0.8792259754
 40
1.0
 40
1.0
 40
1.0
 40
1.0
 10
17.7233079354
 20
33.9101517435
 30
0.0
 10
17.7831827984
 20
33.796898085
 30
0.0
 10
17.8925125784
 20
33.5689741028
 30
0.0
 10
18.0193760588
 20
33.2169336497
 30
0.0
 10
18.0864653196
 20
32.9182001587
 30
0.0
 10
18.1133522592
 20
32.6791778227
 30
0.0
 10
18.1178691094
 20
32.5598512721
 30
0.0
 10
18.1178691094
 20
32.5003409796
 30
0.0
  0
SPLINE
  5
267
100
AcDbEntity
  8
0
100
AcDbSpline
 62
7
  6
BYLAYER
 70
0
 71
3
 72
11
 73
7
 74
0
 42
0.0000001
 43
0.0000001
 44
0.0000000001
 40
0.0
 40
0.0
 40
0.0
 40
0.0
 40
0.2499941267
 40
0.499989762
 40
0.7499912518
 40
1.0
 40
1.0
 40
1.0
 40
1.0
 10
18.1178691094
 20
37.2418300654
 30
0.0
 10
18.1178691094
 20
37.0039430484
 30
0.0
 10
18.0998971053
 20
36.527978125
 30
0.0
 10
18.0206975176
 20
35.8181542591
 30
0.0
 10
17.8947962279
 20
35.1152067966
 30
0.0
 10
17.7841062901
 20
34.6522094348
 30
0.0
 10
17.7233079354
 20
34.4222085376
 30
0.0
  0
SPLINE
  5
268
100
AcDbEntity
  8
0
100
AcDbSpline
 62
7
  6
BYLAYER
 70
0
 71
3
 72
11
 73
7
 74
0
 42
0.0000001
 43
0.0000001
 44
0.0000000001
 40
0.0
 40
0.0
 40
0.0
 40
0.0
 40
0.2499941267
 40
0.499989762
 40
0.7499912518
 40
1.0
 40
1.0
 40
1.0
 40
1.0
 10
16.7400691094
 20
37.2418300654
 30
0.0
 10
16.7400691094
 20
37.4797170823
 30
0.0
 10
16.7580411135
 20
37.9556820058
 30
0.0
 10
16.8372407012
 20
38.6655058716
 30
0.0
 10
16.9631419909
 20
39.3684533341
 30
0.0
 10
17.0738319287
 20
39.831450696
 30
0.0
 10
17.1346302834
 20
40.0614515932
 30
0.0
  0
SPLINE
  5
269
100
AcDbEntity
  8
0
100
AcDbSpline
 62
7
  6
BYLAYER
 70
0
 71
3
 72
12
 73
8
 74
0
 42
0.0000001
 43
0.0000001
 44
0.0000000001
 40
0.0
 40
0.0
 40
0.0
 40
0.0
 40
0.2599885023
 40
0.5122208865
 40
0.7579337738
 40
0.8792259754
 40
1.0
 40
1.0
 40
1.0
 40
1.0
 10
17.1346302834
 20
40.5735083872
 30
0.0
 10
17.0747554204
 20
40.6867620458
 30
0.0
 10
16.9654256404
 20
40.9146860279
 30
0.0
 10
16.83856216
 20
41.266726481
 30
0.0
 10
16.7714728992
 20
41.565459972
 30
0.0
 10
16.7445859596
 20
41.804482308
 30
0.0
 10
16.7400691094
 20
41.9238088586
 30
0.0
 10
16.7400691094
 20
41.9833191511
 30
0.0
  0
SPLINE
  5
26A
100
AcDbEntity
  8
0
100
AcDbSpline
 62
7
  6
BYLAYER
 70
0
 71
3
 72
13
 73
9
 74
0
 42
0.0000001
 43
0.0000001
 44
0.0000000001
 40
0.0
 40
0.0
 40
0.0
 40
0.0
 40
0.1207600106
 40
0.2420297294
 40
0.3642612925
 40
0.4878451936
 40
0.740039194
 40
1.0
 40
1.0
 40
1.0
 40
1.0
 10
18.1178691094
 20
41.9833191511
 30
0.0
 10
18.1178691094
 20
41.9238074219
 30
0.0
 10
18.1133744353
 20
41.8044846414
 30
0.0
 10
18.0932568568
 20
41.6259499268
 30
0.0
 10
18.0601004339
 20
41.4479560033
 30
0.0
 10
17.9989246929
 20
41.2101155386
 30
0.0
 10
17.8925473842
 20
40.9146434753
 30
0.0
 10
17.7831848132
 20
40.6867658567
 30
0.0
 10
17.7233079354
 20
40.5735083872
 30
0.0
  0
SPLINE
  5
26B
100
AcDbEntity
  8
0
100
AcDbSpline
 62
7
  6
BYLAYER
 70
0
 71
3
 72
11
 73
7
 74
0
 42
0.0000001
 43
0.0000001
 44
0.0000000001
 40
0.0
 40
0.0
 40
0.0
 40
0.0
 40
0.2500037018
 40
0.5000032728
 40
0.7500026492
 40
1.0
 40
1.0
 40
1.0
 40
1.0
 10
17.7233079354
 20
40.0614515932
 30
0.0
 10
17.7841050596
 20
39.831455351
 30
0.0
 10
17.8947573373
 20
39.3684567211
 30
0.0
 10
18.0207241752
 20
38.6655242887
 30
0.0
 10
18.099889119
 20
37.9556905203
 30
0.0
 10
18.1178691094
 20
37.4797201373
 30
0.0
 10
18.1178691094
 20
37.2418300654
 30
0.0
  0
ENDSEC
  0
SECTION
  2
OBJECTS
  0
DICTIONARY
  5
C
100
AcDbDictionary
280
0
281
1
  3
ACAD_GROUP
350
D
  3
ACAD_MLINESTYLE
350
17
  3
ACAD_LAYOUT
350
1A
  3
ACAD_PLOTSETTINGS
350
19
  3
ACAD_PLOTSTYLENAME
350
E
  0
DICTIONARY
  5
D
102
{ACAD_REACTORS
330
C
102
}
100
AcDbDictionary
280
0
281
1
  0
ACDBDICTIONARYWDFLT
  5
E
102
{ACAD_REACTORS
330
C
102
}
100
AcDbDictionary
281
1
  3
Normal
350
F
100
AcDbDictionaryWithDefault
340
F
  0
DICTIONARY
  5
17
102
{ACAD_REACTORS
330
C
102
}
100
AcDbDictionary
280
0
281
1
  3
Standard
350
18
  0
DICTIONARY
  5
19
102
{ACAD_REACTORS
330
C
102
}
100
AcDbDictionary
281
1
  0
DICTIONARY
  5
1A
102
{ACAD_REACTORS
330
C
102
}
100
AcDbDictionary
281
1
  3
Model
350
26C
  3
Layout1
350
26D
  0
ACDBPLACEHOLDER
  5
F
102
{ACAD_REACTORS
330
E
102
}
  0
MLINESTYLE
  5
18
102
{ACAD_REACTORS
330
17
102
}
100
AcDbMlineStyle
  2
STANDARD
 70
0
  3

 62
256
 51
90.0
 52
90.0
 71
2
 49
0.5
 62
256
  6
BYLAYER
 49
-0.5
 62
256
  6
BYLAYER
  0
LAYOUT
  5
26C
102
{ACAD_REACTORS
330
1A
102
}
100
AcDbPlotSettings
  1

  2
none_device
  4

  6

 40
0.0
 41
0.0
 42
0.0
 43
0.0
 44
210.0
 45
297.0
 46
0.0
 47
0.0
 48
0.0
 49
0.0
140
0.0
141
0.0
142
1.0
143
1.0
 70
1024
 72
1
 73
0
 74
0
  7

 75
0
147
1.0
148
0.0
149
0.0
100
AcDbLayout
  1
Model
 70
0
 71
0
 10
0.0
 20
0.0
 11
210.0
 21
297.0
 12
0.0
 22
0.0
 32
0.0
 14
0.0
 24
0.0
 34
0.0
 15
0.0
 25
0.0
 35
0.0
146
0.0
 13
0.0
 23
0.0
 33
0.0
 16
1.0
 26
0.0
 36
0.0
 17
0.0
 27
1.0
 37
0.0
 76
0
330
210
345
0
346
0
  0
LAYOUT
  5
26D
102
{ACAD_REACTORS
330
1A
102
}
100
AcDbPlotSettings
  1

  2
none_device
  4

  6

 40
0.0
 41
0.0
 42
0.0
 43
0.0
 44
210.0
 45
297.0
 46
0.0
 47
0.0
 48
0.0
 49
0.0
140
0.0
141
0.0
142
1.0
143
1.0
 70
0
 72
1
 73
0
 74
0
  7

 75
0
147
1.0
148
0.0
149
0.0
100
AcDbLayout
  1
Layout1
 70
0
 71
1
 10
0.0
 20
0.0
 11
210.0
 21
297.0
 12
0.0
 22
0.0
 32
0.0
 14
0.0
 24
0.0
 34
0.0
 15
0.0
 25
0.0
 35
0.0
146
0.0
 13
0.0
 23
0.0
 33
0.0
 16
1.0
 26
0.0
 36
0.0
 17
0.0
 27
1.0
 37
0.0
 76
0
330
211
345
0
346
0
  0
ENDSEC
  0
EOF
