  0
SECTION
  2
HEADER
  9
$ACADVER
  1
AC1006
  9
$EXTMIN
 10
-2.237000
 20
-4.227000
  9
$EXTMAX
 10
2.238870
 20
4.233000
  9
$LTSCALE
 40
0.000394
  9
$PDMODE
 70
    35
  9
$PDSIZE
 40
0.000315
  0
ENDSEC
  0
SECTION
  2
TABLES
  0
TABLE
  2
LTYPE
 70
     9
  0
LTYPE
  2
CONTINUOUS
 70
    64
  3
Solid line
 72
    65
 73
     0
 40
0.000000
  0
LTYPE
  2
DASHED
 70
    64
  3
__ __ __ __ __ __ __ __ __ __ __ __ __ __ __
 72
    65
 73
     2
 40
0.000003
 49
0.000002
 49
-0.000001
  0
LTYPE
  2
HIDDEN
 70
    64
  3
 _ _ _ _ _ _ _ _ _ _ _ _ _ _ _ _ _ _ _ _ _ _
 72
    65
 73
     2
 40
0.000001
 49
0.000001
 49
-0.000000
  0
LTYPE
  2
CENTER
 70
    64
  3
____ _ ____ _ ____ _ ____ _ ____ _ ____ _ ____
 72
    65
 73
     4
 40
0.000008
 49
0.000005
 49
-0.000001
 49
0.000001
 49
-0.000001
  0
LTYPE
  2
PHANTOM
 70
    64
  3
_____ _ _ _____ _ _ _____ _ _ _____ _ _ ____
 72
    65
 73
     6
 40
0.000010
 49
0.000005
 49
-0.000001
 49
0.000001
 49
-0.000001
 49
0.000001
 49
-0.000001
  0
LTYPE
  2
DOT
 70
    64
  3
...............................................
 72
    65
 73
     2
 40
0.000001
 49
0.000000
 49
-0.000001
  0
LTYPE
  2
DASHDOT
 70
    64
  3
__ . __ . __ . __ . __ . __ . __ . __ . __ . __
 72
    65
 73
     4
 40
0.000004
 49
0.000002
 49
-0.000001
 49
0.000000
 49
-0.000001
  0
LTYPE
  2
BORDER
 70
    64
  3
__ __ . __ __ . __ __ . __ __ . __ __ . __ __
 72
    65
 73
     6
 40
0.000007
 49
0.000002
 49
-0.000001
 49
0.000002
 49
-0.000001
 49
0.000000
 49
-0.000001
  0
LTYPE
  2
DIVIDE
 70
    64
  3
__ . . __ . . __ . . __ . . __ . . __ . . __
 72
    65
 73
     6
 40
0.000005
 49
0.000002
 49
-0.000001
 49
0.000000
 49
-0.000001
 49
0.000000
 49
-0.000001
  0
LTYPE
  2
DOTDOT
 70
    64
  3
 . .  . .  . .  . .  . .  . . 
 72
    65
 73
     5
 40
0.000002
 49
-0.000001
 49
0.000000
 49
-0.000001
 49
0.000000
 49
-0.000001
  0
ENDTAB
  0
TABLE
  2
STYLE
 70
     0
  0
ENDTAB
  0
TABLE
  2
LAYER
 70
     3
  0
LAYER
  2
FOREGROUND
 70
    64
 62
     7
  6
CONTINUOUS
  0
LAYER
  2
BACKGROUND
 70
    65
 62
    -7
  6
CONTINUOUS
  0
LAYER
  2
PLAN_1
 70
    64
 62
     7
  6
CONTINUOUS
  0
ENDTAB
  0
ENDSEC
  0
SECTION
  2
ENTITIES
  0
POLYLINE
  8
PLAN_1
  6
CONTINUOUS
 66
     1
 40
0.003000
 41
0.003000
  0
VERTEX
  8
PLAN_1
  6
CONTINUOUS
 10
0.236492
 20
-4.221713
  0
VERTEX
  8
PLAN_1
  6
CONTINUOUS
 10
0.203181
 20
-4.221713
  0
VERTEX
  8
PLAN_1
  6
CONTINUOUS
 10
0.149248
 20
-4.139756
  0
VERTEX
  8
PLAN_1
  6
CONTINUOUS
 10
0.094260
 20
-4.221713
  0
VERTEX
  8
PLAN_1
  6
CONTINUOUS
 10
0.062004
 20
-4.221713
  0
VERTEX
  8
PLAN_1
  6
CONTINUOUS
 10
0.132858
 20
-4.119665
  0
VERTEX
  8
PLAN_1
  6
CONTINUOUS
 10
0.066236
 20
-4.022374
  0
VERTEX
  8
PLAN_1
  6
CONTINUOUS
 10
0.100075
 20
-4.022374
  0
VERTEX
  8
PLAN_1
  6
CONTINUOUS
 10
0.150835
 20
-4.098516
  0
VERTEX
  8
PLAN_1
  6
CONTINUOUS
 10
0.201067
 20
-4.022374
  0
VERTEX
  8
PLAN_1
  6
CONTINUOUS
 10
0.233319
 20
-4.022374
  0
VERTEX
  8
PLAN_1
  6
CONTINUOUS
 10
0.166169
 20
-4.119665
  0
VERTEX
  8
PLAN_1
  6
CONTINUOUS
 10
0.236492
 20
-4.221713
  0
SEQEND
  8
0
  0
POLYLINE
  8
PLAN_1
  6
CONTINUOUS
 66
     1
 40
0.003000
 41
0.003000
  0
VERTEX
  8
PLAN_1
  6
CONTINUOUS
 10
0.402520
 20
-4.082122
  0
VERTEX
  8
PLAN_1
  6
CONTINUOUS
 10
0.400933
 20
-4.076307
  0
VERTEX
  8
PLAN_1
  6
CONTINUOUS
 10
0.398819
 20
-4.070492
  0
VERTEX
  8
PLAN_1
  6
CONTINUOUS
 10
0.396705
 20
-4.065732
  0
VERTEX
  8
PLAN_1
  6
CONTINUOUS
 10
0.393531
 20
-4.060972
  0
VERTEX
  8
PLAN_1
  6
CONTINUOUS
 10
0.390358
 20
-4.057272
  0
VERTEX
  8
PLAN_1
  6
CONTINUOUS
 10
0.386657
 20
-4.054098
  0
VERTEX
  8
PLAN_1
  6
CONTINUOUS
 10
0.382957
 20
-4.050925
  0
VERTEX
  8
PLAN_1
  6
CONTINUOUS
 10
0.379256
 20
-4.048811
  0
VERTEX
  8
PLAN_1
  6
CONTINUOUS
 10
0.375024
 20
-4.046697
  0
VERTEX
  8
PLAN_1
  6
CONTINUOUS
 10
0.370795
 20
-4.045110
  0
VERTEX
  8
PLAN_1
  6
CONTINUOUS
 10
0.367094
 20
-4.043524
  0
VERTEX
  8
PLAN_1
  6
CONTINUOUS
 10
0.362862
 20
-4.042469
  0
VERTEX
  8
PLAN_1
  6
CONTINUOUS
 10
0.354406
 20
-4.041409
  0
VERTEX
  8
PLAN_1
  6
CONTINUOUS
 10
0.347000
 20
-4.040882
  0
VERTEX
  8
PLAN_1
  6
CONTINUOUS
 10
0.340126
 20
-4.041409
  0
VERTEX
  8
PLAN_1
  6
CONTINUOUS
 10
0.333783
 20
-4.042469
  0
VERTEX
  8
PLAN_1
  6
CONTINUOUS
 10
0.327437
 20
-4.044051
  0
VERTEX
  8
PLAN_1
  6
CONTINUOUS
 10
0.321622
 20
-4.046169
  0
VERTEX
  8
PLAN_1
  6
CONTINUOUS
 10
0.315803
 20
-4.048811
  0
VERTEX
  8
PLAN_1
  6
CONTINUOUS
 10
0.310516
 20
-4.051984
  0
VERTEX
  8
PLAN_1
  6
CONTINUOUS
 10
0.305228
 20
-4.056213
  0
VERTEX
  8
PLAN_1
  6
CONTINUOUS
 10
0.301000
 20
-4.060972
  0
VERTEX
  8
PLAN_1
  6
CONTINUOUS
 10
0.296772
 20
-4.066260
  0
VERTEX
  8
PLAN_1
  6
CONTINUOUS
 10
0.293067
 20
-4.072075
  0
VERTEX
  8
PLAN_1
  6
CONTINUOUS
 10
0.289366
 20
-4.078421
  0
VERTEX
  8
PLAN_1
  6
CONTINUOUS
 10
0.286724
 20
-4.085823
  0
VERTEX
  8
PLAN_1
  6
CONTINUOUS
 10
0.284610
 20
-4.093228
  0
VERTEX
  8
PLAN_1
  6
CONTINUOUS
 10
0.283024
 20
-4.101685
  0
VERTEX
  8
PLAN_1
  6
CONTINUOUS
 10
0.281965
 20
-4.110677
  0
VERTEX
  8
PLAN_1
  6
CONTINUOUS
 10
0.281965
 20
-4.120193
  0
VERTEX
  8
PLAN_1
  6
CONTINUOUS
 10
0.281965
 20
-4.128654
  0
VERTEX
  8
PLAN_1
  6
CONTINUOUS
 10
0.282492
 20
-4.137114
  0
VERTEX
  8
PLAN_1
  6
CONTINUOUS
 10
0.283551
 20
-4.145043
  0
VERTEX
  8
PLAN_1
  6
CONTINUOUS
 10
0.285138
 20
-4.152976
  0
VERTEX
  8
PLAN_1
  6
CONTINUOUS
 10
0.287252
 20
-4.160378
  0
VERTEX
  8
PLAN_1
  6
CONTINUOUS
 10
0.289366
 20
-4.167252
  0
VERTEX
  8
PLAN_1
  6
CONTINUOUS
 10
0.292539
 20
-4.173598
  0
VERTEX
  8
PLAN_1
  6
CONTINUOUS
 10
0.296240
 20
-4.179413
  0
VERTEX
  8
PLAN_1
  6
CONTINUOUS
 10
0.300472
 20
-4.184701
  0
VERTEX
  8
PLAN_1
  6
CONTINUOUS
 10
0.305228
 20
-4.189461
  0
VERTEX
  8
PLAN_1
  6
CONTINUOUS
 10
0.310516
 20
-4.193161
  0
VERTEX
  8
PLAN_1
  6
CONTINUOUS
 10
0.316862
 20
-4.196862
  0
VERTEX
  8
PLAN_1
  6
CONTINUOUS
 10
0.323209
 20
-4.199504
  0
VERTEX
  8
PLAN_1
  6
CONTINUOUS
 10
0.330610
 20
-4.201622
  0
VERTEX
  8
PLAN_1
  6
CONTINUOUS
 10
0.339071
 20
-4.202677
  0
VERTEX
  8
PLAN_1
  6
CONTINUOUS
 10
0.347531
 20
-4.203205
  0
VERTEX
  8
PLAN_1
  6
CONTINUOUS
 10
0.354933
 20
-4.202677
  0
VERTEX
  8
PLAN_1
  6
CONTINUOUS
 10
0.362862
 20
-4.201091
  0
VERTEX
  8
PLAN_1
  6
CONTINUOUS
 10
0.367094
 20
-4.200035
  0
VERTEX
  8
PLAN_1
  6
CONTINUOUS
 10
0.370795
 20
-4.197917
  0
VERTEX
  8
PLAN_1
  6
CONTINUOUS
 10
0.375024
 20
-4.195803
  0
VERTEX
  8
PLAN_1
  6
CONTINUOUS
 10
0.379256
 20
-4.193161
  0
VERTEX
  8
PLAN_1
  6
CONTINUOUS
 10
0.383484
 20
-4.189988
  0
VERTEX
  8
PLAN_1
  6
CONTINUOUS
 10
0.387185
 20
-4.186287
  0
VERTEX
  8
PLAN_1
  6
CONTINUOUS
 10
0.390886
 20
-4.181528
  0
VERTEX
  8
PLAN_1
  6
CONTINUOUS
 10
0.394591
 20
-4.176768
  0
VERTEX
  8
PLAN_1
  6
CONTINUOUS
 10
0.397760
 20
-4.170953
  0
VERTEX
  8
PLAN_1
  6
CONTINUOUS
 10
0.400406
 20
-4.164079
  0
VERTEX
  8
PLAN_1
  6
CONTINUOUS
 10
0.402520
 20
-4.156677
  0
VERTEX
  8
PLAN_1
  6
CONTINUOUS
 10
0.404634
 20
-4.148217
  0
VERTEX
  8
PLAN_1
  6
CONTINUOUS
 10
0.430543
 20
-4.148217
  0
VERTEX
  8
PLAN_1
  6
CONTINUOUS
 10
0.429488
 20
-4.155091
  0
VERTEX
  8
PLAN_1
  6
CONTINUOUS
 10
0.427902
 20
-4.161965
  0
VERTEX
  8
PLAN_1
  6
CONTINUOUS
 10
0.426315
 20
-4.167780
  0
VERTEX
  8
PLAN_1
  6
CONTINUOUS
 10
0.424201
 20
-4.173598
  0
VERTEX
  8
PLAN_1
  6
CONTINUOUS
 10
0.422083
 20
-4.178886
  0
VERTEX
  8
PLAN_1
  6
CONTINUOUS
 10
0.419969
 20
-4.183642
  0
VERTEX
  8
PLAN_1
  6
CONTINUOUS
 10
0.417327
 20
-4.188402
  0
VERTEX
  8
PLAN_1
  6
CONTINUOUS
 10
0.414681
 20
-4.192630
  0
VERTEX
  8
PLAN_1
  6
CONTINUOUS
 10
0.411508
 20
-4.196335
  0
VERTEX
  8
PLAN_1
  6
CONTINUOUS
 10
0.408866
 20
-4.200035
  0
VERTEX
  8
PLAN_1
  6
CONTINUOUS
 10
0.405693
 20
-4.203205
  0
VERTEX
  8
PLAN_1
  6
CONTINUOUS
 10
0.402520
 20
-4.206378
  0
VERTEX
  8
PLAN_1
  6
CONTINUOUS
 10
0.395646
 20
-4.211665
  0
VERTEX
  8
PLAN_1
  6
CONTINUOUS
 10
0.388772
 20
-4.215898
  0
VERTEX
  8
PLAN_1
  6
CONTINUOUS
 10
0.381898
 20
-4.219598
  0
VERTEX
  8
PLAN_1
  6
CONTINUOUS
 10
0.375024
 20
-4.222240
  0
VERTEX
  8
PLAN_1
  6
CONTINUOUS
 10
0.368150
 20
-4.223827
  0
VERTEX
  8
PLAN_1
  6
CONTINUOUS
 10
0.361807
 20
-4.225413
  0
VERTEX
  8
PLAN_1
  6
CONTINUOUS
 10
0.351232
 20
-4.226472
  0
VERTEX
  8
PLAN_1
  6
CONTINUOUS
 10
0.343831
 20
-4.227000
  0
VERTEX
  8
PLAN_1
  6
CONTINUOUS
 10
0.335370
 20
-4.226472
  0
VERTEX
  8
PLAN_1
  6
CONTINUOUS
 10
0.326909
 20
-4.225413
  0
VERTEX
  8
PLAN_1
  6
CONTINUOUS
 10
0.318449
 20
-4.223827
  0
VERTEX
  8
PLAN_1
  6
CONTINUOUS
 10
0.310516
 20
-4.221185
  0
VERTEX
  8
PLAN_1
  6
CONTINUOUS
 10
0.302587
 20
-4.218012
  0
VERTEX
  8
PLAN_1
  6
CONTINUOUS
 10
0.295185
 20
-4.213783
  0
VERTEX
  8
PLAN_1
  6
CONTINUOUS
 10
0.288311
 20
-4.208496
  0
VERTEX
  8
PLAN_1
  6
CONTINUOUS
 10
0.281965
 20
-4.202677
  0
VERTEX
  8
PLAN_1
  6
CONTINUOUS
 10
0.275622
 20
-4.195803
  0
VERTEX
  8
PLAN_1
  6
CONTINUOUS
 10
0.270331
 20
-4.188402
  0
VERTEX
  8
PLAN_1
  6
CONTINUOUS
 10
0.267689
 20
-4.184173
  0
VERTEX
  8
PLAN_1
  6
CONTINUOUS
 10
0.265575
 20
-4.179413
  0
VERTEX
  8
PLAN_1
  6
CONTINUOUS
 10
0.263461
 20
-4.174654
  0
VERTEX
  8
PLAN_1
  6
CONTINUOUS
 10
0.261343
 20
-4.169894
  0
VERTEX
  8
PLAN_1
  6
CONTINUOUS
 10
0.259756
 20
-4.164606
  0
VERTEX
  8
PLAN_1
  6
CONTINUOUS
 10
0.258173
 20
-4.159319
  0
VERTEX
  8
PLAN_1
  6
CONTINUOUS
 10
0.257114
 20
-4.153504
  0
VERTEX
  8
PLAN_1
  6
CONTINUOUS
 10
0.256055
 20
-4.147689
  0
VERTEX
  8
PLAN_1
  6
CONTINUOUS
 10
0.254469
 20
-4.134996
  0
VERTEX
  8
PLAN_1
  6
CONTINUOUS
 10
0.253941
 20
-4.120720
  0
VERTEX
  8
PLAN_1
  6
CONTINUOUS
 10
0.254469
 20
-4.109618
  0
VERTEX
  8
PLAN_1
  6
CONTINUOUS
 10
0.255528
 20
-4.099043
  0
VERTEX
  8
PLAN_1
  6
CONTINUOUS
 10
0.257642
 20
-4.088469
  0
VERTEX
  8
PLAN_1
  6
CONTINUOUS
 10
0.260287
 20
-4.078949
  0
VERTEX
  8
PLAN_1
  6
CONTINUOUS
 10
0.263988
 20
-4.069961
  0
VERTEX
  8
PLAN_1
  6
CONTINUOUS
 10
0.268217
 20
-4.060972
  0
VERTEX
  8
PLAN_1
  6
CONTINUOUS
 10
0.272976
 20
-4.053043
  0
VERTEX
  8
PLAN_1
  6
CONTINUOUS
 10
0.278791
 20
-4.046169
  0
VERTEX
  8
PLAN_1
  6
CONTINUOUS
 10
0.285138
 20
-4.039823
  0
VERTEX
  8
PLAN_1
  6
CONTINUOUS
 10
0.292012
 20
-4.034008
  0
VERTEX
  8
PLAN_1
  6
CONTINUOUS
 10
0.299413
 20
-4.028720
  0
VERTEX
  8
PLAN_1
  6
CONTINUOUS
 10
0.307874
 20
-4.024488
  0
VERTEX
  8
PLAN_1
  6
CONTINUOUS
 10
0.316862
 20
-4.021315
  0
VERTEX
  8
PLAN_1
  6
CONTINUOUS
 10
0.326382
 20
-4.019201
  0
VERTEX
  8
PLAN_1
  6
CONTINUOUS
 10
0.336425
 20
-4.017614
  0
VERTEX
  8
PLAN_1
  6
CONTINUOUS
 10
0.347000
 20
-4.017087
  0
VERTEX
  8
PLAN_1
  6
CONTINUOUS
 10
0.356520
 20
-4.017614
  0
VERTEX
  8
PLAN_1
  6
CONTINUOUS
 10
0.364980
 20
-4.018673
  0
VERTEX
  8
PLAN_1
  6
CONTINUOUS
 10
0.373437
 20
-4.020260
  0
VERTEX
  8
PLAN_1
  6
CONTINUOUS
 10
0.380843
 20
-4.022902
  0
VERTEX
  8
PLAN_1
  6
CONTINUOUS
 10
0.387717
 20
-4.025547
  0
VERTEX
  8
PLAN_1
  6
CONTINUOUS
 10
0.394591
 20
-4.029248
  0
VERTEX
  8
PLAN_1
  6
CONTINUOUS
 10
0.400406
 20
-4.032949
  0
VERTEX
  8
PLAN_1
  6
CONTINUOUS
 10
0.405693
 20
-4.037177
  0
VERTEX
  8
PLAN_1
  6
CONTINUOUS
 10
0.410453
 20
-4.041937
  0
VERTEX
  8
PLAN_1
  6
CONTINUOUS
 10
0.414681
 20
-4.047224
  0
VERTEX
  8
PLAN_1
  6
CONTINUOUS
 10
0.418382
 20
-4.052512
  0
VERTEX
  8
PLAN_1
  6
CONTINUOUS
 10
0.421555
 20
-4.058331
  0
VERTEX
  8
PLAN_1
  6
CONTINUOUS
 10
0.424201
 20
-4.064146
  0
VERTEX
  8
PLAN_1
  6
CONTINUOUS
 10
0.426315
 20
-4.069961
  0
VERTEX
  8
PLAN_1
  6
CONTINUOUS
 10
0.427902
 20
-4.076307
  0
VERTEX
  8
PLAN_1
  6
CONTINUOUS
 10
0.428957
 20
-4.082122
  0
VERTEX
  8
PLAN_1
  6
CONTINUOUS
 10
0.402520
 20
-4.082122
  0
SEQEND
  8
0
  0
POLYLINE
  8
PLAN_1
  6
CONTINUOUS
 66
     1
 40
0.003000
 41
0.003000
  0
VERTEX
  8
PLAN_1
  6
CONTINUOUS
 10
0.490291
 20
-4.221713
  0
VERTEX
  8
PLAN_1
  6
CONTINUOUS
 10
0.463327
 20
-4.221713
  0
VERTEX
  8
PLAN_1
  6
CONTINUOUS
 10
0.463327
 20
-4.022374
  0
VERTEX
  8
PLAN_1
  6
CONTINUOUS
 10
0.490291
 20
-4.022374
  0
VERTEX
  8
PLAN_1
  6
CONTINUOUS
 10
0.490291
 20
-4.119134
  0
VERTEX
  8
PLAN_1
  6
CONTINUOUS
 10
0.587055
 20
-4.022374
  0
VERTEX
  8
PLAN_1
  6
CONTINUOUS
 10
0.624067
 20
-4.022374
  0
VERTEX
  8
PLAN_1
  6
CONTINUOUS
 10
0.541051
 20
-4.102744
  0
VERTEX
  8
PLAN_1
  6
CONTINUOUS
 10
0.626181
 20
-4.221713
  0
VERTEX
  8
PLAN_1
  6
CONTINUOUS
 10
0.591283
 20
-4.221713
  0
VERTEX
  8
PLAN_1
  6
CONTINUOUS
 10
0.521488
 20
-4.121780
  0
VERTEX
  8
PLAN_1
  6
CONTINUOUS
 10
0.490291
 20
-4.151917
  0
VERTEX
  8
PLAN_1
  6
CONTINUOUS
 10
0.490291
 20
-4.221713
  0
SEQEND
  8
0
  0
POLYLINE
  8
PLAN_1
  6
CONTINUOUS
 66
     1
 40
0.003000
 41
0.003000
  0
VERTEX
  8
PLAN_1
  6
CONTINUOUS
 10
0.675354
 20
-4.197917
  0
VERTEX
  8
PLAN_1
  6
CONTINUOUS
 10
0.776346
 20
-4.197917
  0
VERTEX
  8
PLAN_1
  6
CONTINUOUS
 10
0.776346
 20
-4.221713
  0
VERTEX
  8
PLAN_1
  6
CONTINUOUS
 10
0.648390
 20
-4.221713
  0
VERTEX
  8
PLAN_1
  6
CONTINUOUS
 10
0.648390
 20
-4.022374
  0
VERTEX
  8
PLAN_1
  6
CONTINUOUS
 10
0.675354
 20
-4.022374
  0
VERTEX
  8
PLAN_1
  6
CONTINUOUS
 10
0.675354
 20
-4.197917
  0
SEQEND
  8
0
  0
POLYLINE
  8
PLAN_1
  6
CONTINUOUS
 66
     1
 40
0.003000
 41
0.003000
  0
VERTEX
  8
PLAN_1
  6
CONTINUOUS
 10
0.965638
 20
-4.067319
  0
VERTEX
  8
PLAN_1
  6
CONTINUOUS
 10
0.984673
 20
-4.067319
  0
VERTEX
  8
PLAN_1
  6
CONTINUOUS
 10
0.980445
 20
-4.082122
  0
VERTEX
  8
PLAN_1
  6
CONTINUOUS
 10
0.976213
 20
-4.096929
  0
VERTEX
  8
PLAN_1
  6
CONTINUOUS
 10
0.971984
 20
-4.111205
  0
VERTEX
  8
PLAN_1
  6
CONTINUOUS
 10
0.968283
 20
-4.124421
  0
VERTEX
  8
PLAN_1
  6
CONTINUOUS
 10
0.964583
 20
-4.136055
  0
VERTEX
  8
PLAN_1
  6
CONTINUOUS
 10
0.961937
 20
-4.146102
  0
VERTEX
  8
PLAN_1
  6
CONTINUOUS
 10
0.960350
 20
-4.153504
  0
VERTEX
  8
PLAN_1
  6
CONTINUOUS
 10
0.959295
 20
-4.157732
  0
VERTEX
  8
PLAN_1
  6
CONTINUOUS
 10
0.959823
 20
-4.159850
  0
VERTEX
  8
PLAN_1
  6
CONTINUOUS
 10
0.959823
 20
-4.161437
  0
VERTEX
  8
PLAN_1
  6
CONTINUOUS
 10
0.960350
 20
-4.162492
  0
VERTEX
  8
PLAN_1
  6
CONTINUOUS
 10
0.960882
 20
-4.164079
  0
VERTEX
  8
PLAN_1
  6
CONTINUOUS
 10
0.961409
 20
-4.164606
  0
VERTEX
  8
PLAN_1
  6
CONTINUOUS
 10
0.962465
 20
-4.165665
  0
VERTEX
  8
PLAN_1
  6
CONTINUOUS
 10
0.964051
 20
-4.165665
  0
VERTEX
  8
PLAN_1
  6
CONTINUOUS
 10
0.965110
 20
-4.166193
  0
VERTEX
  8
PLAN_1
  6
CONTINUOUS
 10
0.968811
 20
-4.165665
  0
VERTEX
  8
PLAN_1
  6
CONTINUOUS
 10
0.972512
 20
-4.164606
  0
VERTEX
  8
PLAN_1
  6
CONTINUOUS
 10
0.976213
 20
-4.163020
  0
VERTEX
  8
PLAN_1
  6
CONTINUOUS
 10
0.979386
 20
-4.160906
  0
VERTEX
  8
PLAN_1
  6
CONTINUOUS
 10
0.983087
 20
-4.158264
  0
VERTEX
  8
PLAN_1
  6
CONTINUOUS
 10
0.986260
 20
-4.154563
  0
VERTEX
  8
PLAN_1
  6
CONTINUOUS
 10
0.989433
 20
-4.151390
  0
VERTEX
  8
PLAN_1
  6
CONTINUOUS
 10
0.992075
 20
-4.147157
  0
VERTEX
  8
PLAN_1
  6
CONTINUOUS
 10
0.994720
 20
-4.142929
  0
VERTEX
  8
PLAN_1
  6
CONTINUOUS
 10
0.997362
 20
-4.138169
  0
VERTEX
  8
PLAN_1
  6
CONTINUOUS
 10
0.999480
 20
-4.132882
  0
VERTEX
  8
PLAN_1
  6
CONTINUOUS
 10
1.001067
 20
-4.128126
  0
VERTEX
  8
PLAN_1
  6
CONTINUOUS
 10
1.002650
 20
-4.122307
  0
VERTEX
  8
PLAN_1
  6
CONTINUOUS
 10
1.003709
 20
-4.117020
  0
VERTEX
  8
PLAN_1
  6
CONTINUOUS
 10
1.004768
 20
-4.111732
  0
VERTEX
  8
PLAN_1
  6
CONTINUOUS
 10
1.004768
 20
-4.105917
  0
VERTEX
  8
PLAN_1
  6
CONTINUOUS
 10
1.004236
 20
-4.097984
  0
VERTEX
  8
PLAN_1
  6
CONTINUOUS
 10
1.003181
 20
-4.090055
  0
VERTEX
  8
PLAN_1
  6
CONTINUOUS
 10
1.001067
 20
-4.082654
  0
VERTEX
  8
PLAN_1
  6
CONTINUOUS
 10
0.998421
 20
-4.076307
  0
VERTEX
  8
PLAN_1
  6
CONTINUOUS
 10
0.995248
 20
-4.069433
  0
VERTEX
  8
PLAN_1
  6
CONTINUOUS
 10
0.991547
 20
-4.063618
  0
VERTEX
  8
PLAN_1
  6
CONTINUOUS
 10
0.986787
 20
-4.058331
  0
VERTEX
  8
PLAN_1
  6
CONTINUOUS
 10
0.982031
 20
-4.053571
  0
VERTEX
  8
PLAN_1
  6
CONTINUOUS
 10
0.976213
 20
-4.049339
  0
VERTEX
  8
PLAN_1
  6
CONTINUOUS
 10
0.970398
 20
-4.045110
  0
VERTEX
  8
PLAN_1
  6
CONTINUOUS
 10
0.964051
 20
-4.041937
  0
VERTEX
  8
PLAN_1
  6
CONTINUOUS
 10
0.957177
 20
-4.039295
  0
VERTEX
  8
PLAN_1
  6
CONTINUOUS
 10
0.949776
 20
-4.037177
  0
VERTEX
  8
PLAN_1
  6
CONTINUOUS
 10
0.942902
 20
-4.035594
  0
VERTEX
  8
PLAN_1
  6
CONTINUOUS
 10
0.934972
 20
-4.034535
  0
VERTEX
  8
PLAN_1
  6
CONTINUOUS
 10
0.927567
 20
-4.034535
  0
VERTEX
  8
PLAN_1
  6
CONTINUOUS
 10
0.918051
 20
-4.035063
  0
VERTEX
  8
PLAN_1
  6
CONTINUOUS
 10
0.909591
 20
-4.036122
  0
VERTEX
  8
PLAN_1
  6
CONTINUOUS
 10
0.901130
 20
-4.038236
  0
VERTEX
  8
PLAN_1
  6
CONTINUOUS
 10
0.893201
 20
-4.041409
  0
VERTEX
  8
PLAN_1
  6
CONTINUOUS
 10
0.885799
 20
-4.045110
  0
VERTEX
  8
PLAN_1
  6
CONTINUOUS
 10
0.878925
 20
-4.049339
  0
VERTEX
  8
PLAN_1
  6
CONTINUOUS
 10
0.872579
 20
-4.054626
  0
VERTEX
  8
PLAN_1
  6
CONTINUOUS
 10
0.866764
 20
-4.060445
  0
VERTEX
  8
PLAN_1
  6
CONTINUOUS
 10
0.861476
 20
-4.066787
  0
VERTEX
  8
PLAN_1
  6
CONTINUOUS
 10
0.856717
 20
-4.073661
  0
VERTEX
  8
PLAN_1
  6
CONTINUOUS
 10
0.852488
 20
-4.081067
  0
VERTEX
  8
PLAN_1
  6
CONTINUOUS
 10
0.849315
 20
-4.088469
  0
VERTEX
  8
PLAN_1
  6
CONTINUOUS
 10
0.846669
 20
-4.096929
  0
VERTEX
  8
PLAN_1
  6
CONTINUOUS
 10
0.844555
 20
-4.105390
  0
VERTEX
  8
PLAN_1
  6
CONTINUOUS
 10
0.843496
 20
-4.113846
  0
VERTEX
  8
PLAN_1
  6
CONTINUOUS
 10
0.842969
 20
-4.123366
  0
VERTEX
  8
PLAN_1
  6
CONTINUOUS
 10
0.843496
 20
-4.132354
  0
VERTEX
  8
PLAN_1
  6
CONTINUOUS
 10
0.844555
 20
-4.140815
  0
VERTEX
  8
PLAN_1
  6
CONTINUOUS
 10
0.846669
 20
-4.149276
  0
VERTEX
  8
PLAN_1
  6
CONTINUOUS
 10
0.849843
 20
-4.157205
  0
VERTEX
  8
PLAN_1
  6
CONTINUOUS
 10
0.853016
 20
-4.165138
  0
VERTEX
  8
PLAN_1
  6
CONTINUOUS
 10
0.857244
 20
-4.172012
  0
VERTEX
  8
PLAN_1
  6
CONTINUOUS
 10
0.862531
 20
-4.178886
  0
VERTEX
  8
PLAN_1
  6
CONTINUOUS
 10
0.867819
 20
-4.184701
  0
VERTEX
  8
PLAN_1
  6
CONTINUOUS
 10
0.874165
 20
-4.190516
  0
VERTEX
  8
PLAN_1
  6
CONTINUOUS
 10
0.880512
 20
-4.195276
  0
VERTEX
  8
PLAN_1
  6
CONTINUOUS
 10
0.887913
 20
-4.199504
  0
VERTEX
  8
PLAN_1
  6
CONTINUOUS
 10
0.895315
 20
-4.203205
  0
VERTEX
  8
PLAN_1
  6
CONTINUOUS
 10
0.903248
 20
-4.205850
  0
VERTEX
  8
PLAN_1
  6
CONTINUOUS
 10
0.911705
 20
-4.207965
  0
VERTEX
  8
PLAN_1
  6
CONTINUOUS
 10
0.920165
 20
-4.209551
  0
VERTEX
  8
PLAN_1
  6
CONTINUOUS
 10
0.929154
 20
-4.209551
  0
VERTEX
  8
PLAN_1
  6
CONTINUOUS
 10
0.933913
 20
-4.209551
  0
VERTEX
  8
PLAN_1
  6
CONTINUOUS
 10
0.938673
 20
-4.209024
  0
VERTEX
  8
PLAN_1
  6
CONTINUOUS
 10
0.943961
 20
-4.208496
  0
VERTEX
  8
PLAN_1
  6
CONTINUOUS
 10
0.948720
 20
-4.207437
  0
VERTEX
  8
PLAN_1
  6
CONTINUOUS
 10
0.957709
 20
-4.204791
  0
VERTEX
  8
PLAN_1
  6
CONTINUOUS
 10
0.966697
 20
-4.201091
  0
VERTEX
  8
PLAN_1
  6
CONTINUOUS
 10
0.975157
 20
-4.196862
  0
VERTEX
  8
PLAN_1
  6
CONTINUOUS
 10
0.983087
 20
-4.191047
  0
VERTEX
  8
PLAN_1
  6
CONTINUOUS
 10
0.986787
 20
-4.188402
  0
VERTEX
  8
PLAN_1
  6
CONTINUOUS
 10
0.990488
 20
-4.185228
  0
VERTEX
  8
PLAN_1
  6
CONTINUOUS
 10
0.993661
 20
-4.181528
  0
VERTEX
  8
PLAN_1
  6
CONTINUOUS
 10
0.996835
 20
-4.178354
  0
VERTEX
  8
PLAN_1
  6
CONTINUOUS
 10
1.015343
 20
-4.178354
  0
VERTEX
  8
PLAN_1
  6
CONTINUOUS
 10
1.011642
 20
-4.183642
  0
VERTEX
  8
PLAN_1
  6
CONTINUOUS
 10
1.007937
 20
-4.188929
  0
VERTEX
  8
PLAN_1
  6
CONTINUOUS
 10
1.003709
 20
-4.193689
  0
VERTEX
  8
PLAN_1
  6
CONTINUOUS
 10
0.998949
 20
-4.198449
  0
VERTEX
  8
PLAN_1
  6
CONTINUOUS
 10
0.994193
 20
-4.202677
  0
VERTEX
  8
PLAN_1
  6
CONTINUOUS
 10
0.989433
 20
-4.206909
  0
VERTEX
  8
PLAN_1
  6
CONTINUOUS
 10
0.984146
 20
-4.210610
  0
VERTEX
  8
PLAN_1
  6
CONTINUOUS
 10
0.978331
 20
-4.213783
  0
VERTEX
  8
PLAN_1
  6
CONTINUOUS
 10
0.973043
 20
-4.216953
  0
VERTEX
  8
PLAN_1
  6
CONTINUOUS
 10
0.967224
 20
-4.219598
  0
VERTEX
  8
PLAN_1
  6
CONTINUOUS
 10
0.960882
 20
-4.221713
  0
VERTEX
  8
PLAN_1
  6
CONTINUOUS
 10
0.954535
 20
-4.223827
  0
VERTEX
  8
PLAN_1
  6
CONTINUOUS
 10
0.948189
 20
-4.224886
  0
VERTEX
  8
PLAN_1
  6
CONTINUOUS
 10
0.941846
 20
-4.225941
  0
VERTEX
  8
PLAN_1
  6
CONTINUOUS
 10
0.935500
 20
-4.227000
  0
VERTEX
  8
PLAN_1
  6
CONTINUOUS
 10
0.928626
 20
-4.227000
  0
VERTEX
  8
PLAN_1
  6
CONTINUOUS
 10
0.923339
 20
-4.227000
  0
VERTEX
  8
PLAN_1
  6
CONTINUOUS
 10
0.917524
 20
-4.226472
  0
VERTEX
  8
PLAN_1
  6
CONTINUOUS
 10
0.912236
 20
-4.225941
  0
VERTEX
  8
PLAN_1
  6
CONTINUOUS
 10
0.906949
 20
-4.224886
  0
VERTEX
  8
PLAN_1
  6
CONTINUOUS
 10
0.896902
 20
-4.222240
  0
VERTEX
  8
PLAN_1
  6
CONTINUOUS
 10
0.886854
 20
-4.219071
  0
VERTEX
  8
PLAN_1
  6
CONTINUOUS
 10
0.877866
 20
-4.214311
  0
VERTEX
  8
PLAN_1
  6
CONTINUOUS
 10
0.868878
 20
-4.209024
  0
VERTEX
  8
PLAN_1
  6
CONTINUOUS
 10
0.860945
 20
-4.203205
  0
VERTEX
  8
PLAN_1
  6
CONTINUOUS
 10
0.853543
 20
-4.196335
  0
VERTEX
  8
PLAN_1
  6
CONTINUOUS
 10
0.846669
 20
-4.188929
  0
VERTEX
  8
PLAN_1
  6
CONTINUOUS
 10
0.840327
 20
-4.181000
  0
VERTEX
  8
PLAN_1
  6
CONTINUOUS
 10
0.835567
 20
-4.172012
  0
VERTEX
  8
PLAN_1
  6
CONTINUOUS
 10
0.830807
 20
-4.163020
  0
VERTEX
  8
PLAN_1
  6
CONTINUOUS
 10
0.827634
 20
-4.152976
  0
VERTEX
  8
PLAN_1
  6
CONTINUOUS
 10
0.824992
 20
-4.142929
  0
VERTEX
  8
PLAN_1
  6
CONTINUOUS
 10
0.823933
 20
-4.137642
  0
VERTEX
  8
PLAN_1
  6
CONTINUOUS
 10
0.823406
 20
-4.132354
  0
VERTEX
  8
PLAN_1
  6
CONTINUOUS
 10
0.822878
 20
-4.127067
  0
VERTEX
  8
PLAN_1
  6
CONTINUOUS
 10
0.822878
 20
-4.121780
  0
VERTEX
  8
PLAN_1
  6
CONTINUOUS
 10
0.822878
 20
-4.115965
  0
VERTEX
  8
PLAN_1
  6
CONTINUOUS
 10
0.823406
 20
-4.110677
  0
VERTEX
  8
PLAN_1
  6
CONTINUOUS
 10
0.823933
 20
-4.105390
  0
VERTEX
  8
PLAN_1
  6
CONTINUOUS
 10
0.824992
 20
-4.100630
  0
VERTEX
  8
PLAN_1
  6
CONTINUOUS
 10
0.827634
 20
-4.090583
  0
VERTEX
  8
PLAN_1
  6
CONTINUOUS
 10
0.830807
 20
-4.080535
  0
VERTEX
  8
PLAN_1
  6
CONTINUOUS
 10
0.835567
 20
-4.071547
  0
VERTEX
  8
PLAN_1
  6
CONTINUOUS
 10
0.840854
 20
-4.063087
  0
VERTEX
  8
PLAN_1
  6
CONTINUOUS
 10
0.846669
 20
-4.055157
  0
VERTEX
  8
PLAN_1
  6
CONTINUOUS
 10
0.853543
 20
-4.047756
  0
VERTEX
  8
PLAN_1
  6
CONTINUOUS
 10
0.860945
 20
-4.040882
  0
VERTEX
  8
PLAN_1
  6
CONTINUOUS
 10
0.868878
 20
-4.035063
  0
VERTEX
  8
PLAN_1
  6
CONTINUOUS
 10
0.877866
 20
-4.029776
  0
VERTEX
  8
PLAN_1
  6
CONTINUOUS
 10
0.886854
 20
-4.025547
  0
VERTEX
  8
PLAN_1
  6
CONTINUOUS
 10
0.896374
 20
-4.021846
  0
VERTEX
  8
PLAN_1
  6
CONTINUOUS
 10
0.906417
 20
-4.019201
  0
VERTEX
  8
PLAN_1
  6
CONTINUOUS
 10
0.911705
 20
-4.018146
  0
VERTEX
  8
PLAN_1
  6
CONTINUOUS
 10
0.916465
 20
-4.017614
  0
VERTEX
  8
PLAN_1
  6
CONTINUOUS
 10
0.921752
 20
-4.017087
  0
VERTEX
  8
PLAN_1
  6
CONTINUOUS
 10
0.927567
 20
-4.017087
  0
VERTEX
  8
PLAN_1
  6
CONTINUOUS
 10
0.937087
 20
-4.017614
  0
VERTEX
  8
PLAN_1
  6
CONTINUOUS
 10
0.946075
 20
-4.018673
  0
VERTEX
  8
PLAN_1
  6
CONTINUOUS
 10
0.955063
 20
-4.020787
  0
VERTEX
  8
PLAN_1
  6
CONTINUOUS
 10
0.964051
 20
-4.023433
  0
VERTEX
  8
PLAN_1
  6
CONTINUOUS
 10
0.971984
 20
-4.027134
  0
VERTEX
  8
PLAN_1
  6
CONTINUOUS
 10
0.979913
 20
-4.031362
  0
VERTEX
  8
PLAN_1
  6
CONTINUOUS
 10
0.987319
 20
-4.036122
  0
VERTEX
  8
PLAN_1
  6
CONTINUOUS
 10
0.994193
 20
-4.041409
  0
VERTEX
  8
PLAN_1
  6
CONTINUOUS
 10
1.000535
 20
-4.047756
  0
VERTEX
  8
PLAN_1
  6
CONTINUOUS
 10
1.006354
 20
-4.054098
  0
VERTEX
  8
PLAN_1
  6
CONTINUOUS
 10
1.011110
 20
-4.061500
  0
VERTEX
  8
PLAN_1
  6
CONTINUOUS
 10
1.015343
 20
-4.068906
  0
VERTEX
  8
PLAN_1
  6
CONTINUOUS
 10
1.018516
 20
-4.076835
  0
VERTEX
  8
PLAN_1
  6
CONTINUOUS
 10
1.020630
 20
-4.085295
  0
VERTEX
  8
PLAN_1
  6
CONTINUOUS
 10
1.022217
 20
-4.094283
  0
VERTEX
  8
PLAN_1
  6
CONTINUOUS
 10
1.022744
 20
-4.103803
  0
VERTEX
  8
PLAN_1
  6
CONTINUOUS
 10
1.022217
 20
-4.112791
  0
VERTEX
  8
PLAN_1
  6
CONTINUOUS
 10
1.021157
 20
-4.121780
  0
VERTEX
  8
PLAN_1
  6
CONTINUOUS
 10
1.019043
 20
-4.129709
  0
VERTEX
  8
PLAN_1
  6
CONTINUOUS
 10
1.015870
 20
-4.137642
  0
VERTEX
  8
PLAN_1
  6
CONTINUOUS
 10
1.012169
 20
-4.144516
  0
VERTEX
  8
PLAN_1
  6
CONTINUOUS
 10
1.008469
 20
-4.151390
  0
VERTEX
  8
PLAN_1
  6
CONTINUOUS
 10
1.003709
 20
-4.157205
  0
VERTEX
  8
PLAN_1
  6
CONTINUOUS
 10
0.998949
 20
-4.162492
  0
VERTEX
  8
PLAN_1
  6
CONTINUOUS
 10
0.993661
 20
-4.167780
  0
VERTEX
  8
PLAN_1
  6
CONTINUOUS
 10
0.988374
 20
-4.172012
  0
VERTEX
  8
PLAN_1
  6
CONTINUOUS
 10
0.982559
 20
-4.175713
  0
VERTEX
  8
PLAN_1
  6
CONTINUOUS
 10
0.977272
 20
-4.178354
  0
VERTEX
  8
PLAN_1
  6
CONTINUOUS
 10
0.971984
 20
-4.181000
  0
VERTEX
  8
PLAN_1
  6
CONTINUOUS
 10
0.966169
 20
-4.182587
  0
VERTEX
  8
PLAN_1
  6
CONTINUOUS
 10
0.961409
 20
-4.183642
  0
VERTEX
  8
PLAN_1
  6
CONTINUOUS
 10
0.956650
 20
-4.184173
  0
VERTEX
  8
PLAN_1
  6
CONTINUOUS
 10
0.952949
 20
-4.183642
  0
VERTEX
  8
PLAN_1
  6
CONTINUOUS
 10
0.949776
 20
-4.183114
  0
VERTEX
  8
PLAN_1
  6
CONTINUOUS
 10
0.946602
 20
-4.181528
  0
VERTEX
  8
PLAN_1
  6
CONTINUOUS
 10
0.944488
 20
-4.179941
  0
VERTEX
  8
PLAN_1
  6
CONTINUOUS
 10
0.941846
 20
-4.177299
  0
VERTEX
  8
PLAN_1
  6
CONTINUOUS
 10
0.940260
 20
-4.174126
  0
VERTEX
  8
PLAN_1
  6
CONTINUOUS
 10
0.939201
 20
-4.170425
  0
VERTEX
  8
PLAN_1
  6
CONTINUOUS
 10
0.938673
 20
-4.166724
  0
VERTEX
  8
PLAN_1
  6
CONTINUOUS
 10
0.938146
 20
-4.166724
  0
VERTEX
  8
PLAN_1
  6
CONTINUOUS
 10
0.934972
 20
-4.169894
  0
VERTEX
  8
PLAN_1
  6
CONTINUOUS
 10
0.931272
 20
-4.173067
  0
VERTEX
  8
PLAN_1
  6
CONTINUOUS
 10
0.927567
 20
-4.176240
  0
VERTEX
  8
PLAN_1
  6
CONTINUOUS
 10
0.923339
 20
-4.178354
  0
VERTEX
  8
PLAN_1
  6
CONTINUOUS
 10
0.919110
 20
-4.181000
  0
VERTEX
  8
PLAN_1
  6
CONTINUOUS
 10
0.914350
 20
-4.182587
  0
VERTEX
  8
PLAN_1
  6
CONTINUOUS
 10
0.909591
 20
-4.183642
  0
VERTEX
  8
PLAN_1
  6
CONTINUOUS
 10
0.904831
 20
-4.184173
  0
VERTEX
  8
PLAN_1
  6
CONTINUOUS
 10
0.900602
 20
-4.183642
  0
VERTEX
  8
PLAN_1
  6
CONTINUOUS
 10
0.896374
 20
-4.183114
  0
VERTEX
  8
PLAN_1
  6
CONTINUOUS
 10
0.892142
 20
-4.182055
  0
VERTEX
  8
PLAN_1
  6
CONTINUOUS
 10
0.888441
 20
-4.180469
  0
VERTEX
  8
PLAN_1
  6
CONTINUOUS
 10
0.884740
 20
-4.178354
  0
VERTEX
  8
PLAN_1
  6
CONTINUOUS
 10
0.881567
 20
-4.176240
  0
VERTEX
  8
PLAN_1
  6
CONTINUOUS
 10
0.878394
 20
-4.173598
  0
VERTEX
  8
PLAN_1
  6
CONTINUOUS
 10
0.875752
 20
-4.170953
  0
VERTEX
  8
PLAN_1
  6
CONTINUOUS
 10
0.873106
 20
-4.167780
  0
VERTEX
  8
PLAN_1
  6
CONTINUOUS
 10
0.870465
 20
-4.164079
  0
VERTEX
  8
PLAN_1
  6
CONTINUOUS
 10
0.868878
 20
-4.160378
  0
VERTEX
  8
PLAN_1
  6
CONTINUOUS
 10
0.867291
 20
-4.156677
  0
VERTEX
  8
PLAN_1
  6
CONTINUOUS
 10
0.865705
 20
-4.152445
  0
VERTEX
  8
PLAN_1
  6
CONTINUOUS
 10
0.864646
 20
-4.148217
  0
VERTEX
  8
PLAN_1
  6
CONTINUOUS
 10
0.864118
 20
-4.143988
  0
VERTEX
  8
PLAN_1
  6
CONTINUOUS
 10
0.864118
 20
-4.139756
  0
VERTEX
  8
PLAN_1
  6
CONTINUOUS
 10
0.864118
 20
-4.132354
  0
VERTEX
  8
PLAN_1
  6
CONTINUOUS
 10
0.865177
 20
-4.125480
  0
VERTEX
  8
PLAN_1
  6
CONTINUOUS
 10
0.866764
 20
-4.118606
  0
VERTEX
  8
PLAN_1
  6
CONTINUOUS
 10
0.868878
 20
-4.111732
  0
VERTEX
  8
PLAN_1
  6
CONTINUOUS
 10
0.870992
 20
-4.105390
  0
VERTEX
  8
PLAN_1
  6
CONTINUOUS
 10
0.874165
 20
-4.099043
  0
VERTEX
  8
PLAN_1
  6
CONTINUOUS
 10
0.877866
 20
-4.092697
  0
VERTEX
  8
PLAN_1
  6
CONTINUOUS
 10
0.881567
 20
-4.087409
  0
VERTEX
  8
PLAN_1
  6
CONTINUOUS
 10
0.885799
 20
-4.082122
  0
VERTEX
  8
PLAN_1
  6
CONTINUOUS
 10
0.891087
 20
-4.077362
  0
VERTEX
  8
PLAN_1
  6
CONTINUOUS
 10
0.896374
 20
-4.073134
  0
VERTEX
  8
PLAN_1
  6
CONTINUOUS
 10
0.901661
 20
-4.069433
  0
VERTEX
  8
PLAN_1
  6
CONTINUOUS
 10
0.908004
 20
-4.066787
  0
VERTEX
  8
PLAN_1
  6
CONTINUOUS
 10
0.914350
 20
-4.064673
  0
VERTEX
  8
PLAN_1
  6
CONTINUOUS
 10
0.921224
 20
-4.063618
  0
VERTEX
  8
PLAN_1
  6
CONTINUOUS
 10
0.928098
 20
-4.063087
  0
VERTEX
  8
PLAN_1
  6
CONTINUOUS
 10
0.932858
 20
-4.063087
  0
VERTEX
  8
PLAN_1
  6
CONTINUOUS
 10
0.937614
 20
-4.064146
  0
VERTEX
  8
PLAN_1
  6
CONTINUOUS
 10
0.942374
 20
-4.065732
  0
VERTEX
  8
PLAN_1
  6
CONTINUOUS
 10
0.946602
 20
-4.067846
  0
VERTEX
  8
PLAN_1
  6
CONTINUOUS
 10
0.950307
 20
-4.071020
  0
VERTEX
  8
PLAN_1
  6
CONTINUOUS
 10
0.954008
 20
-4.074720
  0
VERTEX
  8
PLAN_1
  6
CONTINUOUS
 10
0.957177
 20
-4.078949
  0
VERTEX
  8
PLAN_1
  6
CONTINUOUS
 10
0.959823
 20
-4.084768
  0
VERTEX
  8
PLAN_1
  6
CONTINUOUS
 10
0.965638
 20
-4.067319
  0
SEQEND
  8
0
  0
POLYLINE
  8
PLAN_1
  6
CONTINUOUS
 66
     1
 40
0.003000
 41
0.003000
  0
VERTEX
  8
PLAN_1
  6
CONTINUOUS
 10
0.928626
 20
-4.083181
  0
VERTEX
  8
PLAN_1
  6
CONTINUOUS
 10
0.924398
 20
-4.083181
  0
VERTEX
  8
PLAN_1
  6
CONTINUOUS
 10
0.919638
 20
-4.084236
  0
VERTEX
  8
PLAN_1
  6
CONTINUOUS
 10
0.915409
 20
-4.085823
  0
VERTEX
  8
PLAN_1
  6
CONTINUOUS
 10
0.911705
 20
-4.087941
  0
VERTEX
  8
PLAN_1
  6
CONTINUOUS
 10
0.908004
 20
-4.091110
  0
VERTEX
  8
PLAN_1
  6
CONTINUOUS
 10
0.904831
 20
-4.093756
  0
VERTEX
  8
PLAN_1
  6
CONTINUOUS
 10
0.901661
 20
-4.097457
  0
VERTEX
  8
PLAN_1
  6
CONTINUOUS
 10
0.898488
 20
-4.101157
  0
VERTEX
  8
PLAN_1
  6
CONTINUOUS
 10
0.895843
 20
-4.105390
  0
VERTEX
  8
PLAN_1
  6
CONTINUOUS
 10
0.893728
 20
-4.109618
  0
VERTEX
  8
PLAN_1
  6
CONTINUOUS
 10
0.891614
 20
-4.114378
  0
VERTEX
  8
PLAN_1
  6
CONTINUOUS
 10
0.890028
 20
-4.119134
  0
VERTEX
  8
PLAN_1
  6
CONTINUOUS
 10
0.888441
 20
-4.123366
  0
VERTEX
  8
PLAN_1
  6
CONTINUOUS
 10
0.887386
 20
-4.128126
  0
VERTEX
  8
PLAN_1
  6
CONTINUOUS
 10
0.886854
 20
-4.132882
  0
VERTEX
  8
PLAN_1
  6
CONTINUOUS
 10
0.886854
 20
-4.137114
  0
VERTEX
  8
PLAN_1
  6
CONTINUOUS
 10
0.887386
 20
-4.142929
  0
VERTEX
  8
PLAN_1
  6
CONTINUOUS
 10
0.888441
 20
-4.147689
  0
VERTEX
  8
PLAN_1
  6
CONTINUOUS
 10
0.890555
 20
-4.152445
  0
VERTEX
  8
PLAN_1
  6
CONTINUOUS
 10
0.893201
 20
-4.156677
  0
VERTEX
  8
PLAN_1
  6
CONTINUOUS
 10
0.896374
 20
-4.159850
  0
VERTEX
  8
PLAN_1
  6
CONTINUOUS
 10
0.900602
 20
-4.161965
  0
VERTEX
  8
PLAN_1
  6
CONTINUOUS
 10
0.905362
 20
-4.163551
  0
VERTEX
  8
PLAN_1
  6
CONTINUOUS
 10
0.910122
 20
-4.164079
  0
VERTEX
  8
PLAN_1
  6
CONTINUOUS
 10
0.914350
 20
-4.163551
  0
VERTEX
  8
PLAN_1
  6
CONTINUOUS
 10
0.918579
 20
-4.162492
  0
VERTEX
  8
PLAN_1
  6
CONTINUOUS
 10
0.922811
 20
-4.160906
  0
VERTEX
  8
PLAN_1
  6
CONTINUOUS
 10
0.926512
 20
-4.158264
  0
VERTEX
  8
PLAN_1
  6
CONTINUOUS
 10
0.930213
 20
-4.155618
  0
VERTEX
  8
PLAN_1
  6
CONTINUOUS
 10
0.933386
 20
-4.152445
  0
VERTEX
  8
PLAN_1
  6
CONTINUOUS
 10
0.936559
 20
-4.148744
  0
VERTEX
  8
PLAN_1
  6
CONTINUOUS
 10
0.939728
 20
-4.144516
  0
VERTEX
  8
PLAN_1
  6
CONTINUOUS
 10
0.942374
 20
-4.140283
  0
VERTEX
  8
PLAN_1
  6
CONTINUOUS
 10
0.944488
 20
-4.136055
  0
VERTEX
  8
PLAN_1
  6
CONTINUOUS
 10
0.946602
 20
-4.131295
  0
VERTEX
  8
PLAN_1
  6
CONTINUOUS
 10
0.948189
 20
-4.126539
  0
VERTEX
  8
PLAN_1
  6
CONTINUOUS
 10
0.949776
 20
-4.121780
  0
VERTEX
  8
PLAN_1
  6
CONTINUOUS
 10
0.950835
 20
-4.117020
  0
VERTEX
  8
PLAN_1
  6
CONTINUOUS
 10
0.951362
 20
-4.112791
  0
VERTEX
  8
PLAN_1
  6
CONTINUOUS
 10
0.951362
 20
-4.108559
  0
VERTEX
  8
PLAN_1
  6
CONTINUOUS
 10
0.950835
 20
-4.103272
  0
VERTEX
  8
PLAN_1
  6
CONTINUOUS
 10
0.949776
 20
-4.098516
  0
VERTEX
  8
PLAN_1
  6
CONTINUOUS
 10
0.947661
 20
-4.094283
  0
VERTEX
  8
PLAN_1
  6
CONTINUOUS
 10
0.944488
 20
-4.090583
  0
VERTEX
  8
PLAN_1
  6
CONTINUOUS
 10
0.941315
 20
-4.087409
  0
VERTEX
  8
PLAN_1
  6
CONTINUOUS
 10
0.937614
 20
-4.084768
  0
VERTEX
  8
PLAN_1
  6
CONTINUOUS
 10
0.933386
 20
-4.083709
  0
VERTEX
  8
PLAN_1
  6
CONTINUOUS
 10
0.928626
 20
-4.083181
  0
SEQEND
  8
0
  0
POLYLINE
  8
PLAN_1
  6
CONTINUOUS
 66
     1
 40
0.003000
 41
0.003000
  0
VERTEX
  8
PLAN_1
  6
CONTINUOUS
 10
1.224728
 20
-4.082122
  0
VERTEX
  8
PLAN_1
  6
CONTINUOUS
 10
1.223142
 20
-4.076307
  0
VERTEX
  8
PLAN_1
  6
CONTINUOUS
 10
1.221024
 20
-4.070492
  0
VERTEX
  8
PLAN_1
  6
CONTINUOUS
 10
1.218382
 20
-4.065732
  0
VERTEX
  8
PLAN_1
  6
CONTINUOUS
 10
1.215736
 20
-4.060972
  0
VERTEX
  8
PLAN_1
  6
CONTINUOUS
 10
1.212567
 20
-4.057272
  0
VERTEX
  8
PLAN_1
  6
CONTINUOUS
 10
1.208862
 20
-4.054098
  0
VERTEX
  8
PLAN_1
  6
CONTINUOUS
 10
1.205161
 20
-4.050925
  0
VERTEX
  8
PLAN_1
  6
CONTINUOUS
 10
1.201461
 20
-4.048811
  0
VERTEX
  8
PLAN_1
  6
CONTINUOUS
 10
1.197232
 20
-4.046697
  0
VERTEX
  8
PLAN_1
  6
CONTINUOUS
 10
1.193000
 20
-4.045110
  0
VERTEX
  8
PLAN_1
  6
CONTINUOUS
 10
1.188772
 20
-4.043524
  0
VERTEX
  8
PLAN_1
  6
CONTINUOUS
 10
1.184543
 20
-4.042469
  0
VERTEX
  8
PLAN_1
  6
CONTINUOUS
 10
1.176610
 20
-4.041409
  0
VERTEX
  8
PLAN_1
  6
CONTINUOUS
 10
1.168677
 20
-4.040882
  0
VERTEX
  8
PLAN_1
  6
CONTINUOUS
 10
1.162335
 20
-4.041409
  0
VERTEX
  8
PLAN_1
  6
CONTINUOUS
 10
1.155988
 20
-4.042469
  0
VERTEX
  8
PLAN_1
  6
CONTINUOUS
 10
1.149646
 20
-4.044051
  0
VERTEX
  8
PLAN_1
  6
CONTINUOUS
 10
1.143299
 20
-4.046169
  0
VERTEX
  8
PLAN_1
  6
CONTINUOUS
 10
1.138012
 20
-4.048811
  0
VERTEX
  8
PLAN_1
  6
CONTINUOUS
 10
1.132197
 20
-4.051984
  0
VERTEX
  8
PLAN_1
  6
CONTINUOUS
 10
1.127437
 20
-4.056213
  0
VERTEX
  8
PLAN_1
  6
CONTINUOUS
 10
1.122677
 20
-4.060972
  0
VERTEX
  8
PLAN_1
  6
CONTINUOUS
 10
1.118449
 20
-4.066260
  0
VERTEX
  8
PLAN_1
  6
CONTINUOUS
 10
1.114748
 20
-4.072075
  0
VERTEX
  8
PLAN_1
  6
CONTINUOUS
 10
1.111575
 20
-4.078421
  0
VERTEX
  8
PLAN_1
  6
CONTINUOUS
 10
1.108929
 20
-4.085823
  0
VERTEX
  8
PLAN_1
  6
CONTINUOUS
 10
1.106815
 20
-4.093228
  0
VERTEX
  8
PLAN_1
  6
CONTINUOUS
 10
1.105228
 20
-4.101685
  0
VERTEX
  8
PLAN_1
  6
CONTINUOUS
 10
1.104173
 20
-4.110677
  0
VERTEX
  8
PLAN_1
  6
CONTINUOUS
 10
1.103642
 20
-4.120193
  0
VERTEX
  8
PLAN_1
  6
CONTINUOUS
 10
1.104173
 20
-4.128654
  0
VERTEX
  8
PLAN_1
  6
CONTINUOUS
 10
1.104701
 20
-4.137114
  0
VERTEX
  8
PLAN_1
  6
CONTINUOUS
 10
1.105756
 20
-4.145043
  0
VERTEX
  8
PLAN_1
  6
CONTINUOUS
 10
1.107343
 20
-4.152976
  0
VERTEX
  8
PLAN_1
  6
CONTINUOUS
 10
1.108929
 20
-4.160378
  0
VERTEX
  8
PLAN_1
  6
CONTINUOUS
 10
1.111575
 20
-4.167252
  0
VERTEX
  8
PLAN_1
  6
CONTINUOUS
 10
1.114748
 20
-4.173598
  0
VERTEX
  8
PLAN_1
  6
CONTINUOUS
 10
1.118449
 20
-4.179413
  0
VERTEX
  8
PLAN_1
  6
CONTINUOUS
 10
1.122150
 20
-4.184701
  0
VERTEX
  8
PLAN_1
  6
CONTINUOUS
 10
1.126909
 20
-4.189461
  0
VERTEX
  8
PLAN_1
  6
CONTINUOUS
 10
1.132724
 20
-4.193161
  0
VERTEX
  8
PLAN_1
  6
CONTINUOUS
 10
1.138539
 20
-4.196862
  0
VERTEX
  8
PLAN_1
  6
CONTINUOUS
 10
1.145413
 20
-4.199504
  0
VERTEX
  8
PLAN_1
  6
CONTINUOUS
 10
1.152815
 20
-4.201622
  0
VERTEX
  8
PLAN_1
  6
CONTINUOUS
 10
1.160748
 20
-4.202677
  0
VERTEX
  8
PLAN_1
  6
CONTINUOUS
 10
1.169736
 20
-4.203205
  0
VERTEX
  8
PLAN_1
  6
CONTINUOUS
 10
1.176610
 20
-4.202677
  0
VERTEX
  8
PLAN_1
  6
CONTINUOUS
 10
1.184543
 20
-4.201091
  0
VERTEX
  8
PLAN_1
  6
CONTINUOUS
 10
1.188772
 20
-4.200035
  0
VERTEX
  8
PLAN_1
  6
CONTINUOUS
 10
1.193000
 20
-4.197917
  0
VERTEX
  8
PLAN_1
  6
CONTINUOUS
 10
1.197232
 20
-4.195803
  0
VERTEX
  8
PLAN_1
  6
CONTINUOUS
 10
1.201461
 20
-4.193161
  0
VERTEX
  8
PLAN_1
  6
CONTINUOUS
 10
1.205161
 20
-4.189988
  0
VERTEX
  8
PLAN_1
  6
CONTINUOUS
 10
1.209394
 20
-4.186287
  0
VERTEX
  8
PLAN_1
  6
CONTINUOUS
 10
1.213094
 20
-4.181528
  0
VERTEX
  8
PLAN_1
  6
CONTINUOUS
 10
1.216268
 20
-4.176768
  0
VERTEX
  8
PLAN_1
  6
CONTINUOUS
 10
1.219437
 20
-4.170953
  0
VERTEX
  8
PLAN_1
  6
CONTINUOUS
 10
1.222083
 20
-4.164079
  0
VERTEX
  8
PLAN_1
  6
CONTINUOUS
 10
1.224728
 20
-4.156677
  0
VERTEX
  8
PLAN_1
  6
CONTINUOUS
 10
1.226843
 20
-4.148217
  0
VERTEX
  8
PLAN_1
  6
CONTINUOUS
 10
1.252752
 20
-4.148217
  0
VERTEX
  8
PLAN_1
  6
CONTINUOUS
 10
1.251693
 20
-4.155091
  0
VERTEX
  8
PLAN_1
  6
CONTINUOUS
 10
1.250106
 20
-4.161965
  0
VERTEX
  8
PLAN_1
  6
CONTINUOUS
 10
1.248520
 20
-4.167780
  0
VERTEX
  8
PLAN_1
  6
CONTINUOUS
 10
1.246406
 20
-4.173598
  0
VERTEX
  8
PLAN_1
  6
CONTINUOUS
 10
1.244291
 20
-4.178886
  0
VERTEX
  8
PLAN_1
  6
CONTINUOUS
 10
1.241646
 20
-4.183642
  0
VERTEX
  8
PLAN_1
  6
CONTINUOUS
 10
1.239531
 20
-4.188402
  0
VERTEX
  8
PLAN_1
  6
CONTINUOUS
 10
1.236358
 20
-4.192630
  0
VERTEX
  8
PLAN_1
  6
CONTINUOUS
 10
1.233717
 20
-4.196335
  0
VERTEX
  8
PLAN_1
  6
CONTINUOUS
 10
1.230543
 20
-4.200035
  0
VERTEX
  8
PLAN_1
  6
CONTINUOUS
 10
1.227370
 20
-4.203205
  0
VERTEX
  8
PLAN_1
  6
CONTINUOUS
 10
1.224197
 20
-4.206378
  0
VERTEX
  8
PLAN_1
  6
CONTINUOUS
 10
1.217323
 20
-4.211665
  0
VERTEX
  8
PLAN_1
  6
CONTINUOUS
 10
1.210449
 20
-4.215898
  0
VERTEX
  8
PLAN_1
  6
CONTINUOUS
 10
1.203575
 20
-4.219598
  0
VERTEX
  8
PLAN_1
  6
CONTINUOUS
 10
1.196701
 20
-4.222240
  0
VERTEX
  8
PLAN_1
  6
CONTINUOUS
 10
1.190358
 20
-4.223827
  0
VERTEX
  8
PLAN_1
  6
CONTINUOUS
 10
1.184012
 20
-4.225413
  0
VERTEX
  8
PLAN_1
  6
CONTINUOUS
 10
1.173437
 20
-4.226472
  0
VERTEX
  8
PLAN_1
  6
CONTINUOUS
 10
1.165508
 20
-4.227000
  0
VERTEX
  8
PLAN_1
  6
CONTINUOUS
 10
1.157047
 20
-4.226472
  0
VERTEX
  8
PLAN_1
  6
CONTINUOUS
 10
1.148587
 20
-4.225413
  0
VERTEX
  8
PLAN_1
  6
CONTINUOUS
 10
1.140654
 20
-4.223827
  0
VERTEX
  8
PLAN_1
  6
CONTINUOUS
 10
1.132724
 20
-4.221185
  0
VERTEX
  8
PLAN_1
  6
CONTINUOUS
 10
1.124791
 20
-4.218012
  0
VERTEX
  8
PLAN_1
  6
CONTINUOUS
 10
1.117390
 20
-4.213783
  0
VERTEX
  8
PLAN_1
  6
CONTINUOUS
 10
1.110516
 20
-4.208496
  0
VERTEX
  8
PLAN_1
  6
CONTINUOUS
 10
1.103642
 20
-4.202677
  0
VERTEX
  8
PLAN_1
  6
CONTINUOUS
 10
1.097827
 20
-4.195803
  0
VERTEX
  8
PLAN_1
  6
CONTINUOUS
 10
1.092539
 20
-4.188402
  0
VERTEX
  8
PLAN_1
  6
CONTINUOUS
 10
1.089894
 20
-4.184173
  0
VERTEX
  8
PLAN_1
  6
CONTINUOUS
 10
1.087780
 20
-4.179413
  0
VERTEX
  8
PLAN_1
  6
CONTINUOUS
 10
1.085665
 20
-4.174654
  0
VERTEX
  8
PLAN_1
  6
CONTINUOUS
 10
1.083551
 20
-4.169894
  0
VERTEX
  8
PLAN_1
  6
CONTINUOUS
 10
1.081965
 20
-4.164606
  0
VERTEX
  8
PLAN_1
  6
CONTINUOUS
 10
1.080378
 20
-4.159319
  0
VERTEX
  8
PLAN_1
  6
CONTINUOUS
 10
1.078791
 20
-4.153504
  0
VERTEX
  8
PLAN_1
  6
CONTINUOUS
 10
1.077732
 20
-4.147689
  0
VERTEX
  8
PLAN_1
  6
CONTINUOUS
 10
1.076677
 20
-4.134996
  0
VERTEX
  8
PLAN_1
  6
CONTINUOUS
 10
1.076146
 20
-4.120720
  0
VERTEX
  8
PLAN_1
  6
CONTINUOUS
 10
1.076146
 20
-4.109618
  0
VERTEX
  8
PLAN_1
  6
CONTINUOUS
 10
1.077732
 20
-4.099043
  0
VERTEX
  8
PLAN_1
  6
CONTINUOUS
 10
1.079319
 20
-4.088469
  0
VERTEX
  8
PLAN_1
  6
CONTINUOUS
 10
1.082492
 20
-4.078949
  0
VERTEX
  8
PLAN_1
  6
CONTINUOUS
 10
1.085665
 20
-4.069961
  0
VERTEX
  8
PLAN_1
  6
CONTINUOUS
 10
1.089894
 20
-4.060972
  0
VERTEX
  8
PLAN_1
  6
CONTINUOUS
 10
1.095181
 20
-4.053043
  0
VERTEX
  8
PLAN_1
  6
CONTINUOUS
 10
1.100469
 20
-4.046169
  0
VERTEX
  8
PLAN_1
  6
CONTINUOUS
 10
1.106815
 20
-4.039823
  0
VERTEX
  8
PLAN_1
  6
CONTINUOUS
 10
1.114217
 20
-4.034008
  0
VERTEX
  8
PLAN_1
  6
CONTINUOUS
 10
1.121622
 20
-4.028720
  0
VERTEX
  8
PLAN_1
  6
CONTINUOUS
 10
1.130079
 20
-4.024488
  0
VERTEX
  8
PLAN_1
  6
CONTINUOUS
 10
1.139067
 20
-4.021315
  0
VERTEX
  8
PLAN_1
  6
CONTINUOUS
 10
1.148059
 20
-4.019201
  0
VERTEX
  8
PLAN_1
  6
CONTINUOUS
 10
1.158102
 20
-4.017614
  0
VERTEX
  8
PLAN_1
  6
CONTINUOUS
 10
1.168677
 20
-4.017087
  0
VERTEX
  8
PLAN_1
  6
CONTINUOUS
 10
1.178197
 20
-4.017614
  0
VERTEX
  8
PLAN_1
  6
CONTINUOUS
 10
1.187185
 20
-4.018673
  0
VERTEX
  8
PLAN_1
  6
CONTINUOUS
 10
1.195118
 20
-4.020260
  0
VERTEX
  8
PLAN_1
  6
CONTINUOUS
 10
1.203047
 20
-4.022902
  0
VERTEX
  8
PLAN_1
  6
CONTINUOUS
 10
1.209921
 20
-4.025547
  0
VERTEX
  8
PLAN_1
  6
CONTINUOUS
 10
1.216268
 20
-4.029248
  0
VERTEX
  8
PLAN_1
  6
CONTINUOUS
 10
1.222083
 20
-4.032949
  0
VERTEX
  8
PLAN_1
  6
CONTINUOUS
 10
1.227898
 20
-4.037177
  0
VERTEX
  8
PLAN_1
  6
CONTINUOUS
 10
1.232657
 20
-4.041937
  0
VERTEX
  8
PLAN_1
  6
CONTINUOUS
 10
1.236886
 20
-4.047224
  0
VERTEX
  8
PLAN_1
  6
CONTINUOUS
 10
1.240591
 20
-4.052512
  0
VERTEX
  8
PLAN_1
  6
CONTINUOUS
 10
1.243760
 20
-4.058331
  0
VERTEX
  8
PLAN_1
  6
CONTINUOUS
 10
1.246406
 20
-4.064146
  0
VERTEX
  8
PLAN_1
  6
CONTINUOUS
 10
1.248520
 20
-4.069961
  0
VERTEX
  8
PLAN_1
  6
CONTINUOUS
 10
1.249579
 20
-4.076307
  0
VERTEX
  8
PLAN_1
  6
CONTINUOUS
 10
1.250634
 20
-4.082122
  0
VERTEX
  8
PLAN_1
  6
CONTINUOUS
 10
1.224728
 20
-4.082122
  0
SEQEND
  8
0
  0
POLYLINE
  8
PLAN_1
  6
CONTINUOUS
 66
     1
 40
0.003000
 41
0.003000
  0
VERTEX
  8
PLAN_1
  6
CONTINUOUS
 10
1.274429
 20
-4.030835
  0
VERTEX
  8
PLAN_1
  6
CONTINUOUS
 10
1.409260
 20
-4.030835
  0
VERTEX
  8
PLAN_1
  6
CONTINUOUS
 10
1.409260
 20
-4.051984
  0
VERTEX
  8
PLAN_1
  6
CONTINUOUS
 10
1.400799
 20
-4.061500
  0
VERTEX
  8
PLAN_1
  6
CONTINUOUS
 10
1.390752
 20
-4.074720
  0
VERTEX
  8
PLAN_1
  6
CONTINUOUS
 10
1.384937
 20
-4.082654
  0
VERTEX
  8
PLAN_1
  6
CONTINUOUS
 10
1.379122
 20
-4.091642
  0
VERTEX
  8
PLAN_1
  6
CONTINUOUS
 10
1.373307
 20
-4.101157
  0
VERTEX
  8
PLAN_1
  6
CONTINUOUS
 10
1.367488
 20
-4.111732
  0
VERTEX
  8
PLAN_1
  6
CONTINUOUS
 10
1.361673
 20
-4.122835
  0
VERTEX
  8
PLAN_1
  6
CONTINUOUS
 10
1.355858
 20
-4.134996
  0
VERTEX
  8
PLAN_1
  6
CONTINUOUS
 10
1.350039
 20
-4.147689
  0
VERTEX
  8
PLAN_1
  6
CONTINUOUS
 10
1.344752
 20
-4.161437
  0
VERTEX
  8
PLAN_1
  6
CONTINUOUS
 10
1.339992
 20
-4.175713
  0
VERTEX
  8
PLAN_1
  6
CONTINUOUS
 10
1.335764
 20
-4.189988
  0
VERTEX
  8
PLAN_1
  6
CONTINUOUS
 10
1.332063
 20
-4.205850
  0
VERTEX
  8
PLAN_1
  6
CONTINUOUS
 10
1.329417
 20
-4.221713
  0
VERTEX
  8
PLAN_1
  6
CONTINUOUS
 10
1.302453
 20
-4.221713
  0
VERTEX
  8
PLAN_1
  6
CONTINUOUS
 10
1.304039
 20
-4.211665
  0
VERTEX
  8
PLAN_1
  6
CONTINUOUS
 10
1.306154
 20
-4.201091
  0
VERTEX
  8
PLAN_1
  6
CONTINUOUS
 10
1.308799
 20
-4.189988
  0
VERTEX
  8
PLAN_1
  6
CONTINUOUS
 10
1.312500
 20
-4.178886
  0
VERTEX
  8
PLAN_1
  6
CONTINUOUS
 10
1.316201
 20
-4.167780
  0
VERTEX
  8
PLAN_1
  6
CONTINUOUS
 10
1.320429
 20
-4.156677
  0
VERTEX
  8
PLAN_1
  6
CONTINUOUS
 10
1.325189
 20
-4.145575
  0
VERTEX
  8
PLAN_1
  6
CONTINUOUS
 10
1.330476
 20
-4.134469
  0
VERTEX
  8
PLAN_1
  6
CONTINUOUS
 10
1.336291
 20
-4.123366
  0
VERTEX
  8
PLAN_1
  6
CONTINUOUS
 10
1.342110
 20
-4.112260
  0
VERTEX
  8
PLAN_1
  6
CONTINUOUS
 10
1.347925
 20
-4.101685
  0
VERTEX
  8
PLAN_1
  6
CONTINUOUS
 10
1.354799
 20
-4.091642
  0
VERTEX
  8
PLAN_1
  6
CONTINUOUS
 10
1.361146
 20
-4.081594
  0
VERTEX
  8
PLAN_1
  6
CONTINUOUS
 10
1.368016
 20
-4.072075
  0
VERTEX
  8
PLAN_1
  6
CONTINUOUS
 10
1.374890
 20
-4.063087
  0
VERTEX
  8
PLAN_1
  6
CONTINUOUS
 10
1.381764
 20
-4.054626
  0
VERTEX
  8
PLAN_1
  6
CONTINUOUS
 10
1.274429
 20
-4.054626
  0
VERTEX
  8
PLAN_1
  6
CONTINUOUS
 10
1.274429
 20
-4.030835
  0
SEQEND
  8
0
  0
POLYLINE
  8
PLAN_1
  6
CONTINUOUS
 66
     1
 40
0.003000
 41
0.003000
  0
VERTEX
  8
PLAN_1
  6
CONTINUOUS
 10
1.470067
 20
-4.221713
  0
VERTEX
  8
PLAN_1
  6
CONTINUOUS
 10
1.443098
 20
-4.221713
  0
VERTEX
  8
PLAN_1
  6
CONTINUOUS
 10
1.443098
 20
-4.022374
  0
VERTEX
  8
PLAN_1
  6
CONTINUOUS
 10
1.535102
 20
-4.022374
  0
VERTEX
  8
PLAN_1
  6
CONTINUOUS
 10
1.541449
 20
-4.022374
  0
VERTEX
  8
PLAN_1
  6
CONTINUOUS
 10
1.547264
 20
-4.022902
  0
VERTEX
  8
PLAN_1
  6
CONTINUOUS
 10
1.553610
 20
-4.023961
  0
VERTEX
  8
PLAN_1
  6
CONTINUOUS
 10
1.559425
 20
-4.025020
  0
VERTEX
  8
PLAN_1
  6
CONTINUOUS
 10
1.564713
 20
-4.026602
  0
VERTEX
  8
PLAN_1
  6
CONTINUOUS
 10
1.570528
 20
-4.028189
  0
VERTEX
  8
PLAN_1
  6
CONTINUOUS
 10
1.575287
 20
-4.030835
  0
VERTEX
  8
PLAN_1
  6
CONTINUOUS
 10
1.580047
 20
-4.033476
  0
VERTEX
  8
PLAN_1
  6
CONTINUOUS
 10
1.584807
 20
-4.036650
  0
VERTEX
  8
PLAN_1
  6
CONTINUOUS
 10
1.588508
 20
-4.040350
  0
VERTEX
  8
PLAN_1
  6
CONTINUOUS
 10
1.592209
 20
-4.045110
  0
VERTEX
  8
PLAN_1
  6
CONTINUOUS
 10
1.594850
 20
-4.049870
  0
VERTEX
  8
PLAN_1
  6
CONTINUOUS
 10
1.597496
 20
-4.055157
  0
VERTEX
  8
PLAN_1
  6
CONTINUOUS
 10
1.599083
 20
-4.061500
  0
VERTEX
  8
PLAN_1
  6
CONTINUOUS
 10
1.600138
 20
-4.068374
  0
VERTEX
  8
PLAN_1
  6
CONTINUOUS
 10
1.600669
 20
-4.075780
  0
VERTEX
  8
PLAN_1
  6
CONTINUOUS
 10
1.600669
 20
-4.081067
  0
VERTEX
  8
PLAN_1
  6
CONTINUOUS
 10
1.600138
 20
-4.086354
  0
VERTEX
  8
PLAN_1
  6
CONTINUOUS
 10
1.599083
 20
-4.090583
  0
VERTEX
  8
PLAN_1
  6
CONTINUOUS
 10
1.598024
 20
-4.094811
  0
VERTEX
  8
PLAN_1
  6
CONTINUOUS
 10
1.596965
 20
-4.098516
  0
VERTEX
  8
PLAN_1
  6
CONTINUOUS
 10
1.595382
 20
-4.102217
  0
VERTEX
  8
PLAN_1
  6
CONTINUOUS
 10
1.593795
 20
-4.105390
  0
VERTEX
  8
PLAN_1
  6
CONTINUOUS
 10
1.591677
 20
-4.108031
  0
VERTEX
  8
PLAN_1
  6
CONTINUOUS
 10
1.587449
 20
-4.113319
  0
VERTEX
  8
PLAN_1
  6
CONTINUOUS
 10
1.582689
 20
-4.117020
  0
VERTEX
  8
PLAN_1
  6
CONTINUOUS
 10
1.577933
 20
-4.120720
  0
VERTEX
  8
PLAN_1
  6
CONTINUOUS
 10
1.573173
 20
-4.123894
  0
VERTEX
  8
PLAN_1
  6
CONTINUOUS
 10
1.577402
 20
-4.125480
  0
VERTEX
  8
PLAN_1
  6
CONTINUOUS
 10
1.581102
 20
-4.127594
  0
VERTEX
  8
PLAN_1
  6
CONTINUOUS
 10
1.585335
 20
-4.130240
  0
VERTEX
  8
PLAN_1
  6
CONTINUOUS
 10
1.588508
 20
-4.133941
  0
VERTEX
  8
PLAN_1
  6
CONTINUOUS
 10
1.590094
 20
-4.136055
  0
VERTEX
  8
PLAN_1
  6
CONTINUOUS
 10
1.591677
 20
-4.138169
  0
VERTEX
  8
PLAN_1
  6
CONTINUOUS
 10
1.593264
 20
-4.141343
  0
VERTEX
  8
PLAN_1
  6
CONTINUOUS
 10
1.594323
 20
-4.144516
  0
VERTEX
  8
PLAN_1
  6
CONTINUOUS
 10
1.595382
 20
-4.147689
  0
VERTEX
  8
PLAN_1
  6
CONTINUOUS
 10
1.595909
 20
-4.151917
  0
VERTEX
  8
PLAN_1
  6
CONTINUOUS
 10
1.596437
 20
-4.156150
  0
VERTEX
  8
PLAN_1
  6
CONTINUOUS
 10
1.596965
 20
-4.161437
  0
VERTEX
  8
PLAN_1
  6
CONTINUOUS
 10
1.598551
 20
-4.197390
  0
VERTEX
  8
PLAN_1
  6
CONTINUOUS
 10
1.598551
 20
-4.201091
  0
VERTEX
  8
PLAN_1
  6
CONTINUOUS
 10
1.599083
 20
-4.204264
  0
VERTEX
  8
PLAN_1
  6
CONTINUOUS
 10
1.599610
 20
-4.207437
  0
VERTEX
  8
PLAN_1
  6
CONTINUOUS
 10
1.600669
 20
-4.209551
  0
VERTEX
  8
PLAN_1
  6
CONTINUOUS
 10
1.601724
 20
-4.211665
  0
VERTEX
  8
PLAN_1
  6
CONTINUOUS
 10
1.603311
 20
-4.213783
  0
VERTEX
  8
PLAN_1
  6
CONTINUOUS
 10
1.605425
 20
-4.215366
  0
VERTEX
  8
PLAN_1
  6
CONTINUOUS
 10
1.608598
 20
-4.217484
  0
VERTEX
  8
PLAN_1
  6
CONTINUOUS
 10
1.608598
 20
-4.221713
  0
VERTEX
  8
PLAN_1
  6
CONTINUOUS
 10
1.575287
 20
-4.221713
  0
VERTEX
  8
PLAN_1
  6
CONTINUOUS
 10
1.574228
 20
-4.216425
  0
VERTEX
  8
PLAN_1
  6
CONTINUOUS
 10
1.573173
 20
-4.210079
  0
VERTEX
  8
PLAN_1
  6
CONTINUOUS
 10
1.572114
 20
-4.202677
  0
VERTEX
  8
PLAN_1
  6
CONTINUOUS
 10
1.571587
 20
-4.194748
  0
VERTEX
  8
PLAN_1
  6
CONTINUOUS
 10
1.571059
 20
-4.187874
  0
VERTEX
  8
PLAN_1
  6
CONTINUOUS
 10
1.571059
 20
-4.181000
  0
VERTEX
  8
PLAN_1
  6
CONTINUOUS
 10
1.570528
 20
-4.175713
  0
VERTEX
  8
PLAN_1
  6
CONTINUOUS
 10
1.570528
 20
-4.172012
  0
VERTEX
  8
PLAN_1
  6
CONTINUOUS
 10
1.570528
 20
-4.165665
  0
VERTEX
  8
PLAN_1
  6
CONTINUOUS
 10
1.569472
 20
-4.159319
  0
VERTEX
  8
PLAN_1
  6
CONTINUOUS
 10
1.568941
 20
-4.156150
  0
VERTEX
  8
PLAN_1
  6
CONTINUOUS
 10
1.567886
 20
-4.153504
  0
VERTEX
  8
PLAN_1
  6
CONTINUOUS
 10
1.566827
 20
-4.150331
  0
VERTEX
  8
PLAN_1
  6
CONTINUOUS
 10
1.565240
 20
-4.147689
  0
VERTEX
  8
PLAN_1
  6
CONTINUOUS
 10
1.563126
 20
-4.145575
  0
VERTEX
  8
PLAN_1
  6
CONTINUOUS
 10
1.560484
 20
-4.142929
  0
VERTEX
  8
PLAN_1
  6
CONTINUOUS
 10
1.557839
 20
-4.141343
  0
VERTEX
  8
PLAN_1
  6
CONTINUOUS
 10
1.554138
 20
-4.139228
  0
VERTEX
  8
PLAN_1
  6
CONTINUOUS
 10
1.550437
 20
-4.138169
  0
VERTEX
  8
PLAN_1
  6
CONTINUOUS
 10
1.546205
 20
-4.137114
  0
VERTEX
  8
PLAN_1
  6
CONTINUOUS
 10
1.540917
 20
-4.136583
  0
VERTEX
  8
PLAN_1
  6
CONTINUOUS
 10
1.535102
 20
-4.136055
  0
VERTEX
  8
PLAN_1
  6
CONTINUOUS
 10
1.470067
 20
-4.136055
  0
VERTEX
  8
PLAN_1
  6
CONTINUOUS
 10
1.470067
 20
-4.221713
  0
SEQEND
  8
0
  0
POLYLINE
  8
PLAN_1
  6
CONTINUOUS
 66
     1
 40
0.003000
 41
0.003000
  0
VERTEX
  8
PLAN_1
  6
CONTINUOUS
 10
1.470067
 20
-4.113319
  0
VERTEX
  8
PLAN_1
  6
CONTINUOUS
 10
1.532461
 20
-4.113319
  0
VERTEX
  8
PLAN_1
  6
CONTINUOUS
 10
1.539862
 20
-4.112791
  0
VERTEX
  8
PLAN_1
  6
CONTINUOUS
 10
1.547264
 20
-4.111732
  0
VERTEX
  8
PLAN_1
  6
CONTINUOUS
 10
1.550437
 20
-4.111205
  0
VERTEX
  8
PLAN_1
  6
CONTINUOUS
 10
1.554138
 20
-4.110146
  0
VERTEX
  8
PLAN_1
  6
CONTINUOUS
 10
1.557311
 20
-4.108559
  0
VERTEX
  8
PLAN_1
  6
CONTINUOUS
 10
1.559953
 20
-4.106972
  0
VERTEX
  8
PLAN_1
  6
CONTINUOUS
 10
1.562598
 20
-4.104858
  0
VERTEX
  8
PLAN_1
  6
CONTINUOUS
 10
1.565240
 20
-4.102744
  0
VERTEX
  8
PLAN_1
  6
CONTINUOUS
 10
1.567358
 20
-4.099571
  0
VERTEX
  8
PLAN_1
  6
CONTINUOUS
 10
1.569472
 20
-4.096398
  0
VERTEX
  8
PLAN_1
  6
CONTINUOUS
 10
1.571059
 20
-4.092697
  0
VERTEX
  8
PLAN_1
  6
CONTINUOUS
 10
1.572114
 20
-4.088469
  0
VERTEX
  8
PLAN_1
  6
CONTINUOUS
 10
1.572646
 20
-4.084236
  0
VERTEX
  8
PLAN_1
  6
CONTINUOUS
 10
1.573173
 20
-4.078949
  0
VERTEX
  8
PLAN_1
  6
CONTINUOUS
 10
1.572646
 20
-4.073134
  0
VERTEX
  8
PLAN_1
  6
CONTINUOUS
 10
1.572114
 20
-4.068374
  0
VERTEX
  8
PLAN_1
  6
CONTINUOUS
 10
1.570528
 20
-4.064146
  0
VERTEX
  8
PLAN_1
  6
CONTINUOUS
 10
1.569472
 20
-4.060445
  0
VERTEX
  8
PLAN_1
  6
CONTINUOUS
 10
1.567358
 20
-4.057272
  0
VERTEX
  8
PLAN_1
  6
CONTINUOUS
 10
1.565240
 20
-4.054626
  0
VERTEX
  8
PLAN_1
  6
CONTINUOUS
 10
1.562598
 20
-4.052512
  0
VERTEX
  8
PLAN_1
  6
CONTINUOUS
 10
1.559953
 20
-4.050398
  0
VERTEX
  8
PLAN_1
  6
CONTINUOUS
 10
1.557311
 20
-4.048811
  0
VERTEX
  8
PLAN_1
  6
CONTINUOUS
 10
1.554138
 20
-4.047756
  0
VERTEX
  8
PLAN_1
  6
CONTINUOUS
 10
1.551492
 20
-4.047224
  0
VERTEX
  8
PLAN_1
  6
CONTINUOUS
 10
1.548323
 20
-4.046169
  0
VERTEX
  8
PLAN_1
  6
CONTINUOUS
 10
1.542504
 20
-4.045638
  0
VERTEX
  8
PLAN_1
  6
CONTINUOUS
 10
1.537217
 20
-4.045638
  0
VERTEX
  8
PLAN_1
  6
CONTINUOUS
 10
1.470067
 20
-4.045638
  0
VERTEX
  8
PLAN_1
  6
CONTINUOUS
 10
1.470067
 20
-4.113319
  0
SEQEND
  8
0
  0
SOLID
  8
PLAN_1
 10
1.672047
 20
-4.221713
 11
1.643496
 21
-4.221713
 12
1.672047
 22
-4.192102
 13
1.643496
 23
-4.192102
  0
POLYLINE
  8
PLAN_1
  6
CONTINUOUS
 66
     1
 40
0.003000
 41
0.003000
  0
VERTEX
  8
PLAN_1
  6
CONTINUOUS
 10
1.672047
 20
-4.221713
  0
VERTEX
  8
PLAN_1
  6
CONTINUOUS
 10
1.643496
 20
-4.221713
  0
VERTEX
  8
PLAN_1
  6
CONTINUOUS
 10
1.643496
 20
-4.192102
  0
VERTEX
  8
PLAN_1
  6
CONTINUOUS
 10
1.672047
 20
-4.192102
  0
VERTEX
  8
PLAN_1
  6
CONTINUOUS
 10
1.672047
 20
-4.221713
  0
SEQEND
  8
0
  0
POLYLINE
  8
PLAN_1
  6
CONTINUOUS
 66
     1
 40
0.003000
 41
0.003000
  0
VERTEX
  8
PLAN_1
  6
CONTINUOUS
 10
1.867157
 20
-4.221713
  0
VERTEX
  8
PLAN_1
  6
CONTINUOUS
 10
1.720165
 20
-4.221713
  0
VERTEX
  8
PLAN_1
  6
CONTINUOUS
 10
1.720165
 20
-4.022374
  0
VERTEX
  8
PLAN_1
  6
CONTINUOUS
 10
1.865571
 20
-4.022374
  0
VERTEX
  8
PLAN_1
  6
CONTINUOUS
 10
1.865571
 20
-4.046169
  0
VERTEX
  8
PLAN_1
  6
CONTINUOUS
 10
1.747130
 20
-4.046169
  0
VERTEX
  8
PLAN_1
  6
CONTINUOUS
 10
1.747130
 20
-4.107504
  0
VERTEX
  8
PLAN_1
  6
CONTINUOUS
 10
1.856055
 20
-4.107504
  0
VERTEX
  8
PLAN_1
  6
CONTINUOUS
 10
1.856055
 20
-4.131295
  0
VERTEX
  8
PLAN_1
  6
CONTINUOUS
 10
1.747130
 20
-4.131295
  0
VERTEX
  8
PLAN_1
  6
CONTINUOUS
 10
1.747130
 20
-4.197917
  0
VERTEX
  8
PLAN_1
  6
CONTINUOUS
 10
1.867157
 20
-4.197917
  0
VERTEX
  8
PLAN_1
  6
CONTINUOUS
 10
1.867157
 20
-4.221713
  0
SEQEND
  8
0
  0
POLYLINE
  8
PLAN_1
  6
CONTINUOUS
 66
     1
 40
0.003000
 41
0.003000
  0
VERTEX
  8
PLAN_1
  6
CONTINUOUS
 10
1.932193
 20
-4.221713
  0
VERTEX
  8
PLAN_1
  6
CONTINUOUS
 10
1.905228
 20
-4.221713
  0
VERTEX
  8
PLAN_1
  6
CONTINUOUS
 10
1.905228
 20
-4.022374
  0
VERTEX
  8
PLAN_1
  6
CONTINUOUS
 10
1.995114
 20
-4.022374
  0
VERTEX
  8
PLAN_1
  6
CONTINUOUS
 10
2.001988
 20
-4.022902
  0
VERTEX
  8
PLAN_1
  6
CONTINUOUS
 10
2.008335
 20
-4.023433
  0
VERTEX
  8
PLAN_1
  6
CONTINUOUS
 10
2.014150
 20
-4.025020
  0
VERTEX
  8
PLAN_1
  6
CONTINUOUS
 10
2.019965
 20
-4.026602
  0
VERTEX
  8
PLAN_1
  6
CONTINUOUS
 10
2.025252
 20
-4.028720
  0
VERTEX
  8
PLAN_1
  6
CONTINUOUS
 10
2.030012
 20
-4.031890
  0
VERTEX
  8
PLAN_1
  6
CONTINUOUS
 10
2.034244
 20
-4.035063
  0
VERTEX
  8
PLAN_1
  6
CONTINUOUS
 10
2.038472
 20
-4.038236
  0
VERTEX
  8
PLAN_1
  6
CONTINUOUS
 10
2.042173
 20
-4.042469
  0
VERTEX
  8
PLAN_1
  6
CONTINUOUS
 10
2.045346
 20
-4.046697
  0
VERTEX
  8
PLAN_1
  6
CONTINUOUS
 10
2.047992
 20
-4.051457
  0
VERTEX
  8
PLAN_1
  6
CONTINUOUS
 10
2.050106
 20
-4.056213
  0
VERTEX
  8
PLAN_1
  6
CONTINUOUS
 10
2.051693
 20
-4.061500
  0
VERTEX
  8
PLAN_1
  6
CONTINUOUS
 10
2.053280
 20
-4.066787
  0
VERTEX
  8
PLAN_1
  6
CONTINUOUS
 10
2.053807
 20
-4.072606
  0
VERTEX
  8
PLAN_1
  6
CONTINUOUS
 10
2.054335
 20
-4.078421
  0
VERTEX
  8
PLAN_1
  6
CONTINUOUS
 10
2.053807
 20
-4.083709
  0
VERTEX
  8
PLAN_1
  6
CONTINUOUS
 10
2.053280
 20
-4.088996
  0
VERTEX
  8
PLAN_1
  6
CONTINUOUS
 10
2.052220
 20
-4.094283
  0
VERTEX
  8
PLAN_1
  6
CONTINUOUS
 10
2.051161
 20
-4.099571
  0
VERTEX
  8
PLAN_1
  6
CONTINUOUS
 10
2.049047
 20
-4.104331
  0
VERTEX
  8
PLAN_1
  6
CONTINUOUS
 10
2.046933
 20
-4.109618
  0
VERTEX
  8
PLAN_1
  6
CONTINUOUS
 10
2.044287
 20
-4.113846
  0
VERTEX
  8
PLAN_1
  6
CONTINUOUS
 10
2.041118
 20
-4.118606
  0
VERTEX
  8
PLAN_1
  6
CONTINUOUS
 10
2.036886
 20
-4.122307
  0
VERTEX
  8
PLAN_1
  6
CONTINUOUS
 10
2.032657
 20
-4.126008
  0
VERTEX
  8
PLAN_1
  6
CONTINUOUS
 10
2.027898
 20
-4.129709
  0
VERTEX
  8
PLAN_1
  6
CONTINUOUS
 10
2.022610
 20
-4.132354
  0
VERTEX
  8
PLAN_1
  6
CONTINUOUS
 10
2.016795
 20
-4.134469
  0
VERTEX
  8
PLAN_1
  6
CONTINUOUS
 10
2.009921
 20
-4.136055
  0
VERTEX
  8
PLAN_1
  6
CONTINUOUS
 10
2.003047
 20
-4.137114
  0
VERTEX
  8
PLAN_1
  6
CONTINUOUS
 10
1.995114
 20
-4.137642
  0
VERTEX
  8
PLAN_1
  6
CONTINUOUS
 10
1.932193
 20
-4.137642
  0
VERTEX
  8
PLAN_1
  6
CONTINUOUS
 10
1.932193
 20
-4.221713
  0
SEQEND
  8
0
  0
POLYLINE
  8
PLAN_1
  6
CONTINUOUS
 66
     1
 40
0.003000
 41
0.003000
  0
VERTEX
  8
PLAN_1
  6
CONTINUOUS
 10
1.932193
 20
-4.114378
  0
VERTEX
  8
PLAN_1
  6
CONTINUOUS
 10
1.986126
 20
-4.114378
  0
VERTEX
  8
PLAN_1
  6
CONTINUOUS
 10
1.994587
 20
-4.114378
  0
VERTEX
  8
PLAN_1
  6
CONTINUOUS
 10
2.002516
 20
-4.112791
  0
VERTEX
  8
PLAN_1
  6
CONTINUOUS
 10
2.006220
 20
-4.111732
  0
VERTEX
  8
PLAN_1
  6
CONTINUOUS
 10
2.009390
 20
-4.110146
  0
VERTEX
  8
PLAN_1
  6
CONTINUOUS
 10
2.012563
 20
-4.108559
  0
VERTEX
  8
PLAN_1
  6
CONTINUOUS
 10
2.015209
 20
-4.106972
  0
VERTEX
  8
PLAN_1
  6
CONTINUOUS
 10
2.017850
 20
-4.104331
  0
VERTEX
  8
PLAN_1
  6
CONTINUOUS
 10
2.019965
 20
-4.101685
  0
VERTEX
  8
PLAN_1
  6
CONTINUOUS
 10
2.022083
 20
-4.099043
  0
VERTEX
  8
PLAN_1
  6
CONTINUOUS
 10
2.023669
 20
-4.095870
  0
VERTEX
  8
PLAN_1
  6
CONTINUOUS
 10
2.024724
 20
-4.092169
  0
VERTEX
  8
PLAN_1
  6
CONTINUOUS
 10
2.025783
 20
-4.087941
  0
VERTEX
  8
PLAN_1
  6
CONTINUOUS
 10
2.026311
 20
-4.083709
  0
VERTEX
  8
PLAN_1
  6
CONTINUOUS
 10
2.026311
 20
-4.078949
  0
VERTEX
  8
PLAN_1
  6
CONTINUOUS
 10
2.026311
 20
-4.074193
  0
VERTEX
  8
PLAN_1
  6
CONTINUOUS
 10
2.025783
 20
-4.069961
  0
VERTEX
  8
PLAN_1
  6
CONTINUOUS
 10
2.024724
 20
-4.066260
  0
VERTEX
  8
PLAN_1
  6
CONTINUOUS
 10
2.023138
 20
-4.063087
  0
VERTEX
  8
PLAN_1
  6
CONTINUOUS
 10
2.021551
 20
-4.059913
  0
VERTEX
  8
PLAN_1
  6
CONTINUOUS
 10
2.019965
 20
-4.057272
  0
VERTEX
  8
PLAN_1
  6
CONTINUOUS
 10
2.017323
 20
-4.054626
  0
VERTEX
  8
PLAN_1
  6
CONTINUOUS
 10
2.015209
 20
-4.052512
  0
VERTEX
  8
PLAN_1
  6
CONTINUOUS
 10
2.012035
 20
-4.050925
  0
VERTEX
  8
PLAN_1
  6
CONTINUOUS
 10
2.009390
 20
-4.049339
  0
VERTEX
  8
PLAN_1
  6
CONTINUOUS
 10
2.006220
 20
-4.048283
  0
VERTEX
  8
PLAN_1
  6
CONTINUOUS
 10
2.002516
 20
-4.047224
  0
VERTEX
  8
PLAN_1
  6
CONTINUOUS
 10
1.995114
 20
-4.045638
  0
VERTEX
  8
PLAN_1
  6
CONTINUOUS
 10
1.987185
 20
-4.045638
  0
VERTEX
  8
PLAN_1
  6
CONTINUOUS
 10
1.932193
 20
-4.045638
  0
VERTEX
  8
PLAN_1
  6
CONTINUOUS
 10
1.932193
 20
-4.114378
  0
SEQEND
  8
0
  0
POLYLINE
  8
PLAN_1
  6
CONTINUOUS
 66
     1
 40
0.003000
 41
0.003000
  0
VERTEX
  8
PLAN_1
  6
CONTINUOUS
 10
2.208201
 20
-4.080535
  0
VERTEX
  8
PLAN_1
  6
CONTINUOUS
 10
2.207673
 20
-4.075248
  0
VERTEX
  8
PLAN_1
  6
CONTINUOUS
 10
2.206614
 20
-4.069961
  0
VERTEX
  8
PLAN_1
  6
CONTINUOUS
 10
2.205028
 20
-4.065732
  0
VERTEX
  8
PLAN_1
  6
CONTINUOUS
 10
2.202913
 20
-4.061500
  0
VERTEX
  8
PLAN_1
  6
CONTINUOUS
 10
2.200272
 20
-4.057799
  0
VERTEX
  8
PLAN_1
  6
CONTINUOUS
 10
2.197626
 20
-4.054098
  0
VERTEX
  8
PLAN_1
  6
CONTINUOUS
 10
2.194453
 20
-4.051457
  0
VERTEX
  8
PLAN_1
  6
CONTINUOUS
 10
2.191280
 20
-4.048811
  0
VERTEX
  8
PLAN_1
  6
CONTINUOUS
 10
2.187579
 20
-4.046697
  0
VERTEX
  8
PLAN_1
  6
CONTINUOUS
 10
2.183878
 20
-4.045110
  0
VERTEX
  8
PLAN_1
  6
CONTINUOUS
 10
2.179650
 20
-4.043524
  0
VERTEX
  8
PLAN_1
  6
CONTINUOUS
 10
2.175417
 20
-4.041937
  0
VERTEX
  8
PLAN_1
  6
CONTINUOUS
 10
2.166961
 20
-4.040882
  0
VERTEX
  8
PLAN_1
  6
CONTINUOUS
 10
2.158500
 20
-4.040350
  0
VERTEX
  8
PLAN_1
  6
CONTINUOUS
 10
2.151626
 20
-4.040350
  0
VERTEX
  8
PLAN_1
  6
CONTINUOUS
 10
2.144224
 20
-4.041409
  0
VERTEX
  8
PLAN_1
  6
CONTINUOUS
 10
2.140520
 20
-4.042469
  0
VERTEX
  8
PLAN_1
  6
CONTINUOUS
 10
2.136819
 20
-4.043524
  0
VERTEX
  8
PLAN_1
  6
CONTINUOUS
 10
2.133118
 20
-4.044583
  0
VERTEX
  8
PLAN_1
  6
CONTINUOUS
 10
2.129417
 20
-4.046169
  0
VERTEX
  8
PLAN_1
  6
CONTINUOUS
 10
2.126244
 20
-4.048283
  0
VERTEX
  8
PLAN_1
  6
CONTINUOUS
 10
2.123071
 20
-4.050925
  0
VERTEX
  8
PLAN_1
  6
CONTINUOUS
 10
2.120429
 20
-4.053571
  0
VERTEX
  8
PLAN_1
  6
CONTINUOUS
 10
2.117783
 20
-4.056744
  0
VERTEX
  8
PLAN_1
  6
CONTINUOUS
 10
2.115669
 20
-4.060445
  0
VERTEX
  8
PLAN_1
  6
CONTINUOUS
 10
2.114614
 20
-4.065205
  0
VERTEX
  8
PLAN_1
  6
CONTINUOUS
 10
2.113555
 20
-4.069961
  0
VERTEX
  8
PLAN_1
  6
CONTINUOUS
 10
2.113028
 20
-4.075248
  0
VERTEX
  8
PLAN_1
  6
CONTINUOUS
 10
2.113028
 20
-4.078421
  0
VERTEX
  8
PLAN_1
  6
CONTINUOUS
 10
2.113555
 20
-4.081067
  0
VERTEX
  8
PLAN_1
  6
CONTINUOUS
 10
2.114083
 20
-4.083709
  0
VERTEX
  8
PLAN_1
  6
CONTINUOUS
 10
2.115142
 20
-4.085823
  0
VERTEX
  8
PLAN_1
  6
CONTINUOUS
 10
2.117783
 20
-4.090055
  0
VERTEX
  8
PLAN_1
  6
CONTINUOUS
 10
2.120429
 20
-4.093228
  0
VERTEX
  8
PLAN_1
  6
CONTINUOUS
 10
2.124130
 20
-4.095870
  0
VERTEX
  8
PLAN_1
  6
CONTINUOUS
 10
2.128358
 20
-4.097457
  0
VERTEX
  8
PLAN_1
  6
CONTINUOUS
 10
2.132591
 20
-4.099043
  0
VERTEX
  8
PLAN_1
  6
CONTINUOUS
 10
2.136819
 20
-4.100630
  0
VERTEX
  8
PLAN_1
  6
CONTINUOUS
 10
2.193398
 20
-4.113319
  0
VERTEX
  8
PLAN_1
  6
CONTINUOUS
 10
2.198154
 20
-4.114906
  0
VERTEX
  8
PLAN_1
  6
CONTINUOUS
 10
2.202913
 20
-4.115965
  0
VERTEX
  8
PLAN_1
  6
CONTINUOUS
 10
2.207146
 20
-4.118079
  0
VERTEX
  8
PLAN_1
  6
CONTINUOUS
 10
2.211374
 20
-4.119665
  0
VERTEX
  8
PLAN_1
  6
CONTINUOUS
 10
2.215602
 20
-4.122307
  0
VERTEX
  8
PLAN_1
  6
CONTINUOUS
 10
2.219307
 20
-4.124421
  0
VERTEX
  8
PLAN_1
  6
CONTINUOUS
 10
2.222476
 20
-4.127594
  0
VERTEX
  8
PLAN_1
  6
CONTINUOUS
 10
2.226177
 20
-4.130768
  0
VERTEX
  8
PLAN_1
  6
CONTINUOUS
 10
2.228823
 20
-4.133941
  0
VERTEX
  8
PLAN_1
  6
CONTINUOUS
 10
2.231465
 20
-4.137642
  0
VERTEX
  8
PLAN_1
  6
CONTINUOUS
 10
2.233583
 20
-4.141870
  0
VERTEX
  8
PLAN_1
  6
CONTINUOUS
 10
2.235169
 20
-4.146102
  0
VERTEX
  8
PLAN_1
  6
CONTINUOUS
 10
2.236752
 20
-4.150862
  0
VERTEX
  8
PLAN_1
  6
CONTINUOUS
 10
2.237811
 20
-4.155618
  0
VERTEX
  8
PLAN_1
  6
CONTINUOUS
 10
2.238870
 20
-4.160906
  0
VERTEX
  8
PLAN_1
  6
CONTINUOUS
 10
2.238870
 20
-4.166724
  0
VERTEX
  8
PLAN_1
  6
CONTINUOUS
 10
2.238339
 20
-4.175181
  0
VERTEX
  8
PLAN_1
  6
CONTINUOUS
 10
2.236752
 20
-4.183114
  0
VERTEX
  8
PLAN_1
  6
CONTINUOUS
 10
2.234638
 20
-4.189988
  0
VERTEX
  8
PLAN_1
  6
CONTINUOUS
 10
2.231465
 20
-4.196335
  0
VERTEX
  8
PLAN_1
  6
CONTINUOUS
 10
2.227764
 20
-4.201622
  0
VERTEX
  8
PLAN_1
  6
CONTINUOUS
 10
2.223008
 20
-4.206378
  0
VERTEX
  8
PLAN_1
  6
CONTINUOUS
 10
2.218248
 20
-4.210610
  0
VERTEX
  8
PLAN_1
  6
CONTINUOUS
 10
2.212433
 20
-4.214839
  0
VERTEX
  8
PLAN_1
  6
CONTINUOUS
 10
2.206614
 20
-4.218012
  0
VERTEX
  8
PLAN_1
  6
CONTINUOUS
 10
2.200799
 20
-4.220654
  0
VERTEX
  8
PLAN_1
  6
CONTINUOUS
 10
2.193925
 20
-4.222772
  0
VERTEX
  8
PLAN_1
  6
CONTINUOUS
 10
2.187579
 20
-4.224358
  0
VERTEX
  8
PLAN_1
  6
CONTINUOUS
 10
2.180705
 20
-4.225413
  0
VERTEX
  8
PLAN_1
  6
CONTINUOUS
 10
2.173835
 20
-4.226472
  0
VERTEX
  8
PLAN_1
  6
CONTINUOUS
 10
2.167488
 20
-4.227000
  0
VERTEX
  8
PLAN_1
  6
CONTINUOUS
 10
2.160614
 20
-4.227000
  0
VERTEX
  8
PLAN_1
  6
CONTINUOUS
 10
2.147925
 20
-4.226472
  0
VERTEX
  8
PLAN_1
  6
CONTINUOUS
 10
2.137350
 20
-4.224886
  0
VERTEX
  8
PLAN_1
  6
CONTINUOUS
 10
2.127831
 20
-4.223299
  0
VERTEX
  8
PLAN_1
  6
CONTINUOUS
 10
2.120429
 20
-4.220654
  0
VERTEX
  8
PLAN_1
  6
CONTINUOUS
 10
2.114083
 20
-4.217484
  0
VERTEX
  8
PLAN_1
  6
CONTINUOUS
 10
2.108795
 20
-4.214311
  0
VERTEX
  8
PLAN_1
  6
CONTINUOUS
 10
2.104039
 20
-4.211138
  0
VERTEX
  8
PLAN_1
  6
CONTINUOUS
 10
2.100866
 20
-4.207965
  0
VERTEX
  8
PLAN_1
  6
CONTINUOUS
 10
2.095047
 20
-4.202150
  0
VERTEX
  8
PLAN_1
  6
CONTINUOUS
 10
2.090291
 20
-4.196335
  0
VERTEX
  8
PLAN_1
  6
CONTINUOUS
 10
2.086591
 20
-4.189988
  0
VERTEX
  8
PLAN_1
  6
CONTINUOUS
 10
2.083945
 20
-4.183642
  0
VERTEX
  8
PLAN_1
  6
CONTINUOUS
 10
2.082358
 20
-4.177299
  0
VERTEX
  8
PLAN_1
  6
CONTINUOUS
 10
2.081303
 20
-4.170953
  0
VERTEX
  8
PLAN_1
  6
CONTINUOUS
 10
2.080772
 20
-4.164079
  0
VERTEX
  8
PLAN_1
  6
CONTINUOUS
 10
2.080244
 20
-4.157205
  0
VERTEX
  8
PLAN_1
  6
CONTINUOUS
 10
2.105622
 20
-4.157205
  0
VERTEX
  8
PLAN_1
  6
CONTINUOUS
 10
2.106154
 20
-4.163551
  0
VERTEX
  8
PLAN_1
  6
CONTINUOUS
 10
2.106681
 20
-4.169894
  0
VERTEX
  8
PLAN_1
  6
CONTINUOUS
 10
2.108268
 20
-4.175181
  0
VERTEX
  8
PLAN_1
  6
CONTINUOUS
 10
2.110382
 20
-4.179941
  0
VERTEX
  8
PLAN_1
  6
CONTINUOUS
 10
2.113028
 20
-4.184173
  0
VERTEX
  8
PLAN_1
  6
CONTINUOUS
 10
2.116201
 20
-4.187874
  0
VERTEX
  8
PLAN_1
  6
CONTINUOUS
 10
2.119902
 20
-4.191047
  0
VERTEX
  8
PLAN_1
  6
CONTINUOUS
 10
2.123602
 20
-4.194217
  0
VERTEX
  8
PLAN_1
  6
CONTINUOUS
 10
2.127831
 20
-4.196862
  0
VERTEX
  8
PLAN_1
  6
CONTINUOUS
 10
2.132063
 20
-4.198976
  0
VERTEX
  8
PLAN_1
  6
CONTINUOUS
 10
2.136291
 20
-4.200563
  0
VERTEX
  8
PLAN_1
  6
CONTINUOUS
 10
2.141051
 20
-4.201622
  0
VERTEX
  8
PLAN_1
  6
CONTINUOUS
 10
2.145807
 20
-4.202677
  0
VERTEX
  8
PLAN_1
  6
CONTINUOUS
 10
2.151094
 20
-4.203205
  0
VERTEX
  8
PLAN_1
  6
CONTINUOUS
 10
2.155854
 20
-4.203736
  0
VERTEX
  8
PLAN_1
  6
CONTINUOUS
 10
2.160614
 20
-4.203736
  0
VERTEX
  8
PLAN_1
  6
CONTINUOUS
 10
2.168543
 20
-4.203736
  0
VERTEX
  8
PLAN_1
  6
CONTINUOUS
 10
2.177004
 20
-4.202677
  0
VERTEX
  8
PLAN_1
  6
CONTINUOUS
 10
2.181236
 20
-4.202150
  0
VERTEX
  8
PLAN_1
  6
CONTINUOUS
 10
2.185465
 20
-4.201091
  0
VERTEX
  8
PLAN_1
  6
CONTINUOUS
 10
2.189697
 20
-4.199504
  0
VERTEX
  8
PLAN_1
  6
CONTINUOUS
 10
2.193925
 20
-4.197917
  0
VERTEX
  8
PLAN_1
  6
CONTINUOUS
 10
2.197626
 20
-4.195803
  0
VERTEX
  8
PLAN_1
  6
CONTINUOUS
 10
2.201327
 20
-4.193689
  0
VERTEX
  8
PLAN_1
  6
CONTINUOUS
 10
2.204500
 20
-4.191047
  0
VERTEX
  8
PLAN_1
  6
CONTINUOUS
 10
2.207146
 20
-4.187874
  0
VERTEX
  8
PLAN_1
  6
CONTINUOUS
 10
2.209787
 20
-4.184173
  0
VERTEX
  8
PLAN_1
  6
CONTINUOUS
 10
2.211374
 20
-4.179941
  0
VERTEX
  8
PLAN_1
  6
CONTINUOUS
 10
2.212433
 20
-4.175713
  0
VERTEX
  8
PLAN_1
  6
CONTINUOUS
 10
2.212961
 20
-4.170425
  0
VERTEX
  8
PLAN_1
  6
CONTINUOUS
 10
2.212433
 20
-4.166724
  0
VERTEX
  8
PLAN_1
  6
CONTINUOUS
 10
2.212433
 20
-4.163020
  0
VERTEX
  8
PLAN_1
  6
CONTINUOUS
 10
2.211902
 20
-4.159850
  0
VERTEX
  8
PLAN_1
  6
CONTINUOUS
 10
2.210846
 20
-4.157205
  0
VERTEX
  8
PLAN_1
  6
CONTINUOUS
 10
2.209260
 20
-4.154563
  0
VERTEX
  8
PLAN_1
  6
CONTINUOUS
 10
2.208201
 20
-4.151917
  0
VERTEX
  8
PLAN_1
  6
CONTINUOUS
 10
2.206087
 20
-4.149803
  0
VERTEX
  8
PLAN_1
  6
CONTINUOUS
 10
2.203972
 20
-4.147689
  0
VERTEX
  8
PLAN_1
  6
CONTINUOUS
 10
2.201327
 20
-4.146102
  0
VERTEX
  8
PLAN_1
  6
CONTINUOUS
 10
2.198154
 20
-4.143988
  0
VERTEX
  8
PLAN_1
  6
CONTINUOUS
 10
2.194453
 20
-4.142402
  0
VERTEX
  8
PLAN_1
  6
CONTINUOUS
 10
2.190752
 20
-4.140815
  0
VERTEX
  8
PLAN_1
  6
CONTINUOUS
 10
2.181764
 20
-4.138169
  0
VERTEX
  8
PLAN_1
  6
CONTINUOUS
 10
2.170130
 20
-4.134996
  0
VERTEX
  8
PLAN_1
  6
CONTINUOUS
 10
2.129417
 20
-4.125480
  0
VERTEX
  8
PLAN_1
  6
CONTINUOUS
 10
2.124130
 20
-4.124421
  0
VERTEX
  8
PLAN_1
  6
CONTINUOUS
 10
2.117256
 20
-4.121780
  0
VERTEX
  8
PLAN_1
  6
CONTINUOUS
 10
2.114083
 20
-4.120193
  0
VERTEX
  8
PLAN_1
  6
CONTINUOUS
 10
2.110382
 20
-4.118606
  0
VERTEX
  8
PLAN_1
  6
CONTINUOUS
 10
2.106681
 20
-4.116492
  0
VERTEX
  8
PLAN_1
  6
CONTINUOUS
 10
2.103508
 20
-4.113846
  0
VERTEX
  8
PLAN_1
  6
CONTINUOUS
 10
2.100335
 20
-4.111205
  0
VERTEX
  8
PLAN_1
  6
CONTINUOUS
 10
2.097165
 20
-4.108031
  0
VERTEX
  8
PLAN_1
  6
CONTINUOUS
 10
2.093992
 20
-4.104331
  0
VERTEX
  8
PLAN_1
  6
CONTINUOUS
 10
2.091878
 20
-4.100098
  0
VERTEX
  8
PLAN_1
  6
CONTINUOUS
 10
2.089760
 20
-4.095870
  0
VERTEX
  8
PLAN_1
  6
CONTINUOUS
 10
2.088173
 20
-4.090583
  0
VERTEX
  8
PLAN_1
  6
CONTINUOUS
 10
2.087118
 20
-4.084768
  0
VERTEX
  8
PLAN_1
  6
CONTINUOUS
 10
2.087118
 20
-4.078949
  0
VERTEX
  8
PLAN_1
  6
CONTINUOUS
 10
2.087118
 20
-4.073134
  0
VERTEX
  8
PLAN_1
  6
CONTINUOUS
 10
2.088173
 20
-4.067319
  0
VERTEX
  8
PLAN_1
  6
CONTINUOUS
 10
2.089232
 20
-4.061500
  0
VERTEX
  8
PLAN_1
  6
CONTINUOUS
 10
2.090819
 20
-4.056213
  0
VERTEX
  8
PLAN_1
  6
CONTINUOUS
 10
2.093465
 20
-4.050925
  0
VERTEX
  8
PLAN_1
  6
CONTINUOUS
 10
2.096106
 20
-4.045638
  0
VERTEX
  8
PLAN_1
  6
CONTINUOUS
 10
2.099280
 20
-4.040882
  0
VERTEX
  8
PLAN_1
  6
CONTINUOUS
 10
2.102980
 20
-4.036122
  0
VERTEX
  8
PLAN_1
  6
CONTINUOUS
 10
2.107740
 20
-4.032421
  0
VERTEX
  8
PLAN_1
  6
CONTINUOUS
 10
2.112496
 20
-4.028720
  0
VERTEX
  8
PLAN_1
  6
CONTINUOUS
 10
2.118315
 20
-4.025020
  0
VERTEX
  8
PLAN_1
  6
CONTINUOUS
 10
2.124657
 20
-4.022374
  0
VERTEX
  8
PLAN_1
  6
CONTINUOUS
 10
2.131531
 20
-4.020260
  0
VERTEX
  8
PLAN_1
  6
CONTINUOUS
 10
2.138937
 20
-4.018673
  0
VERTEX
  8
PLAN_1
  6
CONTINUOUS
 10
2.146866
 20
-4.017614
  0
VERTEX
  8
PLAN_1
  6
CONTINUOUS
 10
2.155854
 20
-4.017087
  0
VERTEX
  8
PLAN_1
  6
CONTINUOUS
 10
2.168016
 20
-4.017614
  0
VERTEX
  8
PLAN_1
  6
CONTINUOUS
 10
2.179122
 20
-4.019201
  0
VERTEX
  8
PLAN_1
  6
CONTINUOUS
 10
2.188638
 20
-4.021315
  0
VERTEX
  8
PLAN_1
  6
CONTINUOUS
 10
2.197098
 20
-4.023961
  0
VERTEX
  8
PLAN_1
  6
CONTINUOUS
 10
2.204500
 20
-4.027661
  0
VERTEX
  8
PLAN_1
  6
CONTINUOUS
 10
2.210315
 20
-4.031362
  0
VERTEX
  8
PLAN_1
  6
CONTINUOUS
 10
2.215602
 20
-4.036122
  0
VERTEX
  8
PLAN_1
  6
CONTINUOUS
 10
2.220362
 20
-4.040882
  0
VERTEX
  8
PLAN_1
  6
CONTINUOUS
 10
2.223535
 20
-4.045638
  0
VERTEX
  8
PLAN_1
  6
CONTINUOUS
 10
2.226709
 20
-4.050925
  0
VERTEX
  8
PLAN_1
  6
CONTINUOUS
 10
2.228823
 20
-4.056213
  0
VERTEX
  8
PLAN_1
  6
CONTINUOUS
 10
2.230409
 20
-4.061500
  0
VERTEX
  8
PLAN_1
  6
CONTINUOUS
 10
2.232524
 20
-4.071547
  0
VERTEX
  8
PLAN_1
  6
CONTINUOUS
 10
2.233051
 20
-4.080535
  0
VERTEX
  8
PLAN_1
  6
CONTINUOUS
 10
2.208201
 20
-4.080535
  0
SEQEND
  8
0
  0
POLYLINE
  8
PLAN_1
  6
CONTINUOUS
 66
     1
 40
0.008457
 41
0.008457
  0
VERTEX
  8
PLAN_1
  6
CONTINUOUS
 10
-1.047311
 20
-0.535795
  0
VERTEX
  8
PLAN_1
  6
CONTINUOUS
 10
-1.047311
 20
1.946685
  0
VERTEX
  8
PLAN_1
  6
CONTINUOUS
 10
-2.124906
 20
1.946685
  0
VERTEX
  8
PLAN_1
  6
CONTINUOUS
 10
-2.166146
 20
1.649000
  0
VERTEX
  8
PLAN_1
  6
CONTINUOUS
 10
-2.036602
 20
1.649000
  0
VERTEX
  8
PLAN_1
  6
CONTINUOUS
 10
-2.036602
 20
-0.535795
  0
VERTEX
  8
PLAN_1
  6
CONTINUOUS
 10
-1.047311
 20
-0.535795
  0
SEQEND
  8
0
  0
POLYLINE
  8
PLAN_1
  6
CONTINUOUS
 66
     1
 40
0.008457
 41
0.008457
  0
VERTEX
  8
PLAN_1
  6
CONTINUOUS
 10
-2.036602
 20
-0.535795
  0
VERTEX
  8
PLAN_1
  6
CONTINUOUS
 10
-2.036602
 20
1.648469
  0
VERTEX
  8
PLAN_1
  6
CONTINUOUS
 10
-2.166146
 20
1.648469
  0
VERTEX
  8
PLAN_1
  6
CONTINUOUS
 10
-2.166146
 20
-0.535795
  0
VERTEX
  8
PLAN_1
  6
CONTINUOUS
 10
-2.036602
 20
-0.535795
  0
SEQEND
  8
0
  0
POLYLINE
  8
PLAN_1
  6
CONTINUOUS
 66
     1
 40
0.008457
 41
0.008457
  0
VERTEX
  8
PLAN_1
  6
CONTINUOUS
 10
-2.033961
 20
1.440142
  0
VERTEX
  8
PLAN_1
  6
CONTINUOUS
 10
-1.295295
 20
1.440142
  0
SEQEND
  8
0
  0
POLYLINE
  8
PLAN_1
  6
CONTINUOUS
 66
     1
 40
0.008457
 41
0.008457
  0
VERTEX
  8
PLAN_1
  6
CONTINUOUS
 10
-1.295295
 20
1.244504
  0
VERTEX
  8
PLAN_1
  6
CONTINUOUS
 10
-1.295295
 20
1.946685
  0
SEQEND
  8
0
  0
POLYLINE
  8
PLAN_1
  6
CONTINUOUS
 66
     1
 40
0.008457
 41
0.008457
  0
VERTEX
  8
PLAN_1
  6
CONTINUOUS
 10
-2.166146
 20
1.145098
  0
VERTEX
  8
PLAN_1
  6
CONTINUOUS
 10
-2.166146
 20
1.330161
  0
VERTEX
  8
PLAN_1
  6
CONTINUOUS
 10
-2.232772
 20
1.330161
  0
VERTEX
  8
PLAN_1
  6
CONTINUOUS
 10
-2.232772
 20
1.145098
  0
VERTEX
  8
PLAN_1
  6
CONTINUOUS
 10
-2.166146
 20
1.145098
  0
SEQEND
  8
0
  0
POLYLINE
  8
PLAN_1
  6
CONTINUOUS
 66
     1
 40
0.008457
 41
0.008457
  0
VERTEX
  8
PLAN_1
  6
CONTINUOUS
 10
-1.150417
 20
-1.035465
  0
VERTEX
  8
PLAN_1
  6
CONTINUOUS
 10
-1.150417
 20
-0.950866
  0
VERTEX
  8
PLAN_1
  6
CONTINUOUS
 10
-1.947244
 20
-0.950866
  0
VERTEX
  8
PLAN_1
  6
CONTINUOUS
 10
-1.947244
 20
-1.035465
  0
VERTEX
  8
PLAN_1
  6
CONTINUOUS
 10
-1.150417
 20
-1.035465
  0
SEQEND
  8
0
  0
POLYLINE
  8
PLAN_1
  6
CONTINUOUS
 66
     1
 40
0.008457
 41
0.008457
  0
VERTEX
  8
PLAN_1
  6
CONTINUOUS
 10
-1.048370
 20
-0.950866
  0
VERTEX
  8
PLAN_1
  6
CONTINUOUS
 10
-1.048370
 20
-0.535795
  0
VERTEX
  8
PLAN_1
  6
CONTINUOUS
 10
-2.036602
 20
-0.535795
  0
VERTEX
  8
PLAN_1
  6
CONTINUOUS
 10
-2.036602
 20
-0.950866
  0
VERTEX
  8
PLAN_1
  6
CONTINUOUS
 10
-1.048370
 20
-0.950866
  0
SEQEND
  8
0
  0
POLYLINE
  8
PLAN_1
  6
CONTINUOUS
 66
     1
 40
0.008457
 41
0.008457
  0
VERTEX
  8
PLAN_1
  6
CONTINUOUS
 10
-1.103358
 20
-1.208894
  0
VERTEX
  8
PLAN_1
  6
CONTINUOUS
 10
-1.103358
 20
-1.035465
  0
VERTEX
  8
PLAN_1
  6
CONTINUOUS
 10
-1.981614
 20
-1.035465
  0
VERTEX
  8
PLAN_1
  6
CONTINUOUS
 10
-1.981614
 20
-1.208894
  0
VERTEX
  8
PLAN_1
  6
CONTINUOUS
 10
-1.103358
 20
-1.208894
  0
SEQEND
  8
0
  0
POLYLINE
  8
PLAN_1
  6
CONTINUOUS
 66
     1
 40
0.008457
 41
0.008457
  0
VERTEX
  8
PLAN_1
  6
CONTINUOUS
 10
-1.984256
 20
-1.129055
  0
VERTEX
  8
PLAN_1
  6
CONTINUOUS
 10
-1.973154
 20
-1.138043
  0
VERTEX
  8
PLAN_1
  6
CONTINUOUS
 10
-1.960992
 20
-1.146504
  0
VERTEX
  8
PLAN_1
  6
CONTINUOUS
 10
-1.948831
 20
-1.154433
  0
VERTEX
  8
PLAN_1
  6
CONTINUOUS
 10
-1.936669
 20
-1.161835
  0
VERTEX
  8
PLAN_1
  6
CONTINUOUS
 10
-1.923980
 20
-1.168709
  0
VERTEX
  8
PLAN_1
  6
CONTINUOUS
 10
-1.910760
 20
-1.175055
  0
VERTEX
  8
PLAN_1
  6
CONTINUOUS
 10
-1.897543
 20
-1.180870
  0
VERTEX
  8
PLAN_1
  6
CONTINUOUS
 10
-1.883795
 20
-1.186157
  0
VERTEX
  8
PLAN_1
  6
CONTINUOUS
 10
-1.869520
 20
-1.190917
  0
VERTEX
  8
PLAN_1
  6
CONTINUOUS
 10
-1.855244
 20
-1.195150
  0
VERTEX
  8
PLAN_1
  6
CONTINUOUS
 10
-1.840965
 20
-1.198850
  0
VERTEX
  8
PLAN_1
  6
CONTINUOUS
 10
-1.826161
 20
-1.201492
  0
VERTEX
  8
PLAN_1
  6
CONTINUOUS
 10
-1.811354
 20
-1.204138
  0
VERTEX
  8
PLAN_1
  6
CONTINUOUS
 10
-1.796024
 20
-1.205724
  0
VERTEX
  8
PLAN_1
  6
CONTINUOUS
 10
-1.780689
 20
-1.206780
  0
VERTEX
  8
PLAN_1
  6
CONTINUOUS
 10
-1.765354
 20
-1.206780
  0
VERTEX
  8
PLAN_1
  6
CONTINUOUS
 10
-1.750020
 20
-1.206780
  0
VERTEX
  8
PLAN_1
  6
CONTINUOUS
 10
-1.734689
 20
-1.205724
  0
VERTEX
  8
PLAN_1
  6
CONTINUOUS
 10
-1.720409
 20
-1.204665
  0
VERTEX
  8
PLAN_1
  6
CONTINUOUS
 10
-1.706134
 20
-1.202551
  0
VERTEX
  8
PLAN_1
  6
CONTINUOUS
 10
-1.692386
 20
-1.199906
  0
VERTEX
  8
PLAN_1
  6
CONTINUOUS
 10
-1.679169
 20
-1.196732
  0
VERTEX
  8
PLAN_1
  6
CONTINUOUS
 10
-1.665949
 20
-1.193031
  0
VERTEX
  8
PLAN_1
  6
CONTINUOUS
 10
-1.652732
 20
-1.188803
  0
VERTEX
  8
PLAN_1
  6
CONTINUOUS
 10
-1.640039
 20
-1.184043
  0
VERTEX
  8
PLAN_1
  6
CONTINUOUS
 10
-1.627350
 20
-1.178228
  0
VERTEX
  8
PLAN_1
  6
CONTINUOUS
 10
-1.614134
 20
-1.171882
  0
VERTEX
  8
PLAN_1
  6
CONTINUOUS
 10
-1.600913
 20
-1.164480
  0
VERTEX
  8
PLAN_1
  6
CONTINUOUS
 10
-1.587697
 20
-1.156547
  0
VERTEX
  8
PLAN_1
  6
CONTINUOUS
 10
-1.573949
 20
-1.148091
  0
VERTEX
  8
PLAN_1
  6
CONTINUOUS
 10
-1.560201
 20
-1.139098
  0
VERTEX
  8
PLAN_1
  6
CONTINUOUS
 10
-1.545925
 20
-1.129055
  0
VERTEX
  8
PLAN_1
  6
CONTINUOUS
 10
-1.535350
 20
-1.136984
  0
VERTEX
  8
PLAN_1
  6
CONTINUOUS
 10
-1.524776
 20
-1.144917
  0
VERTEX
  8
PLAN_1
  6
CONTINUOUS
 10
-1.513142
 20
-1.152319
  0
VERTEX
  8
PLAN_1
  6
CONTINUOUS
 10
-1.500980
 20
-1.159720
  0
VERTEX
  8
PLAN_1
  6
CONTINUOUS
 10
-1.488291
 20
-1.166067
  0
VERTEX
  8
PLAN_1
  6
CONTINUOUS
 10
-1.475071
 20
-1.172941
  0
VERTEX
  8
PLAN_1
  6
CONTINUOUS
 10
-1.461323
 20
-1.178756
  0
VERTEX
  8
PLAN_1
  6
CONTINUOUS
 10
-1.447575
 20
-1.184043
  0
VERTEX
  8
PLAN_1
  6
CONTINUOUS
 10
-1.433299
 20
-1.189331
  0
VERTEX
  8
PLAN_1
  6
CONTINUOUS
 10
-1.418496
 20
-1.193563
  0
VERTEX
  8
PLAN_1
  6
CONTINUOUS
 10
-1.403689
 20
-1.197791
  0
VERTEX
  8
PLAN_1
  6
CONTINUOUS
 10
-1.388886
 20
-1.200965
  0
VERTEX
  8
PLAN_1
  6
CONTINUOUS
 10
-1.373551
 20
-1.203606
  0
VERTEX
  8
PLAN_1
  6
CONTINUOUS
 10
-1.357689
 20
-1.205193
  0
VERTEX
  8
PLAN_1
  6
CONTINUOUS
 10
-1.342354
 20
-1.206780
  0
VERTEX
  8
PLAN_1
  6
CONTINUOUS
 10
-1.327020
 20
-1.206780
  0
VERTEX
  8
PLAN_1
  6
CONTINUOUS
 10
-1.311157
 20
-1.206780
  0
VERTEX
  8
PLAN_1
  6
CONTINUOUS
 10
-1.295295
 20
-1.205724
  0
VERTEX
  8
PLAN_1
  6
CONTINUOUS
 10
-1.279961
 20
-1.204138
  0
VERTEX
  8
PLAN_1
  6
CONTINUOUS
 10
-1.265157
 20
-1.201492
  0
VERTEX
  8
PLAN_1
  6
CONTINUOUS
 10
-1.249823
 20
-1.198319
  0
VERTEX
  8
PLAN_1
  6
CONTINUOUS
 10
-1.235547
 20
-1.194618
  0
VERTEX
  8
PLAN_1
  6
CONTINUOUS
 10
-1.220744
 20
-1.190390
  0
VERTEX
  8
PLAN_1
  6
CONTINUOUS
 10
-1.206465
 20
-1.185630
  0
VERTEX
  8
PLAN_1
  6
CONTINUOUS
 10
-1.192720
 20
-1.180343
  0
VERTEX
  8
PLAN_1
  6
CONTINUOUS
 10
-1.178972
 20
-1.173996
  0
VERTEX
  8
PLAN_1
  6
CONTINUOUS
 10
-1.165752
 20
-1.167654
  0
VERTEX
  8
PLAN_1
  6
CONTINUOUS
 10
-1.153063
 20
-1.160252
  0
VERTEX
  8
PLAN_1
  6
CONTINUOUS
 10
-1.140374
 20
-1.152319
  0
VERTEX
  8
PLAN_1
  6
CONTINUOUS
 10
-1.128213
 20
-1.144386
  0
VERTEX
  8
PLAN_1
  6
CONTINUOUS
 10
-1.116051
 20
-1.135398
  0
VERTEX
  8
PLAN_1
  6
CONTINUOUS
 10
-1.104945
 20
-1.126409
  0
SEQEND
  8
0
  0
POLYLINE
  8
PLAN_1
  6
CONTINUOUS
 66
     1
 40
0.008457
 41
0.008457
  0
VERTEX
  8
PLAN_1
  6
CONTINUOUS
 10
-1.545925
 20
-1.035465
  0
VERTEX
  8
PLAN_1
  6
CONTINUOUS
 10
-1.545925
 20
-1.129583
  0
SEQEND
  8
0
  0
POLYLINE
  8
PLAN_1
  6
CONTINUOUS
 66
     1
 40
0.008457
 41
0.008457
  0
VERTEX
  8
PLAN_1
  6
CONTINUOUS
 10
-2.166146
 20
-0.501957
  0
VERTEX
  8
PLAN_1
  6
CONTINUOUS
 10
-2.166146
 20
-0.316894
  0
VERTEX
  8
PLAN_1
  6
CONTINUOUS
 10
-2.232772
 20
-0.316894
  0
VERTEX
  8
PLAN_1
  6
CONTINUOUS
 10
-2.232772
 20
-0.501957
  0
VERTEX
  8
PLAN_1
  6
CONTINUOUS
 10
-2.166146
 20
-0.501957
  0
SEQEND
  8
0
  0
POLYLINE
  8
PLAN_1
  6
CONTINUOUS
 66
     1
 40
0.008457
 41
0.008457
  0
VERTEX
  8
PLAN_1
  6
CONTINUOUS
 10
-2.097409
 20
1.647941
  0
VERTEX
  8
PLAN_1
  6
CONTINUOUS
 10
-2.097409
 20
-0.534740
  0
SEQEND
  8
0
  0
POLYLINE
  8
PLAN_1
  6
CONTINUOUS
 66
     1
 40
0.008457
 41
0.008457
  0
VERTEX
  8
PLAN_1
  6
CONTINUOUS
 10
-1.304815
 20
2.588059
  0
VERTEX
  8
PLAN_1
  6
CONTINUOUS
 10
-1.304815
 20
2.892618
  0
VERTEX
  8
PLAN_1
  6
CONTINUOUS
 10
-1.851539
 20
2.892618
  0
VERTEX
  8
PLAN_1
  6
CONTINUOUS
 10
-1.851539
 20
2.588059
  0
VERTEX
  8
PLAN_1
  6
CONTINUOUS
 10
-1.304815
 20
2.588059
  0
SEQEND
  8
0
  0
POLYLINE
  8
PLAN_1
  6
CONTINUOUS
 66
     1
 40
0.008457
 41
0.008457
  0
VERTEX
  8
PLAN_1
  6
CONTINUOUS
 10
-1.440701
 20
3.117866
  0
VERTEX
  8
PLAN_1
  6
CONTINUOUS
 10
-1.186374
 20
3.117866
  0
VERTEX
  8
PLAN_1
  6
CONTINUOUS
 10
-1.186374
 20
2.316811
  0
SEQEND
  8
0
  0
POLYLINE
  8
PLAN_1
  6
CONTINUOUS
 66
     1
 40
0.008457
 41
0.008457
  0
VERTEX
  8
PLAN_1
  6
CONTINUOUS
 10
-1.968925
 20
2.316811
  0
VERTEX
  8
PLAN_1
  6
CONTINUOUS
 10
-1.968925
 20
3.117866
  0
VERTEX
  8
PLAN_1
  6
CONTINUOUS
 10
-1.714594
 20
3.117866
  0
SEQEND
  8
0
  0
POLYLINE
  8
PLAN_1
  6
CONTINUOUS
 66
     1
 40
0.008457
 41
0.008457
  0
VERTEX
  8
PLAN_1
  6
CONTINUOUS
 10
-1.049957
 20
1.946685
  0
VERTEX
  8
PLAN_1
  6
CONTINUOUS
 10
-1.049957
 20
2.257591
  0
VERTEX
  8
PLAN_1
  6
CONTINUOUS
 10
-2.105343
 20
2.257591
  0
VERTEX
  8
PLAN_1
  6
CONTINUOUS
 10
-2.105343
 20
1.946685
  0
VERTEX
  8
PLAN_1
  6
CONTINUOUS
 10
-1.049957
 20
1.946685
  0
SEQEND
  8
0
  0
POLYLINE
  8
PLAN_1
  6
CONTINUOUS
 66
     1
 40
0.008457
 41
0.008457
  0
VERTEX
  8
PLAN_1
  6
CONTINUOUS
 10
-1.976327
 20
2.316280
  0
VERTEX
  8
PLAN_1
  6
CONTINUOUS
 10
-1.889610
 20
2.316280
  0
VERTEX
  8
PLAN_1
  6
CONTINUOUS
 10
-1.889610
 20
2.257591
  0
VERTEX
  8
PLAN_1
  6
CONTINUOUS
 10
-2.104811
 20
2.257591
  0
VERTEX
  8
PLAN_1
  6
CONTINUOUS
 10
-2.104811
 20
2.315752
  0
VERTEX
  8
PLAN_1
  6
CONTINUOUS
 10
-2.017567
 20
2.315752
  0
VERTEX
  8
PLAN_1
  6
CONTINUOUS
 10
-2.017567
 20
2.285614
  0
VERTEX
  8
PLAN_1
  6
CONTINUOUS
 10
-1.976854
 20
2.285614
  0
VERTEX
  8
PLAN_1
  6
CONTINUOUS
 10
-1.976327
 20
2.316280
  0
SEQEND
  8
0
  0
POLYLINE
  8
PLAN_1
  6
CONTINUOUS
 66
     1
 40
0.008457
 41
0.008457
  0
VERTEX
  8
PLAN_1
  6
CONTINUOUS
 10
-1.137201
 20
2.316280
  0
VERTEX
  8
PLAN_1
  6
CONTINUOUS
 10
-1.050484
 20
2.316280
  0
VERTEX
  8
PLAN_1
  6
CONTINUOUS
 10
-1.050484
 20
2.257591
  0
VERTEX
  8
PLAN_1
  6
CONTINUOUS
 10
-1.265685
 20
2.257591
  0
VERTEX
  8
PLAN_1
  6
CONTINUOUS
 10
-1.265685
 20
2.316280
  0
VERTEX
  8
PLAN_1
  6
CONTINUOUS
 10
-1.178441
 20
2.316280
  0
VERTEX
  8
PLAN_1
  6
CONTINUOUS
 10
-1.178441
 20
2.285614
  0
VERTEX
  8
PLAN_1
  6
CONTINUOUS
 10
-1.137728
 20
2.285614
  0
VERTEX
  8
PLAN_1
  6
CONTINUOUS
 10
-1.137201
 20
2.316280
  0
SEQEND
  8
0
  0
POLYLINE
  8
PLAN_1
  6
CONTINUOUS
 66
     1
 40
0.008457
 41
0.008457
  0
VERTEX
  8
PLAN_1
  6
CONTINUOUS
 10
-2.066213
 20
1.946685
  0
VERTEX
  8
PLAN_1
  6
CONTINUOUS
 10
-2.065685
 20
2.023354
  0
VERTEX
  8
PLAN_1
  6
CONTINUOUS
 10
-2.104811
 20
2.023354
  0
SEQEND
  8
0
  0
POLYLINE
  8
PLAN_1
  6
CONTINUOUS
 66
     1
 40
0.008457
 41
0.008457
  0
VERTEX
  8
PLAN_1
  6
CONTINUOUS
 10
-1.090669
 20
1.946685
  0
VERTEX
  8
PLAN_1
  6
CONTINUOUS
 10
-1.090669
 20
2.023354
  0
VERTEX
  8
PLAN_1
  6
CONTINUOUS
 10
-1.051543
 20
2.023354
  0
SEQEND
  8
0
  0
POLYLINE
  8
PLAN_1
  6
CONTINUOUS
 66
     1
 40
0.008457
 41
0.008457
  0
VERTEX
  8
PLAN_1
  6
CONTINUOUS
 10
-1.228673
 20
3.293941
  0
VERTEX
  8
PLAN_1
  6
CONTINUOUS
 10
-1.228673
 20
3.567303
  0
VERTEX
  8
PLAN_1
  6
CONTINUOUS
 10
-1.265157
 20
3.567303
  0
VERTEX
  8
PLAN_1
  6
CONTINUOUS
 10
-1.265157
 20
3.293941
  0
VERTEX
  8
PLAN_1
  6
CONTINUOUS
 10
-1.228673
 20
3.293941
  0
SEQEND
  8
0
  0
POLYLINE
  8
PLAN_1
  6
CONTINUOUS
 66
     1
 40
0.008457
 41
0.008457
  0
VERTEX
  8
PLAN_1
  6
CONTINUOUS
 10
-1.304815
 20
3.220445
  0
VERTEX
  8
PLAN_1
  6
CONTINUOUS
 10
-1.304815
 20
2.590173
  0
SEQEND
  8
0
  0
POLYLINE
  8
PLAN_1
  6
CONTINUOUS
 66
     1
 40
0.008457
 41
0.008457
  0
VERTEX
  8
PLAN_1
  6
CONTINUOUS
 10
-1.851012
 20
2.590173
  0
VERTEX
  8
PLAN_1
  6
CONTINUOUS
 10
-1.851012
 20
3.220445
  0
SEQEND
  8
0
  0
POLYLINE
  8
PLAN_1
  6
CONTINUOUS
 66
     1
 40
0.008457
 41
0.008457
  0
VERTEX
  8
PLAN_1
  6
CONTINUOUS
 10
-1.382012
 20
2.590173
  0
VERTEX
  8
PLAN_1
  6
CONTINUOUS
 10
-1.382012
 20
2.824409
  0
SEQEND
  8
0
  0
POLYLINE
  8
PLAN_1
  6
CONTINUOUS
 66
     1
 40
0.008457
 41
0.008457
  0
VERTEX
  8
PLAN_1
  6
CONTINUOUS
 10
-1.382012
 20
2.824409
  0
VERTEX
  8
PLAN_1
  6
CONTINUOUS
 10
-1.391000
 20
2.832343
  0
VERTEX
  8
PLAN_1
  6
CONTINUOUS
 10
-1.400516
 20
2.839217
  0
VERTEX
  8
PLAN_1
  6
CONTINUOUS
 10
-1.410563
 20
2.846091
  0
VERTEX
  8
PLAN_1
  6
CONTINUOUS
 10
-1.421138
 20
2.852433
  0
VERTEX
  8
PLAN_1
  6
CONTINUOUS
 10
-1.432244
 20
2.858248
  0
VERTEX
  8
PLAN_1
  6
CONTINUOUS
 10
-1.443874
 20
2.864067
  0
VERTEX
  8
PLAN_1
  6
CONTINUOUS
 10
-1.455508
 20
2.868827
  0
VERTEX
  8
PLAN_1
  6
CONTINUOUS
 10
-1.467669
 20
2.873583
  0
VERTEX
  8
PLAN_1
  6
CONTINUOUS
 10
-1.480358
 20
2.877815
  0
VERTEX
  8
PLAN_1
  6
CONTINUOUS
 10
-1.493579
 20
2.881516
  0
VERTEX
  8
PLAN_1
  6
CONTINUOUS
 10
-1.506795
 20
2.884689
  0
VERTEX
  8
PLAN_1
  6
CONTINUOUS
 10
-1.520543
 20
2.887331
  0
VERTEX
  8
PLAN_1
  6
CONTINUOUS
 10
-1.534291
 20
2.889445
  0
VERTEX
  8
PLAN_1
  6
CONTINUOUS
 10
-1.548567
 20
2.890504
  0
VERTEX
  8
PLAN_1
  6
CONTINUOUS
 10
-1.562843
 20
2.891563
  0
VERTEX
  8
PLAN_1
  6
CONTINUOUS
 10
-1.577650
 20
2.892091
  0
VERTEX
  8
PLAN_1
  6
CONTINUOUS
 10
-1.592453
 20
2.891563
  0
VERTEX
  8
PLAN_1
  6
CONTINUOUS
 10
-1.606728
 20
2.890504
  0
VERTEX
  8
PLAN_1
  6
CONTINUOUS
 10
-1.621008
 20
2.889445
  0
VERTEX
  8
PLAN_1
  6
CONTINUOUS
 10
-1.634752
 20
2.887331
  0
VERTEX
  8
PLAN_1
  6
CONTINUOUS
 10
-1.648500
 20
2.884689
  0
VERTEX
  8
PLAN_1
  6
CONTINUOUS
 10
-1.661720
 20
2.881516
  0
VERTEX
  8
PLAN_1
  6
CONTINUOUS
 10
-1.674937
 20
2.877815
  0
VERTEX
  8
PLAN_1
  6
CONTINUOUS
 10
-1.687630
 20
2.873583
  0
VERTEX
  8
PLAN_1
  6
CONTINUOUS
 10
-1.699791
 20
2.868827
  0
VERTEX
  8
PLAN_1
  6
CONTINUOUS
 10
-1.711421
 20
2.864067
  0
VERTEX
  8
PLAN_1
  6
CONTINUOUS
 10
-1.723055
 20
2.858248
  0
VERTEX
  8
PLAN_1
  6
CONTINUOUS
 10
-1.734157
 20
2.852433
  0
VERTEX
  8
PLAN_1
  6
CONTINUOUS
 10
-1.744732
 20
2.846091
  0
VERTEX
  8
PLAN_1
  6
CONTINUOUS
 10
-1.754780
 20
2.839217
  0
VERTEX
  8
PLAN_1
  6
CONTINUOUS
 10
-1.764299
 20
2.831811
  0
VERTEX
  8
PLAN_1
  6
CONTINUOUS
 10
-1.773287
 20
2.824409
  0
SEQEND
  8
0
  0
POLYLINE
  8
PLAN_1
  6
CONTINUOUS
 66
     1
 40
0.008457
 41
0.008457
  0
VERTEX
  8
PLAN_1
  6
CONTINUOUS
 10
-1.773287
 20
2.824409
  0
VERTEX
  8
PLAN_1
  6
CONTINUOUS
 10
-1.772756
 20
2.590173
  0
SEQEND
  8
0
  0
POLYLINE
  8
PLAN_1
  6
CONTINUOUS
 66
     1
 40
0.008457
 41
0.008457
  0
VERTEX
  8
PLAN_1
  6
CONTINUOUS
 10
-1.382012
 20
2.819650
  0
VERTEX
  8
PLAN_1
  6
CONTINUOUS
 10
-1.772756
 20
2.819650
  0
SEQEND
  8
0
  0
POLYLINE
  8
PLAN_1
  6
CONTINUOUS
 66
     1
 40
0.008457
 41
0.008457
  0
VERTEX
  8
PLAN_1
  6
CONTINUOUS
 10
-1.303756
 20
2.974047
  0
VERTEX
  8
PLAN_1
  6
CONTINUOUS
 10
-1.851012
 20
2.974047
  0
SEQEND
  8
0
  0
POLYLINE
  8
PLAN_1
  6
CONTINUOUS
 66
     1
 40
0.008457
 41
0.008457
  0
VERTEX
  8
PLAN_1
  6
CONTINUOUS
 10
-1.304815
 20
2.892091
  0
VERTEX
  8
PLAN_1
  6
CONTINUOUS
 10
-1.851012
 20
2.892091
  0
SEQEND
  8
0
  0
POLYLINE
  8
PLAN_1
  6
CONTINUOUS
 66
     1
 40
0.008457
 41
0.008457
  0
VERTEX
  8
PLAN_1
  6
CONTINUOUS
 10
-1.186374
 20
2.958185
  0
VERTEX
  8
PLAN_1
  6
CONTINUOUS
 10
-1.304283
 20
2.958185
  0
SEQEND
  8
0
  0
POLYLINE
  8
PLAN_1
  6
CONTINUOUS
 66
     1
 40
0.008457
 41
0.008457
  0
VERTEX
  8
PLAN_1
  6
CONTINUOUS
 10
-1.850484
 20
2.958185
  0
VERTEX
  8
PLAN_1
  6
CONTINUOUS
 10
-1.968925
 20
2.958185
  0
SEQEND
  8
0
  0
POLYLINE
  8
PLAN_1
  6
CONTINUOUS
 66
     1
 40
0.008457
 41
0.008457
  0
VERTEX
  8
PLAN_1
  6
CONTINUOUS
 10
-1.186374
 20
2.772063
  0
VERTEX
  8
PLAN_1
  6
CONTINUOUS
 10
-1.304283
 20
2.772063
  0
SEQEND
  8
0
  0
POLYLINE
  8
PLAN_1
  6
CONTINUOUS
 66
     1
 40
0.008457
 41
0.008457
  0
VERTEX
  8
PLAN_1
  6
CONTINUOUS
 10
-1.850484
 20
2.772063
  0
VERTEX
  8
PLAN_1
  6
CONTINUOUS
 10
-1.968925
 20
2.772063
  0
SEQEND
  8
0
  0
POLYLINE
  8
PLAN_1
  6
CONTINUOUS
 66
     1
 40
0.008457
 41
0.008457
  0
VERTEX
  8
PLAN_1
  6
CONTINUOUS
 10
-1.440701
 20
3.039610
  0
VERTEX
  8
PLAN_1
  6
CONTINUOUS
 10
-1.440701
 20
3.821634
  0
VERTEX
  8
PLAN_1
  6
CONTINUOUS
 10
-1.714594
 20
3.821634
  0
VERTEX
  8
PLAN_1
  6
CONTINUOUS
 10
-1.714594
 20
3.039610
  0
VERTEX
  8
PLAN_1
  6
CONTINUOUS
 10
-1.440701
 20
3.039610
  0
SEQEND
  8
0
  0
POLYLINE
  8
PLAN_1
  6
CONTINUOUS
 66
     1
 40
0.008457
 41
0.008457
  0
VERTEX
  8
PLAN_1
  6
CONTINUOUS
 10
-1.916047
 20
2.564264
  0
VERTEX
  8
PLAN_1
  6
CONTINUOUS
 10
-1.914461
 20
2.569024
  0
VERTEX
  8
PLAN_1
  6
CONTINUOUS
 10
-1.911291
 20
2.573783
  0
VERTEX
  8
PLAN_1
  6
CONTINUOUS
 10
-1.908118
 20
2.577484
  0
VERTEX
  8
PLAN_1
  6
CONTINUOUS
 10
-1.904417
 20
2.581185
  0
VERTEX
  8
PLAN_1
  6
CONTINUOUS
 10
-1.899657
 20
2.583827
  0
VERTEX
  8
PLAN_1
  6
CONTINUOUS
 10
-1.894898
 20
2.585945
  0
VERTEX
  8
PLAN_1
  6
CONTINUOUS
 10
-1.889610
 20
2.587000
  0
VERTEX
  8
PLAN_1
  6
CONTINUOUS
 10
-1.884323
 20
2.587531
  0
SEQEND
  8
0
  0
POLYLINE
  8
PLAN_1
  6
CONTINUOUS
 66
     1
 40
0.008457
 41
0.008457
  0
VERTEX
  8
PLAN_1
  6
CONTINUOUS
 10
-1.884323
 20
2.587531
  0
VERTEX
  8
PLAN_1
  6
CONTINUOUS
 10
-1.269917
 20
2.587531
  0
SEQEND
  8
0
  0
POLYLINE
  8
PLAN_1
  6
CONTINUOUS
 66
     1
 40
0.008457
 41
0.008457
  0
VERTEX
  8
PLAN_1
  6
CONTINUOUS
 10
-1.269917
 20
2.587531
  0
VERTEX
  8
PLAN_1
  6
CONTINUOUS
 10
-1.266744
 20
2.587531
  0
VERTEX
  8
PLAN_1
  6
CONTINUOUS
 10
-1.263043
 20
2.587000
  0
VERTEX
  8
PLAN_1
  6
CONTINUOUS
 10
-1.259870
 20
2.585945
  0
VERTEX
  8
PLAN_1
  6
CONTINUOUS
 10
-1.256697
 20
2.584886
  0
VERTEX
  8
PLAN_1
  6
CONTINUOUS
 10
-1.254055
 20
2.583299
  0
VERTEX
  8
PLAN_1
  6
CONTINUOUS
 10
-1.251409
 20
2.581713
  0
VERTEX
  8
PLAN_1
  6
CONTINUOUS
 10
-1.248768
 20
2.579598
  0
VERTEX
  8
PLAN_1
  6
CONTINUOUS
 10
-1.246122
 20
2.577484
  0
VERTEX
  8
PLAN_1
  6
CONTINUOUS
 10
-1.244008
 20
2.575370
  0
VERTEX
  8
PLAN_1
  6
CONTINUOUS
 10
-1.242421
 20
2.572724
  0
VERTEX
  8
PLAN_1
  6
CONTINUOUS
 10
-1.240307
 20
2.570083
  0
VERTEX
  8
PLAN_1
  6
CONTINUOUS
 10
-1.239248
 20
2.566909
  0
VERTEX
  8
PLAN_1
  6
CONTINUOUS
 10
-1.238193
 20
2.563736
  0
VERTEX
  8
PLAN_1
  6
CONTINUOUS
 10
-1.237134
 20
2.560563
  0
VERTEX
  8
PLAN_1
  6
CONTINUOUS
 10
-1.236606
 20
2.557390
  0
VERTEX
  8
PLAN_1
  6
CONTINUOUS
 10
-1.236606
 20
2.553689
  0
SEQEND
  8
0
  0
POLYLINE
  8
PLAN_1
  6
CONTINUOUS
 66
     1
 40
0.008457
 41
0.008457
  0
VERTEX
  8
PLAN_1
  6
CONTINUOUS
 10
-1.236606
 20
2.553689
  0
VERTEX
  8
PLAN_1
  6
CONTINUOUS
 10
-1.189547
 20
2.353295
  0
VERTEX
  8
PLAN_1
  6
CONTINUOUS
 10
-1.965752
 20
2.353295
  0
VERTEX
  8
PLAN_1
  6
CONTINUOUS
 10
-1.916047
 20
2.564264
  0
SEQEND
  8
0
  0
POLYLINE
  8
PLAN_1
  6
CONTINUOUS
 66
     1
 40
0.008457
 41
0.008457
  0
VERTEX
  8
PLAN_1
  6
CONTINUOUS
 10
-1.714594
 20
3.743378
  0
VERTEX
  8
PLAN_1
  6
CONTINUOUS
 10
-1.890142
 20
3.743378
  0
VERTEX
  8
PLAN_1
  6
CONTINUOUS
 10
-1.890142
 20
3.117866
  0
VERTEX
  8
PLAN_1
  6
CONTINUOUS
 10
-1.714594
 20
3.117866
  0
SEQEND
  8
0
  0
POLYLINE
  8
PLAN_1
  6
CONTINUOUS
 66
     1
 40
0.008457
 41
0.008457
  0
VERTEX
  8
PLAN_1
  6
CONTINUOUS
 10
-1.440701
 20
3.117866
  0
VERTEX
  8
PLAN_1
  6
CONTINUOUS
 10
-1.265157
 20
3.117866
  0
VERTEX
  8
PLAN_1
  6
CONTINUOUS
 10
-1.265157
 20
3.743378
  0
VERTEX
  8
PLAN_1
  6
CONTINUOUS
 10
-1.442287
 20
3.743378
  0
SEQEND
  8
0
  0
POLYLINE
  8
PLAN_1
 62
     2
  6
CONTINUOUS
 66
     1
 40
0.004228
 41
0.004228
  0
VERTEX
  8
PLAN_1
 62
     2
  6
CONTINUOUS
 10
-1.550154
 20
4.136240
  0
VERTEX
  8
PLAN_1
 62
     2
  6
CONTINUOUS
 10
-1.215984
 20
4.136240
  0
SEQEND
  8
0
  0
SOLID
  8
PLAN_1
 62
     2
 10
-1.186374
 20
4.136240
 11
-1.245063
 21
4.152102
 12
-1.186374
 22
4.136240
 13
-1.245063
 23
4.120378
  0
POLYLINE
  8
PLAN_1
 62
     2
  6
CONTINUOUS
 66
     1
 40
0.003000
 41
0.003000
  0
VERTEX
  8
PLAN_1
 62
     2
  6
CONTINUOUS
 10
-1.186374
 20
4.136240
  0
VERTEX
  8
PLAN_1
 62
     2
  6
CONTINUOUS
 10
-1.245063
 20
4.152102
  0
VERTEX
  8
PLAN_1
 62
     2
  6
CONTINUOUS
 10
-1.245063
 20
4.120378
  0
VERTEX
  8
PLAN_1
 62
     2
  6
CONTINUOUS
 10
-1.186374
 20
4.136240
  0
SEQEND
  8
0
  0
SOLID
  8
PLAN_1
 62
     2
 10
-1.579236
 20
4.136240
 11
-1.520543
 21
4.152102
 12
-1.579236
 22
4.136240
 13
-1.520543
 23
4.120378
  0
POLYLINE
  8
PLAN_1
 62
     2
  6
CONTINUOUS
 66
     1
 40
0.003000
 41
0.003000
  0
VERTEX
  8
PLAN_1
 62
     2
  6
CONTINUOUS
 10
-1.579236
 20
4.136240
  0
VERTEX
  8
PLAN_1
 62
     2
  6
CONTINUOUS
 10
-1.520543
 20
4.152102
  0
VERTEX
  8
PLAN_1
 62
     2
  6
CONTINUOUS
 10
-1.520543
 20
4.120378
  0
VERTEX
  8
PLAN_1
 62
     2
  6
CONTINUOUS
 10
-1.579236
 20
4.136240
  0
SEQEND
  8
0
  0
POLYLINE
  8
PLAN_1
 62
     2
  6
CONTINUOUS
 66
     1
 40
0.003000
 41
0.003000
  0
VERTEX
  8
PLAN_1
 62
     2
  6
CONTINUOUS
 10
-1.411622
 20
4.160031
  0
VERTEX
  8
PLAN_1
 62
     2
  6
CONTINUOUS
 10
-1.421138
 20
4.160031
  0
VERTEX
  8
PLAN_1
 62
     2
  6
CONTINUOUS
 10
-1.421138
 20
4.211850
  0
VERTEX
  8
PLAN_1
 62
     2
  6
CONTINUOUS
 10
-1.438587
 20
4.211850
  0
VERTEX
  8
PLAN_1
 62
     2
  6
CONTINUOUS
 10
-1.438587
 20
4.219252
  0
VERTEX
  8
PLAN_1
 62
     2
  6
CONTINUOUS
 10
-1.434358
 20
4.219252
  0
VERTEX
  8
PLAN_1
 62
     2
  6
CONTINUOUS
 10
-1.430657
 20
4.219780
  0
VERTEX
  8
PLAN_1
 62
     2
  6
CONTINUOUS
 10
-1.427484
 20
4.220839
  0
VERTEX
  8
PLAN_1
 62
     2
  6
CONTINUOUS
 10
-1.425370
 20
4.221898
  0
VERTEX
  8
PLAN_1
 62
     2
  6
CONTINUOUS
 10
-1.423252
 20
4.223484
  0
VERTEX
  8
PLAN_1
 62
     2
  6
CONTINUOUS
 10
-1.421138
 20
4.226126
  0
VERTEX
  8
PLAN_1
 62
     2
  6
CONTINUOUS
 10
-1.420083
 20
4.228772
  0
VERTEX
  8
PLAN_1
 62
     2
  6
CONTINUOUS
 10
-1.418496
 20
4.233000
  0
VERTEX
  8
PLAN_1
 62
     2
  6
CONTINUOUS
 10
-1.411622
 20
4.233000
  0
VERTEX
  8
PLAN_1
 62
     2
  6
CONTINUOUS
 10
-1.411622
 20
4.160031
  0
SEQEND
  8
0
  0
POLYLINE
  8
PLAN_1
 62
     2
  6
CONTINUOUS
 66
     1
 40
0.003000
 41
0.003000
  0
VERTEX
  8
PLAN_1
 62
     2
  6
CONTINUOUS
 10
-1.347114
 20
4.177480
  0
VERTEX
  8
PLAN_1
 62
     2
  6
CONTINUOUS
 10
-1.347114
 20
4.160031
  0
VERTEX
  8
PLAN_1
 62
     2
  6
CONTINUOUS
 10
-1.356630
 20
4.160031
  0
VERTEX
  8
PLAN_1
 62
     2
  6
CONTINUOUS
 10
-1.356630
 20
4.177480
  0
VERTEX
  8
PLAN_1
 62
     2
  6
CONTINUOUS
 10
-1.388354
 20
4.177480
  0
VERTEX
  8
PLAN_1
 62
     2
  6
CONTINUOUS
 10
-1.388354
 20
4.186469
  0
VERTEX
  8
PLAN_1
 62
     2
  6
CONTINUOUS
 10
-1.355043
 20
4.233000
  0
VERTEX
  8
PLAN_1
 62
     2
  6
CONTINUOUS
 10
-1.347114
 20
4.233000
  0
VERTEX
  8
PLAN_1
 62
     2
  6
CONTINUOUS
 10
-1.347114
 20
4.185413
  0
VERTEX
  8
PLAN_1
 62
     2
  6
CONTINUOUS
 10
-1.336539
 20
4.185413
  0
VERTEX
  8
PLAN_1
 62
     2
  6
CONTINUOUS
 10
-1.336539
 20
4.177480
  0
VERTEX
  8
PLAN_1
 62
     2
  6
CONTINUOUS
 10
-1.347114
 20
4.177480
  0
SEQEND
  8
0
  0
SOLID
  8
PLAN_1
 62
     2
 10
-1.379898
 20
4.185413
 11
-1.356630
 21
4.185413
 12
-1.379898
 22
4.185413
 13
-1.356630
 23
4.218724
  0
POLYLINE
  8
PLAN_1
 62
     2
  6
CONTINUOUS
 66
     1
 40
0.003000
 41
0.003000
  0
VERTEX
  8
PLAN_1
 62
     2
  6
CONTINUOUS
 10
-1.379898
 20
4.185413
  0
VERTEX
  8
PLAN_1
 62
     2
  6
CONTINUOUS
 10
-1.356630
 20
4.185413
  0
VERTEX
  8
PLAN_1
 62
     2
  6
CONTINUOUS
 10
-1.356630
 20
4.218724
  0
VERTEX
  8
PLAN_1
 62
     2
  6
CONTINUOUS
 10
-1.379898
 20
4.185413
  0
SEQEND
  8
0
  0
POLYLINE
  8
PLAN_1
 62
     2
  6
CONTINUOUS
 66
     1
 40
0.004228
 41
0.004228
  0
VERTEX
  8
PLAN_1
 62
     2
  6
CONTINUOUS
 10
-2.203161
 20
-1.503937
  0
VERTEX
  8
PLAN_1
 62
     2
  6
CONTINUOUS
 10
-1.077980
 20
-1.503937
  0
SEQEND
  8
0
  0
SOLID
  8
PLAN_1
 62
     2
 10
-1.048370
 20
-1.503937
 11
-1.107591
 21
-1.488075
 12
-1.048370
 22
-1.503937
 13
-1.107591
 23
-1.519799
  0
POLYLINE
  8
PLAN_1
 62
     2
  6
CONTINUOUS
 66
     1
 40
0.003000
 41
0.003000
  0
VERTEX
  8
PLAN_1
 62
     2
  6
CONTINUOUS
 10
-1.048370
 20
-1.503937
  0
VERTEX
  8
PLAN_1
 62
     2
  6
CONTINUOUS
 10
-1.107591
 20
-1.488075
  0
VERTEX
  8
PLAN_1
 62
     2
  6
CONTINUOUS
 10
-1.107591
 20
-1.519799
  0
VERTEX
  8
PLAN_1
 62
     2
  6
CONTINUOUS
 10
-1.048370
 20
-1.503937
  0
SEQEND
  8
0
  0
SOLID
  8
PLAN_1
 62
     2
 10
-2.232772
 20
-1.503937
 11
-2.173551
 21
-1.488075
 12
-2.232772
 22
-1.503937
 13
-2.173551
 23
-1.519799
  0
POLYLINE
  8
PLAN_1
 62
     2
  6
CONTINUOUS
 66
     1
 40
0.003000
 41
0.003000
  0
VERTEX
  8
PLAN_1
 62
     2
  6
CONTINUOUS
 10
-2.232772
 20
-1.503937
  0
VERTEX
  8
PLAN_1
 62
     2
  6
CONTINUOUS
 10
-2.173551
 20
-1.488075
  0
VERTEX
  8
PLAN_1
 62
     2
  6
CONTINUOUS
 10
-2.173551
 20
-1.519799
  0
VERTEX
  8
PLAN_1
 62
     2
  6
CONTINUOUS
 10
-2.232772
 20
-1.503937
  0
SEQEND
  8
0
  0
POLYLINE
  8
PLAN_1
 62
     2
  6
CONTINUOUS
 66
     1
 40
0.003000
 41
0.003000
  0
VERTEX
  8
PLAN_1
 62
     2
  6
CONTINUOUS
 10
-1.672295
 20
-1.438902
  0
VERTEX
  8
PLAN_1
 62
     2
  6
CONTINUOUS
 10
-1.671768
 20
-1.438902
  0
VERTEX
  8
PLAN_1
 62
     2
  6
CONTINUOUS
 10
-1.671236
 20
-1.438902
  0
VERTEX
  8
PLAN_1
 62
     2
  6
CONTINUOUS
 10
-1.670709
 20
-1.438902
  0
VERTEX
  8
PLAN_1
 62
     2
  6
CONTINUOUS
 10
-1.669650
 20
-1.438902
  0
VERTEX
  8
PLAN_1
 62
     2
  6
CONTINUOUS
 10
-1.669122
 20
-1.438902
  0
VERTEX
  8
PLAN_1
 62
     2
  6
CONTINUOUS
 10
-1.668594
 20
-1.438902
  0
VERTEX
  8
PLAN_1
 62
     2
  6
CONTINUOUS
 10
-1.668067
 20
-1.438902
  0
VERTEX
  8
PLAN_1
 62
     2
  6
CONTINUOUS
 10
-1.667535
 20
-1.438902
  0
VERTEX
  8
PLAN_1
 62
     2
  6
CONTINUOUS
 10
-1.664894
 20
-1.438902
  0
VERTEX
  8
PLAN_1
 62
     2
  6
CONTINUOUS
 10
-1.662248
 20
-1.438374
  0
VERTEX
  8
PLAN_1
 62
     2
  6
CONTINUOUS
 10
-1.660134
 20
-1.437843
  0
VERTEX
  8
PLAN_1
 62
     2
  6
CONTINUOUS
 10
-1.658020
 20
-1.436256
  0
VERTEX
  8
PLAN_1
 62
     2
  6
CONTINUOUS
 10
-1.655906
 20
-1.434673
  0
VERTEX
  8
PLAN_1
 62
     2
  6
CONTINUOUS
 10
-1.654846
 20
-1.432555
  0
VERTEX
  8
PLAN_1
 62
     2
  6
CONTINUOUS
 10
-1.653787
 20
-1.430441
  0
VERTEX
  8
PLAN_1
 62
     2
  6
CONTINUOUS
 10
-1.653787
 20
-1.427268
  0
VERTEX
  8
PLAN_1
 62
     2
  6
CONTINUOUS
 10
-1.653787
 20
-1.425154
  0
VERTEX
  8
PLAN_1
 62
     2
  6
CONTINUOUS
 10
-1.654319
 20
-1.423567
  0
VERTEX
  8
PLAN_1
 62
     2
  6
CONTINUOUS
 10
-1.654846
 20
-1.421453
  0
VERTEX
  8
PLAN_1
 62
     2
  6
CONTINUOUS
 10
-1.656433
 20
-1.419866
  0
VERTEX
  8
PLAN_1
 62
     2
  6
CONTINUOUS
 10
-1.658020
 20
-1.417752
  0
VERTEX
  8
PLAN_1
 62
     2
  6
CONTINUOUS
 10
-1.660134
 20
-1.416693
  0
VERTEX
  8
PLAN_1
 62
     2
  6
CONTINUOUS
 10
-1.663307
 20
-1.415638
  0
VERTEX
  8
PLAN_1
 62
     2
  6
CONTINUOUS
 10
-1.667008
 20
-1.415638
  0
VERTEX
  8
PLAN_1
 62
     2
  6
CONTINUOUS
 10
-1.671236
 20
-1.416165
  0
VERTEX
  8
PLAN_1
 62
     2
  6
CONTINUOUS
 10
-1.674937
 20
-1.417224
  0
VERTEX
  8
PLAN_1
 62
     2
  6
CONTINUOUS
 10
-1.677055
 20
-1.419339
  0
VERTEX
  8
PLAN_1
 62
     2
  6
CONTINUOUS
 10
-1.679169
 20
-1.421453
  0
VERTEX
  8
PLAN_1
 62
     2
  6
CONTINUOUS
 10
-1.680224
 20
-1.424098
  0
VERTEX
  8
PLAN_1
 62
     2
  6
CONTINUOUS
 10
-1.680756
 20
-1.426740
  0
VERTEX
  8
PLAN_1
 62
     2
  6
CONTINUOUS
 10
-1.681283
 20
-1.428854
  0
VERTEX
  8
PLAN_1
 62
     2
  6
CONTINUOUS
 10
-1.681283
 20
-1.430969
  0
VERTEX
  8
PLAN_1
 62
     2
  6
CONTINUOUS
 10
-1.690272
 20
-1.430969
  0
VERTEX
  8
PLAN_1
 62
     2
  6
CONTINUOUS
 10
-1.690272
 20
-1.427268
  0
VERTEX
  8
PLAN_1
 62
     2
  6
CONTINUOUS
 10
-1.689217
 20
-1.423039
  0
VERTEX
  8
PLAN_1
 62
     2
  6
CONTINUOUS
 10
-1.687630
 20
-1.418807
  0
VERTEX
  8
PLAN_1
 62
     2
  6
CONTINUOUS
 10
-1.685512
 20
-1.415106
  0
VERTEX
  8
PLAN_1
 62
     2
  6
CONTINUOUS
 10
-1.684457
 20
-1.413520
  0
VERTEX
  8
PLAN_1
 62
     2
  6
CONTINUOUS
 10
-1.682343
 20
-1.411937
  0
VERTEX
  8
PLAN_1
 62
     2
  6
CONTINUOUS
 10
-1.680756
 20
-1.410878
  0
VERTEX
  8
PLAN_1
 62
     2
  6
CONTINUOUS
 10
-1.678642
 20
-1.409291
  0
VERTEX
  8
PLAN_1
 62
     2
  6
CONTINUOUS
 10
-1.675996
 20
-1.408764
  0
VERTEX
  8
PLAN_1
 62
     2
  6
CONTINUOUS
 10
-1.673354
 20
-1.407705
  0
VERTEX
  8
PLAN_1
 62
     2
  6
CONTINUOUS
 10
-1.670181
 20
-1.407177
  0
VERTEX
  8
PLAN_1
 62
     2
  6
CONTINUOUS
 10
-1.666480
 20
-1.407177
  0
VERTEX
  8
PLAN_1
 62
     2
  6
CONTINUOUS
 10
-1.661720
 20
-1.407705
  0
VERTEX
  8
PLAN_1
 62
     2
  6
CONTINUOUS
 10
-1.656961
 20
-1.408764
  0
VERTEX
  8
PLAN_1
 62
     2
  6
CONTINUOUS
 10
-1.653260
 20
-1.410350
  0
VERTEX
  8
PLAN_1
 62
     2
  6
CONTINUOUS
 10
-1.650087
 20
-1.412465
  0
VERTEX
  8
PLAN_1
 62
     2
  6
CONTINUOUS
 10
-1.647445
 20
-1.415638
  0
VERTEX
  8
PLAN_1
 62
     2
  6
CONTINUOUS
 10
-1.645858
 20
-1.418807
  0
VERTEX
  8
PLAN_1
 62
     2
  6
CONTINUOUS
 10
-1.644272
 20
-1.422512
  0
VERTEX
  8
PLAN_1
 62
     2
  6
CONTINUOUS
 10
-1.644272
 20
-1.426740
  0
VERTEX
  8
PLAN_1
 62
     2
  6
CONTINUOUS
 10
-1.644272
 20
-1.429913
  0
VERTEX
  8
PLAN_1
 62
     2
  6
CONTINUOUS
 10
-1.644799
 20
-1.432555
  0
VERTEX
  8
PLAN_1
 62
     2
  6
CONTINUOUS
 10
-1.645858
 20
-1.435201
  0
VERTEX
  8
PLAN_1
 62
     2
  6
CONTINUOUS
 10
-1.647445
 20
-1.437315
  0
VERTEX
  8
PLAN_1
 62
     2
  6
CONTINUOUS
 10
-1.648500
 20
-1.438902
  0
VERTEX
  8
PLAN_1
 62
     2
  6
CONTINUOUS
 10
-1.650087
 20
-1.439961
  0
VERTEX
  8
PLAN_1
 62
     2
  6
CONTINUOUS
 10
-1.651673
 20
-1.441016
  0
VERTEX
  8
PLAN_1
 62
     2
  6
CONTINUOUS
 10
-1.653260
 20
-1.441543
  0
VERTEX
  8
PLAN_1
 62
     2
  6
CONTINUOUS
 10
-1.653260
 20
-1.442075
  0
VERTEX
  8
PLAN_1
 62
     2
  6
CONTINUOUS
 10
-1.651146
 20
-1.442602
  0
VERTEX
  8
PLAN_1
 62
     2
  6
CONTINUOUS
 10
-1.648500
 20
-1.444189
  0
VERTEX
  8
PLAN_1
 62
     2
  6
CONTINUOUS
 10
-1.646386
 20
-1.445776
  0
VERTEX
  8
PLAN_1
 62
     2
  6
CONTINUOUS
 10
-1.644799
 20
-1.447362
  0
VERTEX
  8
PLAN_1
 62
     2
  6
CONTINUOUS
 10
-1.643213
 20
-1.450004
  0
VERTEX
  8
PLAN_1
 62
     2
  6
CONTINUOUS
 10
-1.642157
 20
-1.452650
  0
VERTEX
  8
PLAN_1
 62
     2
  6
CONTINUOUS
 10
-1.641626
 20
-1.455291
  0
VERTEX
  8
PLAN_1
 62
     2
  6
CONTINUOUS
 10
-1.641098
 20
-1.458992
  0
VERTEX
  8
PLAN_1
 62
     2
  6
CONTINUOUS
 10
-1.641626
 20
-1.463224
  0
VERTEX
  8
PLAN_1
 62
     2
  6
CONTINUOUS
 10
-1.642685
 20
-1.467453
  0
VERTEX
  8
PLAN_1
 62
     2
  6
CONTINUOUS
 10
-1.644799
 20
-1.471685
  0
VERTEX
  8
PLAN_1
 62
     2
  6
CONTINUOUS
 10
-1.647445
 20
-1.475386
  0
VERTEX
  8
PLAN_1
 62
     2
  6
CONTINUOUS
 10
-1.649031
 20
-1.476441
  0
VERTEX
  8
PLAN_1
 62
     2
  6
CONTINUOUS
 10
-1.651146
 20
-1.478028
  0
VERTEX
  8
PLAN_1
 62
     2
  6
CONTINUOUS
 10
-1.653260
 20
-1.479614
  0
VERTEX
  8
PLAN_1
 62
     2
  6
CONTINUOUS
 10
-1.655906
 20
-1.480146
  0
VERTEX
  8
PLAN_1
 62
     2
  6
CONTINUOUS
 10
-1.658020
 20
-1.481201
  0
VERTEX
  8
PLAN_1
 62
     2
  6
CONTINUOUS
 10
-1.661193
 20
-1.481728
  0
VERTEX
  8
PLAN_1
 62
     2
  6
CONTINUOUS
 10
-1.664362
 20
-1.482260
  0
VERTEX
  8
PLAN_1
 62
     2
  6
CONTINUOUS
 10
-1.667535
 20
-1.482260
  0
VERTEX
  8
PLAN_1
 62
     2
  6
CONTINUOUS
 10
-1.669650
 20
-1.482260
  0
VERTEX
  8
PLAN_1
 62
     2
  6
CONTINUOUS
 10
-1.671768
 20
-1.482260
  0
VERTEX
  8
PLAN_1
 62
     2
  6
CONTINUOUS
 10
-1.673354
 20
-1.481728
  0
VERTEX
  8
PLAN_1
 62
     2
  6
CONTINUOUS
 10
-1.674937
 20
-1.481728
  0
VERTEX
  8
PLAN_1
 62
     2
  6
CONTINUOUS
 10
-1.676524
 20
-1.481201
  0
VERTEX
  8
PLAN_1
 62
     2
  6
CONTINUOUS
 10
-1.678110
 20
-1.480673
  0
VERTEX
  8
PLAN_1
 62
     2
  6
CONTINUOUS
 10
-1.679697
 20
-1.479614
  0
VERTEX
  8
PLAN_1
 62
     2
  6
CONTINUOUS
 10
-1.681283
 20
-1.479087
  0
VERTEX
  8
PLAN_1
 62
     2
  6
CONTINUOUS
 10
-1.683929
 20
-1.477500
  0
VERTEX
  8
PLAN_1
 62
     2
  6
CONTINUOUS
 10
-1.686043
 20
-1.475386
  0
VERTEX
  8
PLAN_1
 62
     2
  6
CONTINUOUS
 10
-1.688157
 20
-1.472740
  0
VERTEX
  8
PLAN_1
 62
     2
  6
CONTINUOUS
 10
-1.689217
 20
-1.470098
  0
VERTEX
  8
PLAN_1
 62
     2
  6
CONTINUOUS
 10
-1.690272
 20
-1.467453
  0
VERTEX
  8
PLAN_1
 62
     2
  6
CONTINUOUS
 10
-1.691331
 20
-1.464280
  0
VERTEX
  8
PLAN_1
 62
     2
  6
CONTINUOUS
 10
-1.691858
 20
-1.461110
  0
VERTEX
  8
PLAN_1
 62
     2
  6
CONTINUOUS
 10
-1.691858
 20
-1.457937
  0
VERTEX
  8
PLAN_1
 62
     2
  6
CONTINUOUS
 10
-1.682343
 20
-1.457937
  0
VERTEX
  8
PLAN_1
 62
     2
  6
CONTINUOUS
 10
-1.682343
 20
-1.460579
  0
VERTEX
  8
PLAN_1
 62
     2
  6
CONTINUOUS
 10
-1.681811
 20
-1.463224
  0
VERTEX
  8
PLAN_1
 62
     2
  6
CONTINUOUS
 10
-1.681283
 20
-1.466398
  0
VERTEX
  8
PLAN_1
 62
     2
  6
CONTINUOUS
 10
-1.679697
 20
-1.468512
  0
VERTEX
  8
PLAN_1
 62
     2
  6
CONTINUOUS
 10
-1.677583
 20
-1.470626
  0
VERTEX
  8
PLAN_1
 62
     2
  6
CONTINUOUS
 10
-1.674937
 20
-1.472740
  0
VERTEX
  8
PLAN_1
 62
     2
  6
CONTINUOUS
 10
-1.671768
 20
-1.473799
  0
VERTEX
  8
PLAN_1
 62
     2
  6
CONTINUOUS
 10
-1.667008
 20
-1.474327
  0
VERTEX
  8
PLAN_1
 62
     2
  6
CONTINUOUS
 10
-1.663835
 20
-1.473799
  0
VERTEX
  8
PLAN_1
 62
     2
  6
CONTINUOUS
 10
-1.660661
 20
-1.473272
  0
VERTEX
  8
PLAN_1
 62
     2
  6
CONTINUOUS
 10
-1.658020
 20
-1.471685
  0
VERTEX
  8
PLAN_1
 62
     2
  6
CONTINUOUS
 10
-1.655374
 20
-1.470098
  0
VERTEX
  8
PLAN_1
 62
     2
  6
CONTINUOUS
 10
-1.653787
 20
-1.467984
  0
VERTEX
  8
PLAN_1
 62
     2
  6
CONTINUOUS
 10
-1.652201
 20
-1.465866
  0
VERTEX
  8
PLAN_1
 62
     2
  6
CONTINUOUS
 10
-1.651146
 20
-1.463224
  0
VERTEX
  8
PLAN_1
 62
     2
  6
CONTINUOUS
 10
-1.651146
 20
-1.460051
  0
VERTEX
  8
PLAN_1
 62
     2
  6
CONTINUOUS
 10
-1.651673
 20
-1.455823
  0
VERTEX
  8
PLAN_1
 62
     2
  6
CONTINUOUS
 10
-1.652732
 20
-1.452650
  0
VERTEX
  8
PLAN_1
 62
     2
  6
CONTINUOUS
 10
-1.654846
 20
-1.450535
  0
VERTEX
  8
PLAN_1
 62
     2
  6
CONTINUOUS
 10
-1.657488
 20
-1.448949
  0
VERTEX
  8
PLAN_1
 62
     2
  6
CONTINUOUS
 10
-1.660134
 20
-1.447362
  0
VERTEX
  8
PLAN_1
 62
     2
  6
CONTINUOUS
 10
-1.662776
 20
-1.446835
  0
VERTEX
  8
PLAN_1
 62
     2
  6
CONTINUOUS
 10
-1.665421
 20
-1.446835
  0
VERTEX
  8
PLAN_1
 62
     2
  6
CONTINUOUS
 10
-1.668067
 20
-1.446835
  0
VERTEX
  8
PLAN_1
 62
     2
  6
CONTINUOUS
 10
-1.668594
 20
-1.446835
  0
VERTEX
  8
PLAN_1
 62
     2
  6
CONTINUOUS
 10
-1.669122
 20
-1.446835
  0
VERTEX
  8
PLAN_1
 62
     2
  6
CONTINUOUS
 10
-1.669650
 20
-1.446835
  0
VERTEX
  8
PLAN_1
 62
     2
  6
CONTINUOUS
 10
-1.670181
 20
-1.446835
  0
VERTEX
  8
PLAN_1
 62
     2
  6
CONTINUOUS
 10
-1.670709
 20
-1.446835
  0
VERTEX
  8
PLAN_1
 62
     2
  6
CONTINUOUS
 10
-1.671236
 20
-1.446835
  0
VERTEX
  8
PLAN_1
 62
     2
  6
CONTINUOUS
 10
-1.671768
 20
-1.446835
  0
VERTEX
  8
PLAN_1
 62
     2
  6
CONTINUOUS
 10
-1.672295
 20
-1.446835
  0
VERTEX
  8
PLAN_1
 62
     2
  6
CONTINUOUS
 10
-1.672295
 20
-1.438902
  0
SEQEND
  8
0
  0
POLYLINE
  8
PLAN_1
 62
     2
  6
CONTINUOUS
 66
     1
 40
0.003000
 41
0.003000
  0
VERTEX
  8
PLAN_1
 62
     2
  6
CONTINUOUS
 10
-1.608846
 20
-1.482260
  0
VERTEX
  8
PLAN_1
 62
     2
  6
CONTINUOUS
 10
-1.612547
 20
-1.482260
  0
VERTEX
  8
PLAN_1
 62
     2
  6
CONTINUOUS
 10
-1.615720
 20
-1.481201
  0
VERTEX
  8
PLAN_1
 62
     2
  6
CONTINUOUS
 10
-1.618890
 20
-1.480146
  0
VERTEX
  8
PLAN_1
 62
     2
  6
CONTINUOUS
 10
-1.621535
 20
-1.478559
  0
VERTEX
  8
PLAN_1
 62
     2
  6
CONTINUOUS
 10
-1.623650
 20
-1.476972
  0
VERTEX
  8
PLAN_1
 62
     2
  6
CONTINUOUS
 10
-1.625764
 20
-1.474327
  0
VERTEX
  8
PLAN_1
 62
     2
  6
CONTINUOUS
 10
-1.627882
 20
-1.472213
  0
VERTEX
  8
PLAN_1
 62
     2
  6
CONTINUOUS
 10
-1.628937
 20
-1.469571
  0
VERTEX
  8
PLAN_1
 62
     2
  6
CONTINUOUS
 10
-1.631583
 20
-1.463224
  0
VERTEX
  8
PLAN_1
 62
     2
  6
CONTINUOUS
 10
-1.632638
 20
-1.456878
  0
VERTEX
  8
PLAN_1
 62
     2
  6
CONTINUOUS
 10
-1.633697
 20
-1.451063
  0
VERTEX
  8
PLAN_1
 62
     2
  6
CONTINUOUS
 10
-1.633697
 20
-1.444717
  0
VERTEX
  8
PLAN_1
 62
     2
  6
CONTINUOUS
 10
-1.633697
 20
-1.438902
  0
VERTEX
  8
PLAN_1
 62
     2
  6
CONTINUOUS
 10
-1.632638
 20
-1.432555
  0
VERTEX
  8
PLAN_1
 62
     2
  6
CONTINUOUS
 10
-1.631583
 20
-1.426213
  0
VERTEX
  8
PLAN_1
 62
     2
  6
CONTINUOUS
 10
-1.628937
 20
-1.420394
  0
VERTEX
  8
PLAN_1
 62
     2
  6
CONTINUOUS
 10
-1.627882
 20
-1.417752
  0
VERTEX
  8
PLAN_1
 62
     2
  6
CONTINUOUS
 10
-1.625764
 20
-1.415106
  0
VERTEX
  8
PLAN_1
 62
     2
  6
CONTINUOUS
 10
-1.623650
 20
-1.412992
  0
VERTEX
  8
PLAN_1
 62
     2
  6
CONTINUOUS
 10
-1.621535
 20
-1.410878
  0
VERTEX
  8
PLAN_1
 62
     2
  6
CONTINUOUS
 10
-1.618890
 20
-1.409291
  0
VERTEX
  8
PLAN_1
 62
     2
  6
CONTINUOUS
 10
-1.615720
 20
-1.408232
  0
VERTEX
  8
PLAN_1
 62
     2
  6
CONTINUOUS
 10
-1.612547
 20
-1.407705
  0
VERTEX
  8
PLAN_1
 62
     2
  6
CONTINUOUS
 10
-1.608846
 20
-1.407177
  0
VERTEX
  8
PLAN_1
 62
     2
  6
CONTINUOUS
 10
-1.605146
 20
-1.407705
  0
VERTEX
  8
PLAN_1
 62
     2
  6
CONTINUOUS
 10
-1.601441
 20
-1.408232
  0
VERTEX
  8
PLAN_1
 62
     2
  6
CONTINUOUS
 10
-1.598799
 20
-1.409291
  0
VERTEX
  8
PLAN_1
 62
     2
  6
CONTINUOUS
 10
-1.596154
 20
-1.410878
  0
VERTEX
  8
PLAN_1
 62
     2
  6
CONTINUOUS
 10
-1.593512
 20
-1.412992
  0
VERTEX
  8
PLAN_1
 62
     2
  6
CONTINUOUS
 10
-1.591398
 20
-1.415106
  0
VERTEX
  8
PLAN_1
 62
     2
  6
CONTINUOUS
 10
-1.589811
 20
-1.417752
  0
VERTEX
  8
PLAN_1
 62
     2
  6
CONTINUOUS
 10
-1.588224
 20
-1.420394
  0
VERTEX
  8
PLAN_1
 62
     2
  6
CONTINUOUS
 10
-1.586110
 20
-1.426213
  0
VERTEX
  8
PLAN_1
 62
     2
  6
CONTINUOUS
 10
-1.584524
 20
-1.432555
  0
VERTEX
  8
PLAN_1
 62
     2
  6
CONTINUOUS
 10
-1.583992
 20
-1.438902
  0
VERTEX
  8
PLAN_1
 62
     2
  6
CONTINUOUS
 10
-1.583465
 20
-1.444717
  0
VERTEX
  8
PLAN_1
 62
     2
  6
CONTINUOUS
 10
-1.583992
 20
-1.451063
  0
VERTEX
  8
PLAN_1
 62
     2
  6
CONTINUOUS
 10
-1.584524
 20
-1.456878
  0
VERTEX
  8
PLAN_1
 62
     2
  6
CONTINUOUS
 10
-1.586110
 20
-1.463224
  0
VERTEX
  8
PLAN_1
 62
     2
  6
CONTINUOUS
 10
-1.588224
 20
-1.469571
  0
VERTEX
  8
PLAN_1
 62
     2
  6
CONTINUOUS
 10
-1.589811
 20
-1.472213
  0
VERTEX
  8
PLAN_1
 62
     2
  6
CONTINUOUS
 10
-1.591398
 20
-1.474327
  0
VERTEX
  8
PLAN_1
 62
     2
  6
CONTINUOUS
 10
-1.593512
 20
-1.476972
  0
VERTEX
  8
PLAN_1
 62
     2
  6
CONTINUOUS
 10
-1.596154
 20
-1.478559
  0
VERTEX
  8
PLAN_1
 62
     2
  6
CONTINUOUS
 10
-1.598799
 20
-1.480146
  0
VERTEX
  8
PLAN_1
 62
     2
  6
CONTINUOUS
 10
-1.601441
 20
-1.481201
  0
VERTEX
  8
PLAN_1
 62
     2
  6
CONTINUOUS
 10
-1.605146
 20
-1.482260
  0
VERTEX
  8
PLAN_1
 62
     2
  6
CONTINUOUS
 10
-1.608846
 20
-1.482260
  0
SEQEND
  8
0
  0
POLYLINE
  8
PLAN_1
 62
     2
  6
CONTINUOUS
 66
     1
 40
0.003000
 41
0.003000
  0
VERTEX
  8
PLAN_1
 62
     2
  6
CONTINUOUS
 10
-1.608846
 20
-1.415638
  0
VERTEX
  8
PLAN_1
 62
     2
  6
CONTINUOUS
 10
-1.610433
 20
-1.415638
  0
VERTEX
  8
PLAN_1
 62
     2
  6
CONTINUOUS
 10
-1.612547
 20
-1.416165
  0
VERTEX
  8
PLAN_1
 62
     2
  6
CONTINUOUS
 10
-1.614134
 20
-1.416693
  0
VERTEX
  8
PLAN_1
 62
     2
  6
CONTINUOUS
 10
-1.615720
 20
-1.417752
  0
VERTEX
  8
PLAN_1
 62
     2
  6
CONTINUOUS
 10
-1.618362
 20
-1.419866
  0
VERTEX
  8
PLAN_1
 62
     2
  6
CONTINUOUS
 10
-1.620476
 20
-1.423039
  0
VERTEX
  8
PLAN_1
 62
     2
  6
CONTINUOUS
 10
-1.622063
 20
-1.427268
  0
VERTEX
  8
PLAN_1
 62
     2
  6
CONTINUOUS
 10
-1.623122
 20
-1.432555
  0
VERTEX
  8
PLAN_1
 62
     2
  6
CONTINUOUS
 10
-1.623650
 20
-1.438374
  0
VERTEX
  8
PLAN_1
 62
     2
  6
CONTINUOUS
 10
-1.624177
 20
-1.444717
  0
VERTEX
  8
PLAN_1
 62
     2
  6
CONTINUOUS
 10
-1.623650
 20
-1.451591
  0
VERTEX
  8
PLAN_1
 62
     2
  6
CONTINUOUS
 10
-1.623122
 20
-1.457409
  0
VERTEX
  8
PLAN_1
 62
     2
  6
CONTINUOUS
 10
-1.622063
 20
-1.462165
  0
VERTEX
  8
PLAN_1
 62
     2
  6
CONTINUOUS
 10
-1.620476
 20
-1.466398
  0
VERTEX
  8
PLAN_1
 62
     2
  6
CONTINUOUS
 10
-1.618362
 20
-1.469571
  0
VERTEX
  8
PLAN_1
 62
     2
  6
CONTINUOUS
 10
-1.615720
 20
-1.472213
  0
VERTEX
  8
PLAN_1
 62
     2
  6
CONTINUOUS
 10
-1.614134
 20
-1.473272
  0
VERTEX
  8
PLAN_1
 62
     2
  6
CONTINUOUS
 10
-1.612547
 20
-1.473799
  0
VERTEX
  8
PLAN_1
 62
     2
  6
CONTINUOUS
 10
-1.610433
 20
-1.473799
  0
VERTEX
  8
PLAN_1
 62
     2
  6
CONTINUOUS
 10
-1.608846
 20
-1.474327
  0
VERTEX
  8
PLAN_1
 62
     2
  6
CONTINUOUS
 10
-1.606728
 20
-1.473799
  0
VERTEX
  8
PLAN_1
 62
     2
  6
CONTINUOUS
 10
-1.605146
 20
-1.473799
  0
VERTEX
  8
PLAN_1
 62
     2
  6
CONTINUOUS
 10
-1.603559
 20
-1.473272
  0
VERTEX
  8
PLAN_1
 62
     2
  6
CONTINUOUS
 10
-1.601972
 20
-1.472213
  0
VERTEX
  8
PLAN_1
 62
     2
  6
CONTINUOUS
 10
-1.599327
 20
-1.469571
  0
VERTEX
  8
PLAN_1
 62
     2
  6
CONTINUOUS
 10
-1.597213
 20
-1.466398
  0
VERTEX
  8
PLAN_1
 62
     2
  6
CONTINUOUS
 10
-1.595626
 20
-1.462165
  0
VERTEX
  8
PLAN_1
 62
     2
  6
CONTINUOUS
 10
-1.594567
 20
-1.457409
  0
VERTEX
  8
PLAN_1
 62
     2
  6
CONTINUOUS
 10
-1.593512
 20
-1.451591
  0
VERTEX
  8
PLAN_1
 62
     2
  6
CONTINUOUS
 10
-1.593512
 20
-1.444717
  0
VERTEX
  8
PLAN_1
 62
     2
  6
CONTINUOUS
 10
-1.593512
 20
-1.438374
  0
VERTEX
  8
PLAN_1
 62
     2
  6
CONTINUOUS
 10
-1.594567
 20
-1.432555
  0
VERTEX
  8
PLAN_1
 62
     2
  6
CONTINUOUS
 10
-1.595626
 20
-1.427268
  0
VERTEX
  8
PLAN_1
 62
     2
  6
CONTINUOUS
 10
-1.597213
 20
-1.423039
  0
VERTEX
  8
PLAN_1
 62
     2
  6
CONTINUOUS
 10
-1.599327
 20
-1.419866
  0
VERTEX
  8
PLAN_1
 62
     2
  6
CONTINUOUS
 10
-1.601972
 20
-1.417752
  0
VERTEX
  8
PLAN_1
 62
     2
  6
CONTINUOUS
 10
-1.603559
 20
-1.416693
  0
VERTEX
  8
PLAN_1
 62
     2
  6
CONTINUOUS
 10
-1.605146
 20
-1.416165
  0
VERTEX
  8
PLAN_1
 62
     2
  6
CONTINUOUS
 10
-1.606728
 20
-1.415638
  0
VERTEX
  8
PLAN_1
 62
     2
  6
CONTINUOUS
 10
-1.608846
 20
-1.415638
  0
SEQEND
  8
0
  0
POLYLINE
  8
PLAN_1
 62
     2
  6
CONTINUOUS
 66
     1
 40
0.004228
 41
0.004228
  0
VERTEX
  8
PLAN_1
 62
     2
  6
CONTINUOUS
 10
-1.048370
 20
-0.974657
  0
VERTEX
  8
PLAN_1
 62
     2
  6
CONTINUOUS
 10
-1.048370
 20
-1.322047
  0
SEQEND
  8
0
  0
POLYLINE
  8
PLAN_1
 62
     2
  6
CONTINUOUS
 66
     1
 40
0.004228
 41
0.004228
  0
VERTEX
  8
PLAN_1
 62
     2
  6
CONTINUOUS
 10
-1.048370
 20
-1.369106
  0
VERTEX
  8
PLAN_1
 62
     2
  6
CONTINUOUS
 10
-1.048370
 20
-1.527732
  0
SEQEND
  8
0
  0
POLYLINE
  8
PLAN_1
 62
     2
  6
CONTINUOUS
 66
     1
 40
0.004228
 41
0.004228
  0
VERTEX
  8
PLAN_1
 62
     2
  6
CONTINUOUS
 10
-2.232772
 20
-0.526280
  0
VERTEX
  8
PLAN_1
 62
     2
  6
CONTINUOUS
 10
-2.232772
 20
-1.527732
  0
SEQEND
  8
0
  0
POLYLINE
  8
PLAN_1
 62
     2
  6
CONTINUOUS
 66
     1
 40
0.004228
 41
0.004228
  0
VERTEX
  8
PLAN_1
 62
     2
  6
CONTINUOUS
 10
-0.891331
 20
-0.921783
  0
VERTEX
  8
PLAN_1
 62
     2
  6
CONTINUOUS
 10
-0.891331
 20
3.795724
  0
SEQEND
  8
0
  0
SOLID
  8
PLAN_1
 62
     2
 10
-0.891331
 20
3.824803
 11
-0.906665
 21
3.766114
 12
-0.891331
 22
3.824803
 13
-0.875469
 23
3.766114
  0
POLYLINE
  8
PLAN_1
 62
     2
  6
CONTINUOUS
 66
     1
 40
0.003000
 41
0.003000
  0
VERTEX
  8
PLAN_1
 62
     2
  6
CONTINUOUS
 10
-0.891331
 20
3.824803
  0
VERTEX
  8
PLAN_1
 62
     2
  6
CONTINUOUS
 10
-0.906665
 20
3.766114
  0
VERTEX
  8
PLAN_1
 62
     2
  6
CONTINUOUS
 10
-0.875469
 20
3.766114
  0
VERTEX
  8
PLAN_1
 62
     2
  6
CONTINUOUS
 10
-0.891331
 20
3.824803
  0
SEQEND
  8
0
  0
SOLID
  8
PLAN_1
 62
     2
 10
-0.891331
 20
-0.951394
 11
-0.906665
 21
-0.892173
 12
-0.891331
 22
-0.951394
 13
-0.875469
 23
-0.892173
  0
POLYLINE
  8
PLAN_1
 62
     2
  6
CONTINUOUS
 66
     1
 40
0.003000
 41
0.003000
  0
VERTEX
  8
PLAN_1
 62
     2
  6
CONTINUOUS
 10
-0.891331
 20
-0.951394
  0
VERTEX
  8
PLAN_1
 62
     2
  6
CONTINUOUS
 10
-0.906665
 20
-0.892173
  0
VERTEX
  8
PLAN_1
 62
     2
  6
CONTINUOUS
 10
-0.875469
 20
-0.892173
  0
VERTEX
  8
PLAN_1
 62
     2
  6
CONTINUOUS
 10
-0.891331
 20
-0.951394
  0
SEQEND
  8
0
  0
POLYLINE
  8
PLAN_1
 62
     2
  6
CONTINUOUS
 66
     1
 40
0.004228
 41
0.004228
  0
VERTEX
  8
PLAN_1
 62
     2
  6
CONTINUOUS
 10
-1.878508
 20
3.978142
  0
VERTEX
  8
PLAN_1
 62
     2
  6
CONTINUOUS
 10
-1.415323
 20
3.978142
  0
SEQEND
  8
0
  0
SOLID
  8
PLAN_1
 62
     2
 10
-1.713539
 20
3.978142
 11
-1.772756
 21
3.994004
 12
-1.713539
 22
3.978142
 13
-1.772756
 23
3.962280
  0
POLYLINE
  8
PLAN_1
 62
     2
  6
CONTINUOUS
 66
     1
 40
0.003000
 41
0.003000
  0
VERTEX
  8
PLAN_1
 62
     2
  6
CONTINUOUS
 10
-1.713539
 20
3.978142
  0
VERTEX
  8
PLAN_1
 62
     2
  6
CONTINUOUS
 10
-1.772756
 20
3.994004
  0
VERTEX
  8
PLAN_1
 62
     2
  6
CONTINUOUS
 10
-1.772756
 20
3.962280
  0
VERTEX
  8
PLAN_1
 62
     2
  6
CONTINUOUS
 10
-1.713539
 20
3.978142
  0
SEQEND
  8
0
  0
SOLID
  8
PLAN_1
 62
     2
 10
-1.440701
 20
3.978142
 11
-1.381484
 21
3.994004
 12
-1.440701
 22
3.978142
 13
-1.381484
 23
3.962280
  0
POLYLINE
  8
PLAN_1
 62
     2
  6
CONTINUOUS
 66
     1
 40
0.003000
 41
0.003000
  0
VERTEX
  8
PLAN_1
 62
     2
  6
CONTINUOUS
 10
-1.440701
 20
3.978142
  0
VERTEX
  8
PLAN_1
 62
     2
  6
CONTINUOUS
 10
-1.381484
 20
3.994004
  0
VERTEX
  8
PLAN_1
 62
     2
  6
CONTINUOUS
 10
-1.381484
 20
3.962280
  0
VERTEX
  8
PLAN_1
 62
     2
  6
CONTINUOUS
 10
-1.440701
 20
3.978142
  0
SEQEND
  8
0
  0
POLYLINE
  8
PLAN_1
 62
     2
  6
CONTINUOUS
 66
     1
 40
0.004228
 41
0.004228
  0
VERTEX
  8
PLAN_1
 62
     2
  6
CONTINUOUS
 10
-0.867539
 20
-0.951394
  0
VERTEX
  8
PLAN_1
 62
     2
  6
CONTINUOUS
 10
-1.025106
 20
-0.951394
  0
SEQEND
  8
0
  0
POLYLINE
  8
PLAN_1
 62
     2
  6
CONTINUOUS
 66
     1
 40
0.004228
 41
0.004228
  0
VERTEX
  8
PLAN_1
 62
     2
  6
CONTINUOUS
 10
-1.159937
 20
3.825335
  0
VERTEX
  8
PLAN_1
 62
     2
  6
CONTINUOUS
 10
-0.867539
 20
3.825335
  0
SEQEND
  8
0
  0
POLYLINE
  8
PLAN_1
 62
     2
  6
CONTINUOUS
 66
     1
 40
0.003000
 41
0.003000
  0
VERTEX
  8
PLAN_1
 62
     2
  6
CONTINUOUS
 10
-0.914594
 20
1.387268
  0
VERTEX
  8
PLAN_1
 62
     2
  6
CONTINUOUS
 10
-0.914594
 20
1.377748
  0
VERTEX
  8
PLAN_1
 62
     2
  6
CONTINUOUS
 10
-0.966413
 20
1.377748
  0
VERTEX
  8
PLAN_1
 62
     2
  6
CONTINUOUS
 10
-0.966413
 20
1.360299
  0
VERTEX
  8
PLAN_1
 62
     2
  6
CONTINUOUS
 10
-0.973815
 20
1.360299
  0
VERTEX
  8
PLAN_1
 62
     2
  6
CONTINUOUS
 10
-0.974346
 20
1.364531
  0
VERTEX
  8
PLAN_1
 62
     2
  6
CONTINUOUS
 10
-0.974874
 20
1.368232
  0
VERTEX
  8
PLAN_1
 62
     2
  6
CONTINUOUS
 10
-0.975402
 20
1.370878
  0
VERTEX
  8
PLAN_1
 62
     2
  6
CONTINUOUS
 10
-0.976988
 20
1.373520
  0
VERTEX
  8
PLAN_1
 62
     2
  6
CONTINUOUS
 10
-0.978575
 20
1.375634
  0
VERTEX
  8
PLAN_1
 62
     2
  6
CONTINUOUS
 10
-0.980689
 20
1.377220
  0
VERTEX
  8
PLAN_1
 62
     2
  6
CONTINUOUS
 10
-0.983862
 20
1.378807
  0
VERTEX
  8
PLAN_1
 62
     2
  6
CONTINUOUS
 10
-0.988091
 20
1.379866
  0
VERTEX
  8
PLAN_1
 62
     2
  6
CONTINUOUS
 10
-0.988091
 20
1.387268
  0
VERTEX
  8
PLAN_1
 62
     2
  6
CONTINUOUS
 10
-0.914594
 20
1.387268
  0
SEQEND
  8
0
  0
POLYLINE
  8
PLAN_1
 62
     2
  6
CONTINUOUS
 66
     1
 40
0.003000
 41
0.003000
  0
VERTEX
  8
PLAN_1
 62
     2
  6
CONTINUOUS
 10
-0.961654
 20
1.412646
  0
VERTEX
  8
PLAN_1
 62
     2
  6
CONTINUOUS
 10
-0.965886
 20
1.412646
  0
VERTEX
  8
PLAN_1
 62
     2
  6
CONTINUOUS
 10
-0.969587
 20
1.413177
  0
VERTEX
  8
PLAN_1
 62
     2
  6
CONTINUOUS
 10
-0.972760
 20
1.414232
  0
VERTEX
  8
PLAN_1
 62
     2
  6
CONTINUOUS
 10
-0.975933
 20
1.415291
  0
VERTEX
  8
PLAN_1
 62
     2
  6
CONTINUOUS
 10
-0.978047
 20
1.416878
  0
VERTEX
  8
PLAN_1
 62
     2
  6
CONTINUOUS
 10
-0.980689
 20
1.418465
  0
VERTEX
  8
PLAN_1
 62
     2
  6
CONTINUOUS
 10
-0.982276
 20
1.420051
  0
VERTEX
  8
PLAN_1
 62
     2
  6
CONTINUOUS
 10
-0.983862
 20
1.422165
  0
VERTEX
  8
PLAN_1
 62
     2
  6
CONTINUOUS
 10
-0.985976
 20
1.426394
  0
VERTEX
  8
PLAN_1
 62
     2
  6
CONTINUOUS
 10
-0.987035
 20
1.430626
  0
VERTEX
  8
PLAN_1
 62
     2
  6
CONTINUOUS
 10
-0.987563
 20
1.434327
  0
VERTEX
  8
PLAN_1
 62
     2
  6
CONTINUOUS
 10
-0.988091
 20
1.437500
  0
VERTEX
  8
PLAN_1
 62
     2
  6
CONTINUOUS
 10
-0.987563
 20
1.442256
  0
VERTEX
  8
PLAN_1
 62
     2
  6
CONTINUOUS
 10
-0.986508
 20
1.446488
  0
VERTEX
  8
PLAN_1
 62
     2
  6
CONTINUOUS
 10
-0.984390
 20
1.450717
  0
VERTEX
  8
PLAN_1
 62
     2
  6
CONTINUOUS
 10
-0.982276
 20
1.453890
  0
VERTEX
  8
PLAN_1
 62
     2
  6
CONTINUOUS
 10
-0.979102
 20
1.456535
  0
VERTEX
  8
PLAN_1
 62
     2
  6
CONTINUOUS
 10
-0.975402
 20
1.458650
  0
VERTEX
  8
PLAN_1
 62
     2
  6
CONTINUOUS
 10
-0.970642
 20
1.460236
  0
VERTEX
  8
PLAN_1
 62
     2
  6
CONTINUOUS
 10
-0.965886
 20
1.460764
  0
VERTEX
  8
PLAN_1
 62
     2
  6
CONTINUOUS
 10
-0.961654
 20
1.460236
  0
VERTEX
  8
PLAN_1
 62
     2
  6
CONTINUOUS
 10
-0.957425
 20
1.459177
  0
VERTEX
  8
PLAN_1
 62
     2
  6
CONTINUOUS
 10
-0.954252
 20
1.457063
  0
VERTEX
  8
PLAN_1
 62
     2
  6
CONTINUOUS
 10
-0.951079
 20
1.454949
  0
VERTEX
  8
PLAN_1
 62
     2
  6
CONTINUOUS
 10
-0.948437
 20
1.451776
  0
VERTEX
  8
PLAN_1
 62
     2
  6
CONTINUOUS
 10
-0.945791
 20
1.448602
  0
VERTEX
  8
PLAN_1
 62
     2
  6
CONTINUOUS
 10
-0.943677
 20
1.444902
  0
VERTEX
  8
PLAN_1
 62
     2
  6
CONTINUOUS
 10
-0.941563
 20
1.441201
  0
VERTEX
  8
PLAN_1
 62
     2
  6
CONTINUOUS
 10
-0.937331
 20
1.433268
  0
VERTEX
  8
PLAN_1
 62
     2
  6
CONTINUOUS
 10
-0.935217
 20
1.430094
  0
VERTEX
  8
PLAN_1
 62
     2
  6
CONTINUOUS
 10
-0.933102
 20
1.427453
  0
VERTEX
  8
PLAN_1
 62
     2
  6
CONTINUOUS
 10
-0.931516
 20
1.425339
  0
VERTEX
  8
PLAN_1
 62
     2
  6
CONTINUOUS
 10
-0.929402
 20
1.423752
  0
VERTEX
  8
PLAN_1
 62
     2
  6
CONTINUOUS
 10
-0.927815
 20
1.422165
  0
VERTEX
  8
PLAN_1
 62
     2
  6
CONTINUOUS
 10
-0.926228
 20
1.421638
  0
VERTEX
  8
PLAN_1
 62
     2
  6
CONTINUOUS
 10
-0.924642
 20
1.421106
  0
VERTEX
  8
PLAN_1
 62
     2
  6
CONTINUOUS
 10
-0.923587
 20
1.421106
  0
VERTEX
  8
PLAN_1
 62
     2
  6
CONTINUOUS
 10
-0.923587
 20
1.460764
  0
VERTEX
  8
PLAN_1
 62
     2
  6
CONTINUOUS
 10
-0.914594
 20
1.460764
  0
VERTEX
  8
PLAN_1
 62
     2
  6
CONTINUOUS
 10
-0.914594
 20
1.410531
  0
VERTEX
  8
PLAN_1
 62
     2
  6
CONTINUOUS
 10
-0.919882
 20
1.411063
  0
VERTEX
  8
PLAN_1
 62
     2
  6
CONTINUOUS
 10
-0.924642
 20
1.412118
  0
VERTEX
  8
PLAN_1
 62
     2
  6
CONTINUOUS
 10
-0.928874
 20
1.413705
  0
VERTEX
  8
PLAN_1
 62
     2
  6
CONTINUOUS
 10
-0.932575
 20
1.415819
  0
VERTEX
  8
PLAN_1
 62
     2
  6
CONTINUOUS
 10
-0.936276
 20
1.417933
  0
VERTEX
  8
PLAN_1
 62
     2
  6
CONTINUOUS
 10
-0.938917
 20
1.421106
  0
VERTEX
  8
PLAN_1
 62
     2
  6
CONTINUOUS
 10
-0.941563
 20
1.424280
  0
VERTEX
  8
PLAN_1
 62
     2
  6
CONTINUOUS
 10
-0.943677
 20
1.427980
  0
VERTEX
  8
PLAN_1
 62
     2
  6
CONTINUOUS
 10
-0.949492
 20
1.437500
  0
VERTEX
  8
PLAN_1
 62
     2
  6
CONTINUOUS
 10
-0.951079
 20
1.440142
  0
VERTEX
  8
PLAN_1
 62
     2
  6
CONTINUOUS
 10
-0.952665
 20
1.442787
  0
VERTEX
  8
PLAN_1
 62
     2
  6
CONTINUOUS
 10
-0.954252
 20
1.444902
  0
VERTEX
  8
PLAN_1
 62
     2
  6
CONTINUOUS
 10
-0.955839
 20
1.447016
  0
VERTEX
  8
PLAN_1
 62
     2
  6
CONTINUOUS
 10
-0.957953
 20
1.448602
  0
VERTEX
  8
PLAN_1
 62
     2
  6
CONTINUOUS
 10
-0.960598
 20
1.449661
  0
VERTEX
  8
PLAN_1
 62
     2
  6
CONTINUOUS
 10
-0.963240
 20
1.450717
  0
VERTEX
  8
PLAN_1
 62
     2
  6
CONTINUOUS
 10
-0.966413
 20
1.450717
  0
VERTEX
  8
PLAN_1
 62
     2
  6
CONTINUOUS
 10
-0.968528
 20
1.450717
  0
VERTEX
  8
PLAN_1
 62
     2
  6
CONTINUOUS
 10
-0.971173
 20
1.450189
  0
VERTEX
  8
PLAN_1
 62
     2
  6
CONTINUOUS
 10
-0.973287
 20
1.449130
  0
VERTEX
  8
PLAN_1
 62
     2
  6
CONTINUOUS
 10
-0.975402
 20
1.447543
  0
VERTEX
  8
PLAN_1
 62
     2
  6
CONTINUOUS
 10
-0.976988
 20
1.445429
  0
VERTEX
  8
PLAN_1
 62
     2
  6
CONTINUOUS
 10
-0.978575
 20
1.443315
  0
VERTEX
  8
PLAN_1
 62
     2
  6
CONTINUOUS
 10
-0.979102
 20
1.440142
  0
VERTEX
  8
PLAN_1
 62
     2
  6
CONTINUOUS
 10
-0.979634
 20
1.436441
  0
VERTEX
  8
PLAN_1
 62
     2
  6
CONTINUOUS
 10
-0.979634
 20
1.433799
  0
VERTEX
  8
PLAN_1
 62
     2
  6
CONTINUOUS
 10
-0.979102
 20
1.431681
  0
VERTEX
  8
PLAN_1
 62
     2
  6
CONTINUOUS
 10
-0.978575
 20
1.430094
  0
VERTEX
  8
PLAN_1
 62
     2
  6
CONTINUOUS
 10
-0.977516
 20
1.428512
  0
VERTEX
  8
PLAN_1
 62
     2
  6
CONTINUOUS
 10
-0.975402
 20
1.425866
  0
VERTEX
  8
PLAN_1
 62
     2
  6
CONTINUOUS
 10
-0.972760
 20
1.423752
  0
VERTEX
  8
PLAN_1
 62
     2
  6
CONTINUOUS
 10
-0.969587
 20
1.422693
  0
VERTEX
  8
PLAN_1
 62
     2
  6
CONTINUOUS
 10
-0.966413
 20
1.422165
  0
VERTEX
  8
PLAN_1
 62
     2
  6
CONTINUOUS
 10
-0.963772
 20
1.421638
  0
VERTEX
  8
PLAN_1
 62
     2
  6
CONTINUOUS
 10
-0.961654
 20
1.421638
  0
VERTEX
  8
PLAN_1
 62
     2
  6
CONTINUOUS
 10
-0.961654
 20
1.412646
  0
SEQEND
  8
0
  0
POLYLINE
  8
PLAN_1
 62
     2
  6
CONTINUOUS
 66
     1
 40
0.003000
 41
0.003000
  0
VERTEX
  8
PLAN_1
 62
     2
  6
CONTINUOUS
 10
-0.914594
 20
1.503063
  0
VERTEX
  8
PLAN_1
 62
     2
  6
CONTINUOUS
 10
-0.914594
 20
1.493547
  0
VERTEX
  8
PLAN_1
 62
     2
  6
CONTINUOUS
 10
-0.966413
 20
1.493547
  0
VERTEX
  8
PLAN_1
 62
     2
  6
CONTINUOUS
 10
-0.966413
 20
1.476098
  0
VERTEX
  8
PLAN_1
 62
     2
  6
CONTINUOUS
 10
-0.973815
 20
1.476098
  0
VERTEX
  8
PLAN_1
 62
     2
  6
CONTINUOUS
 10
-0.974346
 20
1.480327
  0
VERTEX
  8
PLAN_1
 62
     2
  6
CONTINUOUS
 10
-0.974874
 20
1.484028
  0
VERTEX
  8
PLAN_1
 62
     2
  6
CONTINUOUS
 10
-0.975402
 20
1.486673
  0
VERTEX
  8
PLAN_1
 62
     2
  6
CONTINUOUS
 10
-0.976988
 20
1.489315
  0
VERTEX
  8
PLAN_1
 62
     2
  6
CONTINUOUS
 10
-0.978575
 20
1.491433
  0
VERTEX
  8
PLAN_1
 62
     2
  6
CONTINUOUS
 10
-0.980689
 20
1.493547
  0
VERTEX
  8
PLAN_1
 62
     2
  6
CONTINUOUS
 10
-0.983862
 20
1.494602
  0
VERTEX
  8
PLAN_1
 62
     2
  6
CONTINUOUS
 10
-0.988091
 20
1.495661
  0
VERTEX
  8
PLAN_1
 62
     2
  6
CONTINUOUS
 10
-0.988091
 20
1.503063
  0
VERTEX
  8
PLAN_1
 62
     2
  6
CONTINUOUS
 10
-0.914594
 20
1.503063
  0
SEQEND
  8
0
  0
POLYLINE
  8
PLAN_1
 62
     2
  6
CONTINUOUS
 66
     1
 40
0.004228
 41
0.004228
  0
VERTEX
  8
PLAN_1
 62
     2
  6
CONTINUOUS
 10
-1.579236
 20
4.002465
  0
VERTEX
  8
PLAN_1
 62
     2
  6
CONTINUOUS
 10
-1.579236
 20
4.160031
  0
SEQEND
  8
0
  0
POLYLINE
  8
PLAN_1
 62
     2
  6
CONTINUOUS
 66
     1
 40
0.004228
 41
0.004228
  0
VERTEX
  8
PLAN_1
 62
     2
  6
CONTINUOUS
 10
-1.186374
 20
3.141130
  0
VERTEX
  8
PLAN_1
 62
     2
  6
CONTINUOUS
 10
-1.186374
 20
4.160031
  0
SEQEND
  8
0
  0
POLYLINE
  8
PLAN_1
 62
     2
  6
CONTINUOUS
 66
     1
 40
0.003000
 41
0.003000
  0
VERTEX
  8
PLAN_1
 62
     2
  6
CONTINUOUS
 10
-1.804484
 20
4.040535
  0
VERTEX
  8
PLAN_1
 62
     2
  6
CONTINUOUS
 10
-1.800780
 20
4.038949
  0
VERTEX
  8
PLAN_1
 62
     2
  6
CONTINUOUS
 10
-1.798138
 20
4.036835
  0
VERTEX
  8
PLAN_1
 62
     2
  6
CONTINUOUS
 10
-1.796024
 20
4.034720
  0
VERTEX
  8
PLAN_1
 62
     2
  6
CONTINUOUS
 10
-1.794437
 20
4.032075
  0
VERTEX
  8
PLAN_1
 62
     2
  6
CONTINUOUS
 10
-1.793378
 20
4.029961
  0
VERTEX
  8
PLAN_1
 62
     2
  6
CONTINUOUS
 10
-1.792850
 20
4.027315
  0
VERTEX
  8
PLAN_1
 62
     2
  6
CONTINUOUS
 10
-1.792323
 20
4.025201
  0
VERTEX
  8
PLAN_1
 62
     2
  6
CONTINUOUS
 10
-1.792323
 20
4.023087
  0
VERTEX
  8
PLAN_1
 62
     2
  6
CONTINUOUS
 10
-1.792850
 20
4.018327
  0
VERTEX
  8
PLAN_1
 62
     2
  6
CONTINUOUS
 10
-1.793909
 20
4.014098
  0
VERTEX
  8
PLAN_1
 62
     2
  6
CONTINUOUS
 10
-1.795492
 20
4.010398
  0
VERTEX
  8
PLAN_1
 62
     2
  6
CONTINUOUS
 10
-1.798138
 20
4.006697
  0
VERTEX
  8
PLAN_1
 62
     2
  6
CONTINUOUS
 10
-1.801839
 20
4.004051
  0
VERTEX
  8
PLAN_1
 62
     2
  6
CONTINUOUS
 10
-1.806067
 20
4.001937
  0
VERTEX
  8
PLAN_1
 62
     2
  6
CONTINUOUS
 10
-1.808185
 20
4.000878
  0
VERTEX
  8
PLAN_1
 62
     2
  6
CONTINUOUS
 10
-1.810827
 20
4.000350
  0
VERTEX
  8
PLAN_1
 62
     2
  6
CONTINUOUS
 10
-1.814000
 20
3.999823
  0
VERTEX
  8
PLAN_1
 62
     2
  6
CONTINUOUS
 10
-1.817173
 20
3.999823
  0
VERTEX
  8
PLAN_1
 62
     2
  6
CONTINUOUS
 10
-1.818760
 20
3.999823
  0
VERTEX
  8
PLAN_1
 62
     2
  6
CONTINUOUS
 10
-1.820874
 20
3.999823
  0
VERTEX
  8
PLAN_1
 62
     2
  6
CONTINUOUS
 10
-1.822988
 20
4.000350
  0
VERTEX
  8
PLAN_1
 62
     2
  6
CONTINUOUS
 10
-1.825102
 20
4.000878
  0
VERTEX
  8
PLAN_1
 62
     2
  6
CONTINUOUS
 10
-1.827748
 20
4.001409
  0
VERTEX
  8
PLAN_1
 62
     2
  6
CONTINUOUS
 10
-1.829862
 20
4.002465
  0
VERTEX
  8
PLAN_1
 62
     2
  6
CONTINUOUS
 10
-1.832508
 20
4.004051
  0
VERTEX
  8
PLAN_1
 62
     2
  6
CONTINUOUS
 10
-1.834622
 20
4.005638
  0
VERTEX
  8
PLAN_1
 62
     2
  6
CONTINUOUS
 10
-1.837264
 20
4.007752
  0
VERTEX
  8
PLAN_1
 62
     2
  6
CONTINUOUS
 10
-1.838850
 20
4.009866
  0
VERTEX
  8
PLAN_1
 62
     2
  6
CONTINUOUS
 10
-1.840437
 20
4.012512
  0
VERTEX
  8
PLAN_1
 62
     2
  6
CONTINUOUS
 10
-1.840965
 20
4.015154
  0
VERTEX
  8
PLAN_1
 62
     2
  6
CONTINUOUS
 10
-1.841496
 20
4.017272
  0
VERTEX
  8
PLAN_1
 62
     2
  6
CONTINUOUS
 10
-1.842024
 20
4.019386
  0
VERTEX
  8
PLAN_1
 62
     2
  6
CONTINUOUS
 10
-1.842024
 20
4.021500
  0
VERTEX
  8
PLAN_1
 62
     2
  6
CONTINUOUS
 10
-1.842024
 20
4.022559
  0
VERTEX
  8
PLAN_1
 62
     2
  6
CONTINUOUS
 10
-1.842024
 20
4.025728
  0
VERTEX
  8
PLAN_1
 62
     2
  6
CONTINUOUS
 10
-1.841496
 20
4.028902
  0
VERTEX
  8
PLAN_1
 62
     2
  6
CONTINUOUS
 10
-1.840437
 20
4.031547
  0
VERTEX
  8
PLAN_1
 62
     2
  6
CONTINUOUS
 10
-1.838850
 20
4.033661
  0
VERTEX
  8
PLAN_1
 62
     2
  6
CONTINUOUS
 10
-1.837264
 20
4.035776
  0
VERTEX
  8
PLAN_1
 62
     2
  6
CONTINUOUS
 10
-1.835150
 20
4.037890
  0
VERTEX
  8
PLAN_1
 62
     2
  6
CONTINUOUS
 10
-1.832508
 20
4.039476
  0
VERTEX
  8
PLAN_1
 62
     2
  6
CONTINUOUS
 10
-1.829862
 20
4.040535
  0
VERTEX
  8
PLAN_1
 62
     2
  6
CONTINUOUS
 10
-1.831976
 20
4.041591
  0
VERTEX
  8
PLAN_1
 62
     2
  6
CONTINUOUS
 10
-1.834091
 20
4.042650
  0
VERTEX
  8
PLAN_1
 62
     2
  6
CONTINUOUS
 10
-1.835677
 20
4.044236
  0
VERTEX
  8
PLAN_1
 62
     2
  6
CONTINUOUS
 10
-1.837264
 20
4.045823
  0
VERTEX
  8
PLAN_1
 62
     2
  6
CONTINUOUS
 10
-1.838323
 20
4.047937
  0
VERTEX
  8
PLAN_1
 62
     2
  6
CONTINUOUS
 10
-1.838850
 20
4.050051
  0
VERTEX
  8
PLAN_1
 62
     2
  6
CONTINUOUS
 10
-1.839382
 20
4.052169
  0
VERTEX
  8
PLAN_1
 62
     2
  6
CONTINUOUS
 10
-1.839382
 20
4.054811
  0
VERTEX
  8
PLAN_1
 62
     2
  6
CONTINUOUS
 10
-1.839382
 20
4.057984
  0
VERTEX
  8
PLAN_1
 62
     2
  6
CONTINUOUS
 10
-1.838850
 20
4.061157
  0
VERTEX
  8
PLAN_1
 62
     2
  6
CONTINUOUS
 10
-1.837264
 20
4.064331
  0
VERTEX
  8
PLAN_1
 62
     2
  6
CONTINUOUS
 10
-1.835150
 20
4.067500
  0
VERTEX
  8
PLAN_1
 62
     2
  6
CONTINUOUS
 10
-1.831976
 20
4.070673
  0
VERTEX
  8
PLAN_1
 62
     2
  6
CONTINUOUS
 10
-1.828276
 20
4.072787
  0
VERTEX
  8
PLAN_1
 62
     2
  6
CONTINUOUS
 10
-1.826161
 20
4.073846
  0
VERTEX
  8
PLAN_1
 62
     2
  6
CONTINUOUS
 10
-1.823516
 20
4.074374
  0
VERTEX
  8
PLAN_1
 62
     2
  6
CONTINUOUS
 10
-1.820874
 20
4.074906
  0
VERTEX
  8
PLAN_1
 62
     2
  6
CONTINUOUS
 10
-1.817701
 20
4.074906
  0
VERTEX
  8
PLAN_1
 62
     2
  6
CONTINUOUS
 10
-1.811886
 20
4.074374
  0
VERTEX
  8
PLAN_1
 62
     2
  6
CONTINUOUS
 10
-1.807126
 20
4.073319
  0
VERTEX
  8
PLAN_1
 62
     2
  6
CONTINUOUS
 10
-1.803425
 20
4.071201
  0
VERTEX
  8
PLAN_1
 62
     2
  6
CONTINUOUS
 10
-1.800252
 20
4.068559
  0
VERTEX
  8
PLAN_1
 62
     2
  6
CONTINUOUS
 10
-1.797610
 20
4.065913
  0
VERTEX
  8
PLAN_1
 62
     2
  6
CONTINUOUS
 10
-1.796024
 20
4.062744
  0
VERTEX
  8
PLAN_1
 62
     2
  6
CONTINUOUS
 10
-1.794965
 20
4.059571
  0
VERTEX
  8
PLAN_1
 62
     2
  6
CONTINUOUS
 10
-1.794965
 20
4.055870
  0
VERTEX
  8
PLAN_1
 62
     2
  6
CONTINUOUS
 10
-1.794965
 20
4.052697
  0
VERTEX
  8
PLAN_1
 62
     2
  6
CONTINUOUS
 10
-1.796024
 20
4.049524
  0
VERTEX
  8
PLAN_1
 62
     2
  6
CONTINUOUS
 10
-1.797079
 20
4.046882
  0
VERTEX
  8
PLAN_1
 62
     2
  6
CONTINUOUS
 10
-1.798138
 20
4.045295
  0
VERTEX
  8
PLAN_1
 62
     2
  6
CONTINUOUS
 10
-1.799724
 20
4.043709
  0
VERTEX
  8
PLAN_1
 62
     2
  6
CONTINUOUS
 10
-1.801311
 20
4.042122
  0
VERTEX
  8
PLAN_1
 62
     2
  6
CONTINUOUS
 10
-1.802898
 20
4.041591
  0
VERTEX
  8
PLAN_1
 62
     2
  6
CONTINUOUS
 10
-1.804484
 20
4.040535
  0
SEQEND
  8
0
  0
POLYLINE
  8
PLAN_1
 62
     2
  6
CONTINUOUS
 66
     1
 40
0.003000
 41
0.003000
  0
VERTEX
  8
PLAN_1
 62
     2
  6
CONTINUOUS
 10
-1.832508
 20
4.022559
  0
VERTEX
  8
PLAN_1
 62
     2
  6
CONTINUOUS
 10
-1.831976
 20
4.020441
  0
VERTEX
  8
PLAN_1
 62
     2
  6
CONTINUOUS
 10
-1.831449
 20
4.017799
  0
VERTEX
  8
PLAN_1
 62
     2
  6
CONTINUOUS
 10
-1.830921
 20
4.015154
  0
VERTEX
  8
PLAN_1
 62
     2
  6
CONTINUOUS
 10
-1.829335
 20
4.013039
  0
VERTEX
  8
PLAN_1
 62
     2
  6
CONTINUOUS
 10
-1.827220
 20
4.010925
  0
VERTEX
  8
PLAN_1
 62
     2
  6
CONTINUOUS
 10
-1.824575
 20
4.009339
  0
VERTEX
  8
PLAN_1
 62
     2
  6
CONTINUOUS
 10
-1.820874
 20
4.008280
  0
VERTEX
  8
PLAN_1
 62
     2
  6
CONTINUOUS
 10
-1.816646
 20
4.007752
  0
VERTEX
  8
PLAN_1
 62
     2
  6
CONTINUOUS
 10
-1.814000
 20
4.008280
  0
VERTEX
  8
PLAN_1
 62
     2
  6
CONTINUOUS
 10
-1.811886
 20
4.008811
  0
VERTEX
  8
PLAN_1
 62
     2
  6
CONTINUOUS
 10
-1.809240
 20
4.009339
  0
VERTEX
  8
PLAN_1
 62
     2
  6
CONTINUOUS
 10
-1.807126
 20
4.010398
  0
VERTEX
  8
PLAN_1
 62
     2
  6
CONTINUOUS
 10
-1.805012
 20
4.012512
  0
VERTEX
  8
PLAN_1
 62
     2
  6
CONTINUOUS
 10
-1.803425
 20
4.014626
  0
VERTEX
  8
PLAN_1
 62
     2
  6
CONTINUOUS
 10
-1.802366
 20
4.017799
  0
VERTEX
  8
PLAN_1
 62
     2
  6
CONTINUOUS
 10
-1.801839
 20
4.022028
  0
VERTEX
  8
PLAN_1
 62
     2
  6
CONTINUOUS
 10
-1.802366
 20
4.025201
  0
VERTEX
  8
PLAN_1
 62
     2
  6
CONTINUOUS
 10
-1.803425
 20
4.028374
  0
VERTEX
  8
PLAN_1
 62
     2
  6
CONTINUOUS
 10
-1.804484
 20
4.030488
  0
VERTEX
  8
PLAN_1
 62
     2
  6
CONTINUOUS
 10
-1.806598
 20
4.032602
  0
VERTEX
  8
PLAN_1
 62
     2
  6
CONTINUOUS
 10
-1.808713
 20
4.034189
  0
VERTEX
  8
PLAN_1
 62
     2
  6
CONTINUOUS
 10
-1.811354
 20
4.035248
  0
VERTEX
  8
PLAN_1
 62
     2
  6
CONTINUOUS
 10
-1.814000
 20
4.035776
  0
VERTEX
  8
PLAN_1
 62
     2
  6
CONTINUOUS
 10
-1.817173
 20
4.036303
  0
VERTEX
  8
PLAN_1
 62
     2
  6
CONTINUOUS
 10
-1.820874
 20
4.035776
  0
VERTEX
  8
PLAN_1
 62
     2
  6
CONTINUOUS
 10
-1.824047
 20
4.034720
  0
VERTEX
  8
PLAN_1
 62
     2
  6
CONTINUOUS
 10
-1.826689
 20
4.033661
  0
VERTEX
  8
PLAN_1
 62
     2
  6
CONTINUOUS
 10
-1.828803
 20
4.032075
  0
VERTEX
  8
PLAN_1
 62
     2
  6
CONTINUOUS
 10
-1.830390
 20
4.029961
  0
VERTEX
  8
PLAN_1
 62
     2
  6
CONTINUOUS
 10
-1.831449
 20
4.027315
  0
VERTEX
  8
PLAN_1
 62
     2
  6
CONTINUOUS
 10
-1.831976
 20
4.025201
  0
VERTEX
  8
PLAN_1
 62
     2
  6
CONTINUOUS
 10
-1.832508
 20
4.022559
  0
SEQEND
  8
0
  0
POLYLINE
  8
PLAN_1
 62
     2
  6
CONTINUOUS
 66
     1
 40
0.003000
 41
0.003000
  0
VERTEX
  8
PLAN_1
 62
     2
  6
CONTINUOUS
 10
-1.804484
 20
4.055870
  0
VERTEX
  8
PLAN_1
 62
     2
  6
CONTINUOUS
 10
-1.804484
 20
4.057457
  0
VERTEX
  8
PLAN_1
 62
     2
  6
CONTINUOUS
 10
-1.805012
 20
4.059571
  0
VERTEX
  8
PLAN_1
 62
     2
  6
CONTINUOUS
 10
-1.806067
 20
4.061157
  0
VERTEX
  8
PLAN_1
 62
     2
  6
CONTINUOUS
 10
-1.807126
 20
4.062744
  0
VERTEX
  8
PLAN_1
 62
     2
  6
CONTINUOUS
 10
-1.809240
 20
4.064331
  0
VERTEX
  8
PLAN_1
 62
     2
  6
CONTINUOUS
 10
-1.811354
 20
4.065386
  0
VERTEX
  8
PLAN_1
 62
     2
  6
CONTINUOUS
 10
-1.814528
 20
4.066445
  0
VERTEX
  8
PLAN_1
 62
     2
  6
CONTINUOUS
 10
-1.818228
 20
4.066445
  0
VERTEX
  8
PLAN_1
 62
     2
  6
CONTINUOUS
 10
-1.821402
 20
4.066445
  0
VERTEX
  8
PLAN_1
 62
     2
  6
CONTINUOUS
 10
-1.824047
 20
4.065386
  0
VERTEX
  8
PLAN_1
 62
     2
  6
CONTINUOUS
 10
-1.826161
 20
4.064331
  0
VERTEX
  8
PLAN_1
 62
     2
  6
CONTINUOUS
 10
-1.827748
 20
4.062744
  0
VERTEX
  8
PLAN_1
 62
     2
  6
CONTINUOUS
 10
-1.828803
 20
4.061157
  0
VERTEX
  8
PLAN_1
 62
     2
  6
CONTINUOUS
 10
-1.829862
 20
4.059039
  0
VERTEX
  8
PLAN_1
 62
     2
  6
CONTINUOUS
 10
-1.829862
 20
4.056925
  0
VERTEX
  8
PLAN_1
 62
     2
  6
CONTINUOUS
 10
-1.830390
 20
4.055339
  0
VERTEX
  8
PLAN_1
 62
     2
  6
CONTINUOUS
 10
-1.829862
 20
4.052697
  0
VERTEX
  8
PLAN_1
 62
     2
  6
CONTINUOUS
 10
-1.829335
 20
4.050583
  0
VERTEX
  8
PLAN_1
 62
     2
  6
CONTINUOUS
 10
-1.827748
 20
4.048465
  0
VERTEX
  8
PLAN_1
 62
     2
  6
CONTINUOUS
 10
-1.826161
 20
4.046882
  0
VERTEX
  8
PLAN_1
 62
     2
  6
CONTINUOUS
 10
-1.824575
 20
4.045823
  0
VERTEX
  8
PLAN_1
 62
     2
  6
CONTINUOUS
 10
-1.821933
 20
4.044764
  0
VERTEX
  8
PLAN_1
 62
     2
  6
CONTINUOUS
 10
-1.819815
 20
4.044236
  0
VERTEX
  8
PLAN_1
 62
     2
  6
CONTINUOUS
 10
-1.817173
 20
4.044236
  0
VERTEX
  8
PLAN_1
 62
     2
  6
CONTINUOUS
 10
-1.814528
 20
4.044236
  0
VERTEX
  8
PLAN_1
 62
     2
  6
CONTINUOUS
 10
-1.811886
 20
4.044764
  0
VERTEX
  8
PLAN_1
 62
     2
  6
CONTINUOUS
 10
-1.809772
 20
4.045823
  0
VERTEX
  8
PLAN_1
 62
     2
  6
CONTINUOUS
 10
-1.807654
 20
4.047409
  0
VERTEX
  8
PLAN_1
 62
     2
  6
CONTINUOUS
 10
-1.806598
 20
4.048996
  0
VERTEX
  8
PLAN_1
 62
     2
  6
CONTINUOUS
 10
-1.805539
 20
4.051110
  0
VERTEX
  8
PLAN_1
 62
     2
  6
CONTINUOUS
 10
-1.804484
 20
4.053224
  0
VERTEX
  8
PLAN_1
 62
     2
  6
CONTINUOUS
 10
-1.804484
 20
4.055870
  0
SEQEND
  8
0
  0
POLYLINE
  8
PLAN_1
 62
     2
  6
CONTINUOUS
 66
     1
 40
0.004228
 41
0.004228
  0
VERTEX
  8
PLAN_1
 62
     2
  6
CONTINUOUS
 10
-1.713539
 20
3.844898
  0
VERTEX
  8
PLAN_1
 62
     2
  6
CONTINUOUS
 10
-1.713539
 20
4.001937
  0
SEQEND
  8
0
  0
POLYLINE
  8
PLAN_1
 62
     2
  6
CONTINUOUS
 66
     1
 40
0.004228
 41
0.004228
  0
VERTEX
  8
PLAN_1
 62
     2
  6
CONTINUOUS
 10
-1.440701
 20
3.844898
  0
VERTEX
  8
PLAN_1
 62
     2
  6
CONTINUOUS
 10
-1.440701
 20
4.001937
  0
SEQEND
  8
0
  0
POLYLINE
  8
PLAN_1
 62
     2
  6
CONTINUOUS
 66
     1
 40
0.004228
 41
0.004228
  0
VERTEX
  8
PLAN_1
 62
     2
  6
CONTINUOUS
 10
-1.579236
 20
3.845425
  0
VERTEX
  8
PLAN_1
 62
     2
  6
CONTINUOUS
 10
-1.579236
 20
3.952764
  0
SEQEND
  8
0
  0
POLYLINE
  8
PLAN_1
 62
     2
  6
CONTINUOUS
 66
     1
 40
0.004228
 41
0.004228
  0
VERTEX
  8
PLAN_1
 62
     2
  6
CONTINUOUS
 10
-1.417437
 20
3.825335
  0
VERTEX
  8
PLAN_1
 62
     2
  6
CONTINUOUS
 10
-1.210697
 20
3.825335
  0
SEQEND
  8
0
  0
SOLID
  8
PLAN_1
 62
     2
 10
-1.550681
 20
-1.218941
 11
-1.496748
 21
-1.248024
 12
-1.550681
 22
-1.218941
 13
-1.489346
 23
-1.217354
  0
POLYLINE
  8
PLAN_1
 62
     2
  6
CONTINUOUS
 66
     1
 40
0.003000
 41
0.003000
  0
VERTEX
  8
PLAN_1
 62
     2
  6
CONTINUOUS
 10
-1.550681
 20
-1.218941
  0
VERTEX
  8
PLAN_1
 62
     2
  6
CONTINUOUS
 10
-1.496748
 20
-1.248024
  0
VERTEX
  8
PLAN_1
 62
     2
  6
CONTINUOUS
 10
-1.489346
 20
-1.217354
  0
VERTEX
  8
PLAN_1
 62
     2
  6
CONTINUOUS
 10
-1.550681
 20
-1.218941
  0
SEQEND
  8
0
  0
POLYLINE
  8
PLAN_1
 62
     2
  6
CONTINUOUS
 66
     1
 40
0.004228
 41
0.004228
  0
VERTEX
  8
PLAN_1
 62
     2
  6
CONTINUOUS
 10
-1.514197
 20
-1.227402
  0
VERTEX
  8
PLAN_1
 62
     2
  6
CONTINUOUS
 10
-0.874409
 20
-1.390256
  0
VERTEX
  8
PLAN_1
 62
     2
  6
CONTINUOUS
 10
0.038213
 20
-1.390256
  0
SEQEND
  8
0
  0
POLYLINE
  8
PLAN_1
 62
     2
  6
CONTINUOUS
 66
     1
 40
0.003000
 41
0.003000
  0
VERTEX
  8
PLAN_1
 62
     2
  6
CONTINUOUS
 10
-0.805146
 20
-1.366465
  0
VERTEX
  8
PLAN_1
 62
     2
  6
CONTINUOUS
 10
-0.815193
 20
-1.366465
  0
VERTEX
  8
PLAN_1
 62
     2
  6
CONTINUOUS
 10
-0.815193
 20
-1.314646
  0
VERTEX
  8
PLAN_1
 62
     2
  6
CONTINUOUS
 10
-0.832110
 20
-1.314646
  0
VERTEX
  8
PLAN_1
 62
     2
  6
CONTINUOUS
 10
-0.832110
 20
-1.307244
  0
VERTEX
  8
PLAN_1
 62
     2
  6
CONTINUOUS
 10
-0.827882
 20
-1.307244
  0
VERTEX
  8
PLAN_1
 62
     2
  6
CONTINUOUS
 10
-0.824709
 20
-1.306713
  0
VERTEX
  8
PLAN_1
 62
     2
  6
CONTINUOUS
 10
-0.821535
 20
-1.305657
  0
VERTEX
  8
PLAN_1
 62
     2
  6
CONTINUOUS
 10
-0.818894
 20
-1.304598
  0
VERTEX
  8
PLAN_1
 62
     2
  6
CONTINUOUS
 10
-0.816776
 20
-1.303012
  0
VERTEX
  8
PLAN_1
 62
     2
  6
CONTINUOUS
 10
-0.815193
 20
-1.300370
  0
VERTEX
  8
PLAN_1
 62
     2
  6
CONTINUOUS
 10
-0.813606
 20
-1.297197
  0
VERTEX
  8
PLAN_1
 62
     2
  6
CONTINUOUS
 10
-0.812547
 20
-1.293496
  0
VERTEX
  8
PLAN_1
 62
     2
  6
CONTINUOUS
 10
-0.805146
 20
-1.293496
  0
VERTEX
  8
PLAN_1
 62
     2
  6
CONTINUOUS
 10
-0.805146
 20
-1.366465
  0
SEQEND
  8
0
  0
POLYLINE
  8
PLAN_1
 62
     2
  6
CONTINUOUS
 66
     1
 40
0.003000
 41
0.003000
  0
VERTEX
  8
PLAN_1
 62
     2
  6
CONTINUOUS
 10
-0.737992
 20
-1.319933
  0
VERTEX
  8
PLAN_1
 62
     2
  6
CONTINUOUS
 10
-0.737992
 20
-1.354831
  0
VERTEX
  8
PLAN_1
 62
     2
  6
CONTINUOUS
 10
-0.737992
 20
-1.356417
  0
VERTEX
  8
PLAN_1
 62
     2
  6
CONTINUOUS
 10
-0.737465
 20
-1.357472
  0
VERTEX
  8
PLAN_1
 62
     2
  6
CONTINUOUS
 10
-0.736406
 20
-1.358531
  0
VERTEX
  8
PLAN_1
 62
     2
  6
CONTINUOUS
 10
-0.735878
 20
-1.359059
  0
VERTEX
  8
PLAN_1
 62
     2
  6
CONTINUOUS
 10
-0.734823
 20
-1.359059
  0
VERTEX
  8
PLAN_1
 62
     2
  6
CONTINUOUS
 10
-0.734291
 20
-1.359059
  0
VERTEX
  8
PLAN_1
 62
     2
  6
CONTINUOUS
 10
-0.733236
 20
-1.359591
  0
VERTEX
  8
PLAN_1
 62
     2
  6
CONTINUOUS
 10
-0.732177
 20
-1.359591
  0
VERTEX
  8
PLAN_1
 62
     2
  6
CONTINUOUS
 10
-0.729004
 20
-1.359591
  0
VERTEX
  8
PLAN_1
 62
     2
  6
CONTINUOUS
 10
-0.729004
 20
-1.366465
  0
VERTEX
  8
PLAN_1
 62
     2
  6
CONTINUOUS
 10
-0.730591
 20
-1.366465
  0
VERTEX
  8
PLAN_1
 62
     2
  6
CONTINUOUS
 10
-0.731650
 20
-1.366992
  0
VERTEX
  8
PLAN_1
 62
     2
  6
CONTINUOUS
 10
-0.732705
 20
-1.366992
  0
VERTEX
  8
PLAN_1
 62
     2
  6
CONTINUOUS
 10
-0.733236
 20
-1.366992
  0
VERTEX
  8
PLAN_1
 62
     2
  6
CONTINUOUS
 10
-0.734291
 20
-1.366992
  0
VERTEX
  8
PLAN_1
 62
     2
  6
CONTINUOUS
 10
-0.734823
 20
-1.366992
  0
VERTEX
  8
PLAN_1
 62
     2
  6
CONTINUOUS
 10
-0.735350
 20
-1.366992
  0
VERTEX
  8
PLAN_1
 62
     2
  6
CONTINUOUS
 10
-0.735878
 20
-1.366992
  0
VERTEX
  8
PLAN_1
 62
     2
  6
CONTINUOUS
 10
-0.739051
 20
-1.366992
  0
VERTEX
  8
PLAN_1
 62
     2
  6
CONTINUOUS
 10
-0.741697
 20
-1.366465
  0
VERTEX
  8
PLAN_1
 62
     2
  6
CONTINUOUS
 10
-0.743280
 20
-1.365406
  0
VERTEX
  8
PLAN_1
 62
     2
  6
CONTINUOUS
 10
-0.744866
 20
-1.363819
  0
VERTEX
  8
PLAN_1
 62
     2
  6
CONTINUOUS
 10
-0.745925
 20
-1.362232
  0
VERTEX
  8
PLAN_1
 62
     2
  6
CONTINUOUS
 10
-0.746453
 20
-1.360118
  0
VERTEX
  8
PLAN_1
 62
     2
  6
CONTINUOUS
 10
-0.746984
 20
-1.358004
  0
VERTEX
  8
PLAN_1
 62
     2
  6
CONTINUOUS
 10
-0.746984
 20
-1.355358
  0
VERTEX
  8
PLAN_1
 62
     2
  6
CONTINUOUS
 10
-0.746984
 20
-1.319933
  0
VERTEX
  8
PLAN_1
 62
     2
  6
CONTINUOUS
 10
-0.754386
 20
-1.319933
  0
VERTEX
  8
PLAN_1
 62
     2
  6
CONTINUOUS
 10
-0.754386
 20
-1.312000
  0
VERTEX
  8
PLAN_1
 62
     2
  6
CONTINUOUS
 10
-0.746984
 20
-1.312000
  0
VERTEX
  8
PLAN_1
 62
     2
  6
CONTINUOUS
 10
-0.746984
 20
-1.296669
  0
VERTEX
  8
PLAN_1
 62
     2
  6
CONTINUOUS
 10
-0.737992
 20
-1.296669
  0
VERTEX
  8
PLAN_1
 62
     2
  6
CONTINUOUS
 10
-0.737992
 20
-1.312000
  0
VERTEX
  8
PLAN_1
 62
     2
  6
CONTINUOUS
 10
-0.729004
 20
-1.312000
  0
VERTEX
  8
PLAN_1
 62
     2
  6
CONTINUOUS
 10
-0.729004
 20
-1.319933
  0
VERTEX
  8
PLAN_1
 62
     2
  6
CONTINUOUS
 10
-0.737992
 20
-1.319933
  0
SEQEND
  8
0
  0
POLYLINE
  8
PLAN_1
 62
     2
  6
CONTINUOUS
 66
     1
 40
0.003000
 41
0.003000
  0
VERTEX
  8
PLAN_1
 62
     2
  6
CONTINUOUS
 10
-0.709969
 20
-1.366465
  0
VERTEX
  8
PLAN_1
 62
     2
  6
CONTINUOUS
 10
-0.718961
 20
-1.366465
  0
VERTEX
  8
PLAN_1
 62
     2
  6
CONTINUOUS
 10
-0.718961
 20
-1.312000
  0
VERTEX
  8
PLAN_1
 62
     2
  6
CONTINUOUS
 10
-0.710500
 20
-1.312000
  0
VERTEX
  8
PLAN_1
 62
     2
  6
CONTINUOUS
 10
-0.710500
 20
-1.320992
  0
VERTEX
  8
PLAN_1
 62
     2
  6
CONTINUOUS
 10
-0.709969
 20
-1.320992
  0
VERTEX
  8
PLAN_1
 62
     2
  6
CONTINUOUS
 10
-0.708913
 20
-1.318874
  0
VERTEX
  8
PLAN_1
 62
     2
  6
CONTINUOUS
 10
-0.707327
 20
-1.316760
  0
VERTEX
  8
PLAN_1
 62
     2
  6
CONTINUOUS
 10
-0.705740
 20
-1.315173
  0
VERTEX
  8
PLAN_1
 62
     2
  6
CONTINUOUS
 10
-0.703626
 20
-1.313587
  0
VERTEX
  8
PLAN_1
 62
     2
  6
CONTINUOUS
 10
-0.701512
 20
-1.312000
  0
VERTEX
  8
PLAN_1
 62
     2
  6
CONTINUOUS
 10
-0.699394
 20
-1.311472
  0
VERTEX
  8
PLAN_1
 62
     2
  6
CONTINUOUS
 10
-0.697280
 20
-1.310945
  0
VERTEX
  8
PLAN_1
 62
     2
  6
CONTINUOUS
 10
-0.694638
 20
-1.310413
  0
VERTEX
  8
PLAN_1
 62
     2
  6
CONTINUOUS
 10
-0.694106
 20
-1.310413
  0
VERTEX
  8
PLAN_1
 62
     2
  6
CONTINUOUS
 10
-0.693579
 20
-1.310413
  0
VERTEX
  8
PLAN_1
 62
     2
  6
CONTINUOUS
 10
-0.693051
 20
-1.310413
  0
VERTEX
  8
PLAN_1
 62
     2
  6
CONTINUOUS
 10
-0.693051
 20
-1.310945
  0
VERTEX
  8
PLAN_1
 62
     2
  6
CONTINUOUS
 10
-0.692520
 20
-1.310945
  0
VERTEX
  8
PLAN_1
 62
     2
  6
CONTINUOUS
 10
-0.692520
 20
-1.320461
  0
VERTEX
  8
PLAN_1
 62
     2
  6
CONTINUOUS
 10
-0.695693
 20
-1.320461
  0
VERTEX
  8
PLAN_1
 62
     2
  6
CONTINUOUS
 10
-0.698866
 20
-1.320461
  0
VERTEX
  8
PLAN_1
 62
     2
  6
CONTINUOUS
 10
-0.701512
 20
-1.321520
  0
VERTEX
  8
PLAN_1
 62
     2
  6
CONTINUOUS
 10
-0.704154
 20
-1.323106
  0
VERTEX
  8
PLAN_1
 62
     2
  6
CONTINUOUS
 10
-0.706268
 20
-1.324693
  0
VERTEX
  8
PLAN_1
 62
     2
  6
CONTINUOUS
 10
-0.707854
 20
-1.326807
  0
VERTEX
  8
PLAN_1
 62
     2
  6
CONTINUOUS
 10
-0.708913
 20
-1.329449
  0
VERTEX
  8
PLAN_1
 62
     2
  6
CONTINUOUS
 10
-0.709441
 20
-1.332094
  0
VERTEX
  8
PLAN_1
 62
     2
  6
CONTINUOUS
 10
-0.709969
 20
-1.334736
  0
VERTEX
  8
PLAN_1
 62
     2
  6
CONTINUOUS
 10
-0.709969
 20
-1.366465
  0
SEQEND
  8
0
  0
POLYLINE
  8
PLAN_1
 62
     2
  6
CONTINUOUS
 66
     1
 40
0.003000
 41
0.003000
  0
VERTEX
  8
PLAN_1
 62
     2
  6
CONTINUOUS
 10
-0.663441
 20
-1.310413
  0
VERTEX
  8
PLAN_1
 62
     2
  6
CONTINUOUS
 10
-0.660268
 20
-1.310945
  0
VERTEX
  8
PLAN_1
 62
     2
  6
CONTINUOUS
 10
-0.657094
 20
-1.310945
  0
VERTEX
  8
PLAN_1
 62
     2
  6
CONTINUOUS
 10
-0.654453
 20
-1.312000
  0
VERTEX
  8
PLAN_1
 62
     2
  6
CONTINUOUS
 10
-0.652335
 20
-1.313059
  0
VERTEX
  8
PLAN_1
 62
     2
  6
CONTINUOUS
 10
-0.649693
 20
-1.314646
  0
VERTEX
  8
PLAN_1
 62
     2
  6
CONTINUOUS
 10
-0.647579
 20
-1.315701
  0
VERTEX
  8
PLAN_1
 62
     2
  6
CONTINUOUS
 10
-0.645992
 20
-1.317819
  0
VERTEX
  8
PLAN_1
 62
     2
  6
CONTINUOUS
 10
-0.644406
 20
-1.319406
  0
VERTEX
  8
PLAN_1
 62
     2
  6
CONTINUOUS
 10
-0.641760
 20
-1.324161
  0
VERTEX
  8
PLAN_1
 62
     2
  6
CONTINUOUS
 10
-0.639646
 20
-1.328921
  0
VERTEX
  8
PLAN_1
 62
     2
  6
CONTINUOUS
 10
-0.638591
 20
-1.334209
  0
VERTEX
  8
PLAN_1
 62
     2
  6
CONTINUOUS
 10
-0.638059
 20
-1.339496
  0
VERTEX
  8
PLAN_1
 62
     2
  6
CONTINUOUS
 10
-0.638591
 20
-1.344783
  0
VERTEX
  8
PLAN_1
 62
     2
  6
CONTINUOUS
 10
-0.639646
 20
-1.349543
  0
VERTEX
  8
PLAN_1
 62
     2
  6
CONTINUOUS
 10
-0.641760
 20
-1.354303
  0
VERTEX
  8
PLAN_1
 62
     2
  6
CONTINUOUS
 10
-0.644406
 20
-1.359059
  0
VERTEX
  8
PLAN_1
 62
     2
  6
CONTINUOUS
 10
-0.645992
 20
-1.360646
  0
VERTEX
  8
PLAN_1
 62
     2
  6
CONTINUOUS
 10
-0.647579
 20
-1.362760
  0
VERTEX
  8
PLAN_1
 62
     2
  6
CONTINUOUS
 10
-0.649693
 20
-1.364346
  0
VERTEX
  8
PLAN_1
 62
     2
  6
CONTINUOUS
 10
-0.652335
 20
-1.365406
  0
VERTEX
  8
PLAN_1
 62
     2
  6
CONTINUOUS
 10
-0.654453
 20
-1.366465
  0
VERTEX
  8
PLAN_1
 62
     2
  6
CONTINUOUS
 10
-0.657094
 20
-1.367520
  0
VERTEX
  8
PLAN_1
 62
     2
  6
CONTINUOUS
 10
-0.660268
 20
-1.368047
  0
VERTEX
  8
PLAN_1
 62
     2
  6
CONTINUOUS
 10
-0.663441
 20
-1.368047
  0
VERTEX
  8
PLAN_1
 62
     2
  6
CONTINUOUS
 10
-0.666614
 20
-1.368047
  0
VERTEX
  8
PLAN_1
 62
     2
  6
CONTINUOUS
 10
-0.669256
 20
-1.367520
  0
VERTEX
  8
PLAN_1
 62
     2
  6
CONTINUOUS
 10
-0.672429
 20
-1.366465
  0
VERTEX
  8
PLAN_1
 62
     2
  6
CONTINUOUS
 10
-0.674543
 20
-1.365406
  0
VERTEX
  8
PLAN_1
 62
     2
  6
CONTINUOUS
 10
-0.677189
 20
-1.364346
  0
VERTEX
  8
PLAN_1
 62
     2
  6
CONTINUOUS
 10
-0.678776
 20
-1.362760
  0
VERTEX
  8
PLAN_1
 62
     2
  6
CONTINUOUS
 10
-0.680890
 20
-1.360646
  0
VERTEX
  8
PLAN_1
 62
     2
  6
CONTINUOUS
 10
-0.682476
 20
-1.359059
  0
VERTEX
  8
PLAN_1
 62
     2
  6
CONTINUOUS
 10
-0.685118
 20
-1.354303
  0
VERTEX
  8
PLAN_1
 62
     2
  6
CONTINUOUS
 10
-0.687232
 20
-1.349543
  0
VERTEX
  8
PLAN_1
 62
     2
  6
CONTINUOUS
 10
-0.688291
 20
-1.344783
  0
VERTEX
  8
PLAN_1
 62
     2
  6
CONTINUOUS
 10
-0.688819
 20
-1.339496
  0
VERTEX
  8
PLAN_1
 62
     2
  6
CONTINUOUS
 10
-0.688291
 20
-1.334209
  0
VERTEX
  8
PLAN_1
 62
     2
  6
CONTINUOUS
 10
-0.687232
 20
-1.328921
  0
VERTEX
  8
PLAN_1
 62
     2
  6
CONTINUOUS
 10
-0.685118
 20
-1.324161
  0
VERTEX
  8
PLAN_1
 62
     2
  6
CONTINUOUS
 10
-0.682476
 20
-1.319406
  0
VERTEX
  8
PLAN_1
 62
     2
  6
CONTINUOUS
 10
-0.680890
 20
-1.317819
  0
VERTEX
  8
PLAN_1
 62
     2
  6
CONTINUOUS
 10
-0.678776
 20
-1.315701
  0
VERTEX
  8
PLAN_1
 62
     2
  6
CONTINUOUS
 10
-0.677189
 20
-1.314646
  0
VERTEX
  8
PLAN_1
 62
     2
  6
CONTINUOUS
 10
-0.674543
 20
-1.313059
  0
VERTEX
  8
PLAN_1
 62
     2
  6
CONTINUOUS
 10
-0.672429
 20
-1.312000
  0
VERTEX
  8
PLAN_1
 62
     2
  6
CONTINUOUS
 10
-0.669256
 20
-1.310945
  0
VERTEX
  8
PLAN_1
 62
     2
  6
CONTINUOUS
 10
-0.666614
 20
-1.310945
  0
VERTEX
  8
PLAN_1
 62
     2
  6
CONTINUOUS
 10
-0.663441
 20
-1.310413
  0
SEQEND
  8
0
  0
POLYLINE
  8
PLAN_1
 62
     2
  6
CONTINUOUS
 66
     1
 40
0.003000
 41
0.003000
  0
VERTEX
  8
PLAN_1
 62
     2
  6
CONTINUOUS
 10
-0.663441
 20
-1.360118
  0
VERTEX
  8
PLAN_1
 62
     2
  6
CONTINUOUS
 10
-0.660795
 20
-1.360118
  0
VERTEX
  8
PLAN_1
 62
     2
  6
CONTINUOUS
 10
-0.658681
 20
-1.359591
  0
VERTEX
  8
PLAN_1
 62
     2
  6
CONTINUOUS
 10
-0.657094
 20
-1.358531
  0
VERTEX
  8
PLAN_1
 62
     2
  6
CONTINUOUS
 10
-0.655508
 20
-1.358004
  0
VERTEX
  8
PLAN_1
 62
     2
  6
CONTINUOUS
 10
-0.652866
 20
-1.355358
  0
VERTEX
  8
PLAN_1
 62
     2
  6
CONTINUOUS
 10
-0.650748
 20
-1.352185
  0
VERTEX
  8
PLAN_1
 62
     2
  6
CONTINUOUS
 10
-0.649165
 20
-1.349016
  0
VERTEX
  8
PLAN_1
 62
     2
  6
CONTINUOUS
 10
-0.648106
 20
-1.345843
  0
VERTEX
  8
PLAN_1
 62
     2
  6
CONTINUOUS
 10
-0.647579
 20
-1.342142
  0
VERTEX
  8
PLAN_1
 62
     2
  6
CONTINUOUS
 10
-0.647579
 20
-1.339496
  0
VERTEX
  8
PLAN_1
 62
     2
  6
CONTINUOUS
 10
-0.647579
 20
-1.336323
  0
VERTEX
  8
PLAN_1
 62
     2
  6
CONTINUOUS
 10
-0.648106
 20
-1.333150
  0
VERTEX
  8
PLAN_1
 62
     2
  6
CONTINUOUS
 10
-0.649165
 20
-1.329449
  0
VERTEX
  8
PLAN_1
 62
     2
  6
CONTINUOUS
 10
-0.650748
 20
-1.326280
  0
VERTEX
  8
PLAN_1
 62
     2
  6
CONTINUOUS
 10
-0.652866
 20
-1.323106
  0
VERTEX
  8
PLAN_1
 62
     2
  6
CONTINUOUS
 10
-0.655508
 20
-1.320461
  0
VERTEX
  8
PLAN_1
 62
     2
  6
CONTINUOUS
 10
-0.657094
 20
-1.319933
  0
VERTEX
  8
PLAN_1
 62
     2
  6
CONTINUOUS
 10
-0.658681
 20
-1.318874
  0
VERTEX
  8
PLAN_1
 62
     2
  6
CONTINUOUS
 10
-0.660795
 20
-1.318346
  0
VERTEX
  8
PLAN_1
 62
     2
  6
CONTINUOUS
 10
-0.663441
 20
-1.318346
  0
VERTEX
  8
PLAN_1
 62
     2
  6
CONTINUOUS
 10
-0.665555
 20
-1.318346
  0
VERTEX
  8
PLAN_1
 62
     2
  6
CONTINUOUS
 10
-0.667669
 20
-1.318874
  0
VERTEX
  8
PLAN_1
 62
     2
  6
CONTINUOUS
 10
-0.669783
 20
-1.319933
  0
VERTEX
  8
PLAN_1
 62
     2
  6
CONTINUOUS
 10
-0.671370
 20
-1.320461
  0
VERTEX
  8
PLAN_1
 62
     2
  6
CONTINUOUS
 10
-0.674016
 20
-1.323106
  0
VERTEX
  8
PLAN_1
 62
     2
  6
CONTINUOUS
 10
-0.676130
 20
-1.326280
  0
VERTEX
  8
PLAN_1
 62
     2
  6
CONTINUOUS
 10
-0.677717
 20
-1.329449
  0
VERTEX
  8
PLAN_1
 62
     2
  6
CONTINUOUS
 10
-0.678776
 20
-1.333150
  0
VERTEX
  8
PLAN_1
 62
     2
  6
CONTINUOUS
 10
-0.679303
 20
-1.336323
  0
VERTEX
  8
PLAN_1
 62
     2
  6
CONTINUOUS
 10
-0.679303
 20
-1.339496
  0
VERTEX
  8
PLAN_1
 62
     2
  6
CONTINUOUS
 10
-0.679303
 20
-1.342142
  0
VERTEX
  8
PLAN_1
 62
     2
  6
CONTINUOUS
 10
-0.678776
 20
-1.345843
  0
VERTEX
  8
PLAN_1
 62
     2
  6
CONTINUOUS
 10
-0.677717
 20
-1.349016
  0
VERTEX
  8
PLAN_1
 62
     2
  6
CONTINUOUS
 10
-0.676130
 20
-1.352185
  0
VERTEX
  8
PLAN_1
 62
     2
  6
CONTINUOUS
 10
-0.674016
 20
-1.355358
  0
VERTEX
  8
PLAN_1
 62
     2
  6
CONTINUOUS
 10
-0.671370
 20
-1.358004
  0
VERTEX
  8
PLAN_1
 62
     2
  6
CONTINUOUS
 10
-0.669783
 20
-1.358531
  0
VERTEX
  8
PLAN_1
 62
     2
  6
CONTINUOUS
 10
-0.667669
 20
-1.359591
  0
VERTEX
  8
PLAN_1
 62
     2
  6
CONTINUOUS
 10
-0.665555
 20
-1.360118
  0
VERTEX
  8
PLAN_1
 62
     2
  6
CONTINUOUS
 10
-0.663441
 20
-1.360118
  0
SEQEND
  8
0
  0
POLYLINE
  8
PLAN_1
 62
     2
  6
CONTINUOUS
 66
     1
 40
0.003000
 41
0.003000
  0
VERTEX
  8
PLAN_1
 62
     2
  6
CONTINUOUS
 10
-0.592059
 20
-1.366465
  0
VERTEX
  8
PLAN_1
 62
     2
  6
CONTINUOUS
 10
-0.592059
 20
-1.358531
  0
VERTEX
  8
PLAN_1
 62
     2
  6
CONTINUOUS
 10
-0.592587
 20
-1.358531
  0
VERTEX
  8
PLAN_1
 62
     2
  6
CONTINUOUS
 10
-0.593646
 20
-1.360646
  0
VERTEX
  8
PLAN_1
 62
     2
  6
CONTINUOUS
 10
-0.595232
 20
-1.362760
  0
VERTEX
  8
PLAN_1
 62
     2
  6
CONTINUOUS
 10
-0.597346
 20
-1.364346
  0
VERTEX
  8
PLAN_1
 62
     2
  6
CONTINUOUS
 10
-0.598933
 20
-1.365406
  0
VERTEX
  8
PLAN_1
 62
     2
  6
CONTINUOUS
 10
-0.601575
 20
-1.366465
  0
VERTEX
  8
PLAN_1
 62
     2
  6
CONTINUOUS
 10
-0.603693
 20
-1.367520
  0
VERTEX
  8
PLAN_1
 62
     2
  6
CONTINUOUS
 10
-0.606335
 20
-1.368047
  0
VERTEX
  8
PLAN_1
 62
     2
  6
CONTINUOUS
 10
-0.609508
 20
-1.368047
  0
VERTEX
  8
PLAN_1
 62
     2
  6
CONTINUOUS
 10
-0.612681
 20
-1.368047
  0
VERTEX
  8
PLAN_1
 62
     2
  6
CONTINUOUS
 10
-0.615854
 20
-1.367520
  0
VERTEX
  8
PLAN_1
 62
     2
  6
CONTINUOUS
 10
-0.619024
 20
-1.365933
  0
VERTEX
  8
PLAN_1
 62
     2
  6
CONTINUOUS
 10
-0.621669
 20
-1.364346
  0
VERTEX
  8
PLAN_1
 62
     2
  6
CONTINUOUS
 10
-0.623783
 20
-1.362232
  0
VERTEX
  8
PLAN_1
 62
     2
  6
CONTINUOUS
 10
-0.625898
 20
-1.359591
  0
VERTEX
  8
PLAN_1
 62
     2
  6
CONTINUOUS
 10
-0.626957
 20
-1.355886
  0
VERTEX
  8
PLAN_1
 62
     2
  6
CONTINUOUS
 10
-0.627484
 20
-1.351130
  0
VERTEX
  8
PLAN_1
 62
     2
  6
CONTINUOUS
 10
-0.627484
 20
-1.312000
  0
VERTEX
  8
PLAN_1
 62
     2
  6
CONTINUOUS
 10
-0.617969
 20
-1.312000
  0
VERTEX
  8
PLAN_1
 62
     2
  6
CONTINUOUS
 10
-0.617969
 20
-1.347957
  0
VERTEX
  8
PLAN_1
 62
     2
  6
CONTINUOUS
 10
-0.617969
 20
-1.351130
  0
VERTEX
  8
PLAN_1
 62
     2
  6
CONTINUOUS
 10
-0.617437
 20
-1.353772
  0
VERTEX
  8
PLAN_1
 62
     2
  6
CONTINUOUS
 10
-0.616382
 20
-1.355886
  0
VERTEX
  8
PLAN_1
 62
     2
  6
CONTINUOUS
 10
-0.615323
 20
-1.357472
  0
VERTEX
  8
PLAN_1
 62
     2
  6
CONTINUOUS
 10
-0.613736
 20
-1.358531
  0
VERTEX
  8
PLAN_1
 62
     2
  6
CONTINUOUS
 10
-0.611622
 20
-1.359591
  0
VERTEX
  8
PLAN_1
 62
     2
  6
CONTINUOUS
 10
-0.610035
 20
-1.360118
  0
VERTEX
  8
PLAN_1
 62
     2
  6
CONTINUOUS
 10
-0.607921
 20
-1.360118
  0
VERTEX
  8
PLAN_1
 62
     2
  6
CONTINUOUS
 10
-0.603693
 20
-1.359591
  0
VERTEX
  8
PLAN_1
 62
     2
  6
CONTINUOUS
 10
-0.600520
 20
-1.358531
  0
VERTEX
  8
PLAN_1
 62
     2
  6
CONTINUOUS
 10
-0.597874
 20
-1.356417
  0
VERTEX
  8
PLAN_1
 62
     2
  6
CONTINUOUS
 10
-0.595760
 20
-1.354303
  0
VERTEX
  8
PLAN_1
 62
     2
  6
CONTINUOUS
 10
-0.594173
 20
-1.351130
  0
VERTEX
  8
PLAN_1
 62
     2
  6
CONTINUOUS
 10
-0.593646
 20
-1.348484
  0
VERTEX
  8
PLAN_1
 62
     2
  6
CONTINUOUS
 10
-0.593118
 20
-1.345311
  0
VERTEX
  8
PLAN_1
 62
     2
  6
CONTINUOUS
 10
-0.592587
 20
-1.342142
  0
VERTEX
  8
PLAN_1
 62
     2
  6
CONTINUOUS
 10
-0.592587
 20
-1.312000
  0
VERTEX
  8
PLAN_1
 62
     2
  6
CONTINUOUS
 10
-0.583598
 20
-1.312000
  0
VERTEX
  8
PLAN_1
 62
     2
  6
CONTINUOUS
 10
-0.583598
 20
-1.366465
  0
VERTEX
  8
PLAN_1
 62
     2
  6
CONTINUOUS
 10
-0.592059
 20
-1.366465
  0
SEQEND
  8
0
  0
POLYLINE
  8
PLAN_1
 62
     2
  6
CONTINUOUS
 66
     1
 40
0.003000
 41
0.003000
  0
VERTEX
  8
PLAN_1
 62
     2
  6
CONTINUOUS
 10
-0.529665
 20
-1.319933
  0
VERTEX
  8
PLAN_1
 62
     2
  6
CONTINUOUS
 10
-0.529665
 20
-1.354831
  0
VERTEX
  8
PLAN_1
 62
     2
  6
CONTINUOUS
 10
-0.529665
 20
-1.356417
  0
VERTEX
  8
PLAN_1
 62
     2
  6
CONTINUOUS
 10
-0.529138
 20
-1.357472
  0
VERTEX
  8
PLAN_1
 62
     2
  6
CONTINUOUS
 10
-0.528079
 20
-1.358531
  0
VERTEX
  8
PLAN_1
 62
     2
  6
CONTINUOUS
 10
-0.527551
 20
-1.359059
  0
VERTEX
  8
PLAN_1
 62
     2
  6
CONTINUOUS
 10
-0.526492
 20
-1.359059
  0
VERTEX
  8
PLAN_1
 62
     2
  6
CONTINUOUS
 10
-0.525965
 20
-1.359059
  0
VERTEX
  8
PLAN_1
 62
     2
  6
CONTINUOUS
 10
-0.524906
 20
-1.359591
  0
VERTEX
  8
PLAN_1
 62
     2
  6
CONTINUOUS
 10
-0.523850
 20
-1.359591
  0
VERTEX
  8
PLAN_1
 62
     2
  6
CONTINUOUS
 10
-0.520677
 20
-1.359591
  0
VERTEX
  8
PLAN_1
 62
     2
  6
CONTINUOUS
 10
-0.520677
 20
-1.366465
  0
VERTEX
  8
PLAN_1
 62
     2
  6
CONTINUOUS
 10
-0.522264
 20
-1.366465
  0
VERTEX
  8
PLAN_1
 62
     2
  6
CONTINUOUS
 10
-0.523323
 20
-1.366992
  0
VERTEX
  8
PLAN_1
 62
     2
  6
CONTINUOUS
 10
-0.524378
 20
-1.366992
  0
VERTEX
  8
PLAN_1
 62
     2
  6
CONTINUOUS
 10
-0.524906
 20
-1.366992
  0
VERTEX
  8
PLAN_1
 62
     2
  6
CONTINUOUS
 10
-0.525965
 20
-1.366992
  0
VERTEX
  8
PLAN_1
 62
     2
  6
CONTINUOUS
 10
-0.526492
 20
-1.366992
  0
VERTEX
  8
PLAN_1
 62
     2
  6
CONTINUOUS
 10
-0.527024
 20
-1.366992
  0
VERTEX
  8
PLAN_1
 62
     2
  6
CONTINUOUS
 10
-0.527551
 20
-1.366992
  0
VERTEX
  8
PLAN_1
 62
     2
  6
CONTINUOUS
 10
-0.530724
 20
-1.366992
  0
VERTEX
  8
PLAN_1
 62
     2
  6
CONTINUOUS
 10
-0.533366
 20
-1.366465
  0
VERTEX
  8
PLAN_1
 62
     2
  6
CONTINUOUS
 10
-0.534953
 20
-1.365406
  0
VERTEX
  8
PLAN_1
 62
     2
  6
CONTINUOUS
 10
-0.536539
 20
-1.363819
  0
VERTEX
  8
PLAN_1
 62
     2
  6
CONTINUOUS
 10
-0.537598
 20
-1.362232
  0
VERTEX
  8
PLAN_1
 62
     2
  6
CONTINUOUS
 10
-0.538126
 20
-1.360118
  0
VERTEX
  8
PLAN_1
 62
     2
  6
CONTINUOUS
 10
-0.538654
 20
-1.358004
  0
VERTEX
  8
PLAN_1
 62
     2
  6
CONTINUOUS
 10
-0.538654
 20
-1.355358
  0
VERTEX
  8
PLAN_1
 62
     2
  6
CONTINUOUS
 10
-0.538654
 20
-1.319933
  0
VERTEX
  8
PLAN_1
 62
     2
  6
CONTINUOUS
 10
-0.546059
 20
-1.319933
  0
VERTEX
  8
PLAN_1
 62
     2
  6
CONTINUOUS
 10
-0.546059
 20
-1.312000
  0
VERTEX
  8
PLAN_1
 62
     2
  6
CONTINUOUS
 10
-0.538654
 20
-1.312000
  0
VERTEX
  8
PLAN_1
 62
     2
  6
CONTINUOUS
 10
-0.538654
 20
-1.296669
  0
VERTEX
  8
PLAN_1
 62
     2
  6
CONTINUOUS
 10
-0.529665
 20
-1.296669
  0
VERTEX
  8
PLAN_1
 62
     2
  6
CONTINUOUS
 10
-0.529665
 20
-1.312000
  0
VERTEX
  8
PLAN_1
 62
     2
  6
CONTINUOUS
 10
-0.520677
 20
-1.312000
  0
VERTEX
  8
PLAN_1
 62
     2
  6
CONTINUOUS
 10
-0.520677
 20
-1.319933
  0
VERTEX
  8
PLAN_1
 62
     2
  6
CONTINUOUS
 10
-0.529665
 20
-1.319933
  0
SEQEND
  8
0
  0
POLYLINE
  8
PLAN_1
 62
     2
  6
CONTINUOUS
 66
     1
 40
0.003000
 41
0.003000
  0
VERTEX
  8
PLAN_1
 62
     2
  6
CONTINUOUS
 10
-0.512217
 20
-1.328394
  0
VERTEX
  8
PLAN_1
 62
     2
  6
CONTINUOUS
 10
-0.511689
 20
-1.324161
  0
VERTEX
  8
PLAN_1
 62
     2
  6
CONTINUOUS
 10
-0.510630
 20
-1.320461
  0
VERTEX
  8
PLAN_1
 62
     2
  6
CONTINUOUS
 10
-0.508516
 20
-1.317287
  0
VERTEX
  8
PLAN_1
 62
     2
  6
CONTINUOUS
 10
-0.505874
 20
-1.314646
  0
VERTEX
  8
PLAN_1
 62
     2
  6
CONTINUOUS
 10
-0.502701
 20
-1.313059
  0
VERTEX
  8
PLAN_1
 62
     2
  6
CONTINUOUS
 10
-0.499000
 20
-1.311472
  0
VERTEX
  8
PLAN_1
 62
     2
  6
CONTINUOUS
 10
-0.494768
 20
-1.310945
  0
VERTEX
  8
PLAN_1
 62
     2
  6
CONTINUOUS
 10
-0.489480
 20
-1.310413
  0
VERTEX
  8
PLAN_1
 62
     2
  6
CONTINUOUS
 10
-0.487366
 20
-1.310413
  0
VERTEX
  8
PLAN_1
 62
     2
  6
CONTINUOUS
 10
-0.484720
 20
-1.310945
  0
VERTEX
  8
PLAN_1
 62
     2
  6
CONTINUOUS
 10
-0.481551
 20
-1.311472
  0
VERTEX
  8
PLAN_1
 62
     2
  6
CONTINUOUS
 10
-0.477850
 20
-1.313059
  0
VERTEX
  8
PLAN_1
 62
     2
  6
CONTINUOUS
 10
-0.474677
 20
-1.314646
  0
VERTEX
  8
PLAN_1
 62
     2
  6
CONTINUOUS
 10
-0.472031
 20
-1.317287
  0
VERTEX
  8
PLAN_1
 62
     2
  6
CONTINUOUS
 10
-0.470976
 20
-1.319406
  0
VERTEX
  8
PLAN_1
 62
     2
  6
CONTINUOUS
 10
-0.470445
 20
-1.320992
  0
VERTEX
  8
PLAN_1
 62
     2
  6
CONTINUOUS
 10
-0.469917
 20
-1.323106
  0
VERTEX
  8
PLAN_1
 62
     2
  6
CONTINUOUS
 10
-0.469390
 20
-1.325748
  0
VERTEX
  8
PLAN_1
 62
     2
  6
CONTINUOUS
 10
-0.469390
 20
-1.356945
  0
VERTEX
  8
PLAN_1
 62
     2
  6
CONTINUOUS
 10
-0.469390
 20
-1.358004
  0
VERTEX
  8
PLAN_1
 62
     2
  6
CONTINUOUS
 10
-0.469390
 20
-1.358531
  0
VERTEX
  8
PLAN_1
 62
     2
  6
CONTINUOUS
 10
-0.468858
 20
-1.359059
  0
VERTEX
  8
PLAN_1
 62
     2
  6
CONTINUOUS
 10
-0.468858
 20
-1.359591
  0
VERTEX
  8
PLAN_1
 62
     2
  6
CONTINUOUS
 10
-0.468331
 20
-1.360118
  0
VERTEX
  8
PLAN_1
 62
     2
  6
CONTINUOUS
 10
-0.467803
 20
-1.360118
  0
VERTEX
  8
PLAN_1
 62
     2
  6
CONTINUOUS
 10
-0.467276
 20
-1.360118
  0
VERTEX
  8
PLAN_1
 62
     2
  6
CONTINUOUS
 10
-0.466744
 20
-1.360118
  0
VERTEX
  8
PLAN_1
 62
     2
  6
CONTINUOUS
 10
-0.466217
 20
-1.360118
  0
VERTEX
  8
PLAN_1
 62
     2
  6
CONTINUOUS
 10
-0.465689
 20
-1.360118
  0
VERTEX
  8
PLAN_1
 62
     2
  6
CONTINUOUS
 10
-0.465157
 20
-1.360118
  0
VERTEX
  8
PLAN_1
 62
     2
  6
CONTINUOUS
 10
-0.464630
 20
-1.360118
  0
VERTEX
  8
PLAN_1
 62
     2
  6
CONTINUOUS
 10
-0.464102
 20
-1.360118
  0
VERTEX
  8
PLAN_1
 62
     2
  6
CONTINUOUS
 10
-0.463571
 20
-1.360118
  0
VERTEX
  8
PLAN_1
 62
     2
  6
CONTINUOUS
 10
-0.463571
 20
-1.366465
  0
VERTEX
  8
PLAN_1
 62
     2
  6
CONTINUOUS
 10
-0.464102
 20
-1.366465
  0
VERTEX
  8
PLAN_1
 62
     2
  6
CONTINUOUS
 10
-0.464630
 20
-1.366992
  0
VERTEX
  8
PLAN_1
 62
     2
  6
CONTINUOUS
 10
-0.465157
 20
-1.366992
  0
VERTEX
  8
PLAN_1
 62
     2
  6
CONTINUOUS
 10
-0.465689
 20
-1.366992
  0
VERTEX
  8
PLAN_1
 62
     2
  6
CONTINUOUS
 10
-0.466217
 20
-1.367520
  0
VERTEX
  8
PLAN_1
 62
     2
  6
CONTINUOUS
 10
-0.467276
 20
-1.367520
  0
VERTEX
  8
PLAN_1
 62
     2
  6
CONTINUOUS
 10
-0.467803
 20
-1.367520
  0
VERTEX
  8
PLAN_1
 62
     2
  6
CONTINUOUS
 10
-0.468331
 20
-1.367520
  0
VERTEX
  8
PLAN_1
 62
     2
  6
CONTINUOUS
 10
-0.470976
 20
-1.367520
  0
VERTEX
  8
PLAN_1
 62
     2
  6
CONTINUOUS
 10
-0.473618
 20
-1.366992
  0
VERTEX
  8
PLAN_1
 62
     2
  6
CONTINUOUS
 10
-0.475205
 20
-1.365933
  0
VERTEX
  8
PLAN_1
 62
     2
  6
CONTINUOUS
 10
-0.476264
 20
-1.364878
  0
VERTEX
  8
PLAN_1
 62
     2
  6
CONTINUOUS
 10
-0.477319
 20
-1.363819
  0
VERTEX
  8
PLAN_1
 62
     2
  6
CONTINUOUS
 10
-0.477850
 20
-1.362232
  0
VERTEX
  8
PLAN_1
 62
     2
  6
CONTINUOUS
 10
-0.477850
 20
-1.360646
  0
VERTEX
  8
PLAN_1
 62
     2
  6
CONTINUOUS
 10
-0.478378
 20
-1.359059
  0
VERTEX
  8
PLAN_1
 62
     2
  6
CONTINUOUS
 10
-0.479433
 20
-1.360646
  0
VERTEX
  8
PLAN_1
 62
     2
  6
CONTINUOUS
 10
-0.481020
 20
-1.362232
  0
VERTEX
  8
PLAN_1
 62
     2
  6
CONTINUOUS
 10
-0.483138
 20
-1.363819
  0
VERTEX
  8
PLAN_1
 62
     2
  6
CONTINUOUS
 10
-0.485252
 20
-1.364878
  0
VERTEX
  8
PLAN_1
 62
     2
  6
CONTINUOUS
 10
-0.487894
 20
-1.366465
  0
VERTEX
  8
PLAN_1
 62
     2
  6
CONTINUOUS
 10
-0.490539
 20
-1.366992
  0
VERTEX
  8
PLAN_1
 62
     2
  6
CONTINUOUS
 10
-0.494240
 20
-1.368047
  0
VERTEX
  8
PLAN_1
 62
     2
  6
CONTINUOUS
 10
-0.497941
 20
-1.368047
  0
VERTEX
  8
PLAN_1
 62
     2
  6
CONTINUOUS
 10
-0.501642
 20
-1.368047
  0
VERTEX
  8
PLAN_1
 62
     2
  6
CONTINUOUS
 10
-0.504815
 20
-1.366992
  0
VERTEX
  8
PLAN_1
 62
     2
  6
CONTINUOUS
 10
-0.507461
 20
-1.365406
  0
VERTEX
  8
PLAN_1
 62
     2
  6
CONTINUOUS
 10
-0.510102
 20
-1.363819
  0
VERTEX
  8
PLAN_1
 62
     2
  6
CONTINUOUS
 10
-0.512217
 20
-1.361705
  0
VERTEX
  8
PLAN_1
 62
     2
  6
CONTINUOUS
 10
-0.513803
 20
-1.358531
  0
VERTEX
  8
PLAN_1
 62
     2
  6
CONTINUOUS
 10
-0.514331
 20
-1.355886
  0
VERTEX
  8
PLAN_1
 62
     2
  6
CONTINUOUS
 10
-0.514862
 20
-1.352185
  0
VERTEX
  8
PLAN_1
 62
     2
  6
CONTINUOUS
 10
-0.514862
 20
-1.350598
  0
VERTEX
  8
PLAN_1
 62
     2
  6
CONTINUOUS
 10
-0.514331
 20
-1.347957
  0
VERTEX
  8
PLAN_1
 62
     2
  6
CONTINUOUS
 10
-0.513803
 20
-1.345311
  0
VERTEX
  8
PLAN_1
 62
     2
  6
CONTINUOUS
 10
-0.512217
 20
-1.342669
  0
VERTEX
  8
PLAN_1
 62
     2
  6
CONTINUOUS
 10
-0.510102
 20
-1.340555
  0
VERTEX
  8
PLAN_1
 62
     2
  6
CONTINUOUS
 10
-0.507461
 20
-1.337909
  0
VERTEX
  8
PLAN_1
 62
     2
  6
CONTINUOUS
 10
-0.503228
 20
-1.336323
  0
VERTEX
  8
PLAN_1
 62
     2
  6
CONTINUOUS
 10
-0.498469
 20
-1.335268
  0
VERTEX
  8
PLAN_1
 62
     2
  6
CONTINUOUS
 10
-0.483138
 20
-1.333681
  0
VERTEX
  8
PLAN_1
 62
     2
  6
CONTINUOUS
 10
-0.482606
 20
-1.333150
  0
VERTEX
  8
PLAN_1
 62
     2
  6
CONTINUOUS
 10
-0.481551
 20
-1.333150
  0
VERTEX
  8
PLAN_1
 62
     2
  6
CONTINUOUS
 10
-0.481020
 20
-1.332622
  0
VERTEX
  8
PLAN_1
 62
     2
  6
CONTINUOUS
 10
-0.479965
 20
-1.332094
  0
VERTEX
  8
PLAN_1
 62
     2
  6
CONTINUOUS
 10
-0.479433
 20
-1.331567
  0
VERTEX
  8
PLAN_1
 62
     2
  6
CONTINUOUS
 10
-0.478906
 20
-1.330508
  0
VERTEX
  8
PLAN_1
 62
     2
  6
CONTINUOUS
 10
-0.478378
 20
-1.328921
  0
VERTEX
  8
PLAN_1
 62
     2
  6
CONTINUOUS
 10
-0.478378
 20
-1.326807
  0
VERTEX
  8
PLAN_1
 62
     2
  6
CONTINUOUS
 10
-0.478906
 20
-1.325220
  0
VERTEX
  8
PLAN_1
 62
     2
  6
CONTINUOUS
 10
-0.479433
 20
-1.323106
  0
VERTEX
  8
PLAN_1
 62
     2
  6
CONTINUOUS
 10
-0.480492
 20
-1.321520
  0
VERTEX
  8
PLAN_1
 62
     2
  6
CONTINUOUS
 10
-0.481551
 20
-1.320461
  0
VERTEX
  8
PLAN_1
 62
     2
  6
CONTINUOUS
 10
-0.483665
 20
-1.319406
  0
VERTEX
  8
PLAN_1
 62
     2
  6
CONTINUOUS
 10
-0.485780
 20
-1.318874
  0
VERTEX
  8
PLAN_1
 62
     2
  6
CONTINUOUS
 10
-0.488425
 20
-1.318346
  0
VERTEX
  8
PLAN_1
 62
     2
  6
CONTINUOUS
 10
-0.491067
 20
-1.318346
  0
VERTEX
  8
PLAN_1
 62
     2
  6
CONTINUOUS
 10
-0.494768
 20
-1.318346
  0
VERTEX
  8
PLAN_1
 62
     2
  6
CONTINUOUS
 10
-0.497413
 20
-1.319406
  0
VERTEX
  8
PLAN_1
 62
     2
  6
CONTINUOUS
 10
-0.499528
 20
-1.320461
  0
VERTEX
  8
PLAN_1
 62
     2
  6
CONTINUOUS
 10
-0.501114
 20
-1.322047
  0
VERTEX
  8
PLAN_1
 62
     2
  6
CONTINUOUS
 10
-0.502169
 20
-1.323634
  0
VERTEX
  8
PLAN_1
 62
     2
  6
CONTINUOUS
 10
-0.503228
 20
-1.325220
  0
VERTEX
  8
PLAN_1
 62
     2
  6
CONTINUOUS
 10
-0.503228
 20
-1.326807
  0
VERTEX
  8
PLAN_1
 62
     2
  6
CONTINUOUS
 10
-0.503756
 20
-1.328394
  0
VERTEX
  8
PLAN_1
 62
     2
  6
CONTINUOUS
 10
-0.512217
 20
-1.328394
  0
SEQEND
  8
0
  0
POLYLINE
  8
PLAN_1
 62
     2
  6
CONTINUOUS
 66
     1
 40
0.003000
 41
0.003000
  0
VERTEX
  8
PLAN_1
 62
     2
  6
CONTINUOUS
 10
-0.478906
 20
-1.338969
  0
VERTEX
  8
PLAN_1
 62
     2
  6
CONTINUOUS
 10
-0.479433
 20
-1.338969
  0
VERTEX
  8
PLAN_1
 62
     2
  6
CONTINUOUS
 10
-0.479965
 20
-1.339496
  0
VERTEX
  8
PLAN_1
 62
     2
  6
CONTINUOUS
 10
-0.481020
 20
-1.340024
  0
VERTEX
  8
PLAN_1
 62
     2
  6
CONTINUOUS
 10
-0.482606
 20
-1.340555
  0
VERTEX
  8
PLAN_1
 62
     2
  6
CONTINUOUS
 10
-0.484193
 20
-1.340555
  0
VERTEX
  8
PLAN_1
 62
     2
  6
CONTINUOUS
 10
-0.486839
 20
-1.341083
  0
VERTEX
  8
PLAN_1
 62
     2
  6
CONTINUOUS
 10
-0.490012
 20
-1.341610
  0
VERTEX
  8
PLAN_1
 62
     2
  6
CONTINUOUS
 10
-0.493713
 20
-1.342142
  0
VERTEX
  8
PLAN_1
 62
     2
  6
CONTINUOUS
 10
-0.495299
 20
-1.342669
  0
VERTEX
  8
PLAN_1
 62
     2
  6
CONTINUOUS
 10
-0.497413
 20
-1.342669
  0
VERTEX
  8
PLAN_1
 62
     2
  6
CONTINUOUS
 10
-0.499528
 20
-1.343197
  0
VERTEX
  8
PLAN_1
 62
     2
  6
CONTINUOUS
 10
-0.501114
 20
-1.344256
  0
VERTEX
  8
PLAN_1
 62
     2
  6
CONTINUOUS
 10
-0.502701
 20
-1.345311
  0
VERTEX
  8
PLAN_1
 62
     2
  6
CONTINUOUS
 10
-0.504287
 20
-1.346898
  0
VERTEX
  8
PLAN_1
 62
     2
  6
CONTINUOUS
 10
-0.505343
 20
-1.348484
  0
VERTEX
  8
PLAN_1
 62
     2
  6
CONTINUOUS
 10
-0.505343
 20
-1.351130
  0
VERTEX
  8
PLAN_1
 62
     2
  6
CONTINUOUS
 10
-0.505343
 20
-1.353244
  0
VERTEX
  8
PLAN_1
 62
     2
  6
CONTINUOUS
 10
-0.504815
 20
-1.354831
  0
VERTEX
  8
PLAN_1
 62
     2
  6
CONTINUOUS
 10
-0.504287
 20
-1.356417
  0
VERTEX
  8
PLAN_1
 62
     2
  6
CONTINUOUS
 10
-0.503228
 20
-1.358004
  0
VERTEX
  8
PLAN_1
 62
     2
  6
CONTINUOUS
 10
-0.501642
 20
-1.359059
  0
VERTEX
  8
PLAN_1
 62
     2
  6
CONTINUOUS
 10
-0.500055
 20
-1.359591
  0
VERTEX
  8
PLAN_1
 62
     2
  6
CONTINUOUS
 10
-0.497941
 20
-1.360118
  0
VERTEX
  8
PLAN_1
 62
     2
  6
CONTINUOUS
 10
-0.495299
 20
-1.360646
  0
VERTEX
  8
PLAN_1
 62
     2
  6
CONTINUOUS
 10
-0.492126
 20
-1.360118
  0
VERTEX
  8
PLAN_1
 62
     2
  6
CONTINUOUS
 10
-0.489480
 20
-1.359591
  0
VERTEX
  8
PLAN_1
 62
     2
  6
CONTINUOUS
 10
-0.486307
 20
-1.358531
  0
VERTEX
  8
PLAN_1
 62
     2
  6
CONTINUOUS
 10
-0.483665
 20
-1.356945
  0
VERTEX
  8
PLAN_1
 62
     2
  6
CONTINUOUS
 10
-0.481551
 20
-1.354831
  0
VERTEX
  8
PLAN_1
 62
     2
  6
CONTINUOUS
 10
-0.479965
 20
-1.352717
  0
VERTEX
  8
PLAN_1
 62
     2
  6
CONTINUOUS
 10
-0.478906
 20
-1.350598
  0
VERTEX
  8
PLAN_1
 62
     2
  6
CONTINUOUS
 10
-0.478906
 20
-1.347429
  0
VERTEX
  8
PLAN_1
 62
     2
  6
CONTINUOUS
 10
-0.478906
 20
-1.338969
  0
SEQEND
  8
0
  0
POLYLINE
  8
PLAN_1
 62
     2
  6
CONTINUOUS
 66
     1
 40
0.003000
 41
0.003000
  0
VERTEX
  8
PLAN_1
 62
     2
  6
CONTINUOUS
 10
-0.443480
 20
-1.366465
  0
VERTEX
  8
PLAN_1
 62
     2
  6
CONTINUOUS
 10
-0.452469
 20
-1.366465
  0
VERTEX
  8
PLAN_1
 62
     2
  6
CONTINUOUS
 10
-0.452469
 20
-1.312000
  0
VERTEX
  8
PLAN_1
 62
     2
  6
CONTINUOUS
 10
-0.444008
 20
-1.312000
  0
VERTEX
  8
PLAN_1
 62
     2
  6
CONTINUOUS
 10
-0.444008
 20
-1.320992
  0
VERTEX
  8
PLAN_1
 62
     2
  6
CONTINUOUS
 10
-0.442421
 20
-1.318874
  0
VERTEX
  8
PLAN_1
 62
     2
  6
CONTINUOUS
 10
-0.440835
 20
-1.316760
  0
VERTEX
  8
PLAN_1
 62
     2
  6
CONTINUOUS
 10
-0.439248
 20
-1.315173
  0
VERTEX
  8
PLAN_1
 62
     2
  6
CONTINUOUS
 10
-0.437665
 20
-1.313587
  0
VERTEX
  8
PLAN_1
 62
     2
  6
CONTINUOUS
 10
-0.435547
 20
-1.312000
  0
VERTEX
  8
PLAN_1
 62
     2
  6
CONTINUOUS
 10
-0.433433
 20
-1.311472
  0
VERTEX
  8
PLAN_1
 62
     2
  6
CONTINUOUS
 10
-0.431319
 20
-1.310945
  0
VERTEX
  8
PLAN_1
 62
     2
  6
CONTINUOUS
 10
-0.428673
 20
-1.310413
  0
VERTEX
  8
PLAN_1
 62
     2
  6
CONTINUOUS
 10
-0.428146
 20
-1.310413
  0
VERTEX
  8
PLAN_1
 62
     2
  6
CONTINUOUS
 10
-0.427618
 20
-1.310413
  0
VERTEX
  8
PLAN_1
 62
     2
  6
CONTINUOUS
 10
-0.427091
 20
-1.310413
  0
VERTEX
  8
PLAN_1
 62
     2
  6
CONTINUOUS
 10
-0.426559
 20
-1.310945
  0
VERTEX
  8
PLAN_1
 62
     2
  6
CONTINUOUS
 10
-0.426031
 20
-1.310945
  0
VERTEX
  8
PLAN_1
 62
     2
  6
CONTINUOUS
 10
-0.426031
 20
-1.320461
  0
VERTEX
  8
PLAN_1
 62
     2
  6
CONTINUOUS
 10
-0.429732
 20
-1.320461
  0
VERTEX
  8
PLAN_1
 62
     2
  6
CONTINUOUS
 10
-0.432906
 20
-1.320461
  0
VERTEX
  8
PLAN_1
 62
     2
  6
CONTINUOUS
 10
-0.435547
 20
-1.321520
  0
VERTEX
  8
PLAN_1
 62
     2
  6
CONTINUOUS
 10
-0.437665
 20
-1.323106
  0
VERTEX
  8
PLAN_1
 62
     2
  6
CONTINUOUS
 10
-0.439780
 20
-1.324693
  0
VERTEX
  8
PLAN_1
 62
     2
  6
CONTINUOUS
 10
-0.441366
 20
-1.326807
  0
VERTEX
  8
PLAN_1
 62
     2
  6
CONTINUOUS
 10
-0.442421
 20
-1.329449
  0
VERTEX
  8
PLAN_1
 62
     2
  6
CONTINUOUS
 10
-0.443480
 20
-1.332094
  0
VERTEX
  8
PLAN_1
 62
     2
  6
CONTINUOUS
 10
-0.443480
 20
-1.334736
  0
VERTEX
  8
PLAN_1
 62
     2
  6
CONTINUOUS
 10
-0.443480
 20
-1.366465
  0
SEQEND
  8
0
  0
POLYLINE
  8
PLAN_1
 62
     2
  6
CONTINUOUS
 66
     1
 40
0.003000
 41
0.003000
  0
VERTEX
  8
PLAN_1
 62
     2
  6
CONTINUOUS
 10
-0.420744
 20
-1.328394
  0
VERTEX
  8
PLAN_1
 62
     2
  6
CONTINUOUS
 10
-0.420217
 20
-1.324161
  0
VERTEX
  8
PLAN_1
 62
     2
  6
CONTINUOUS
 10
-0.418630
 20
-1.320461
  0
VERTEX
  8
PLAN_1
 62
     2
  6
CONTINUOUS
 10
-0.417043
 20
-1.317287
  0
VERTEX
  8
PLAN_1
 62
     2
  6
CONTINUOUS
 10
-0.414398
 20
-1.314646
  0
VERTEX
  8
PLAN_1
 62
     2
  6
CONTINUOUS
 10
-0.411224
 20
-1.313059
  0
VERTEX
  8
PLAN_1
 62
     2
  6
CONTINUOUS
 10
-0.407524
 20
-1.311472
  0
VERTEX
  8
PLAN_1
 62
     2
  6
CONTINUOUS
 10
-0.402768
 20
-1.310945
  0
VERTEX
  8
PLAN_1
 62
     2
  6
CONTINUOUS
 10
-0.398008
 20
-1.310413
  0
VERTEX
  8
PLAN_1
 62
     2
  6
CONTINUOUS
 10
-0.395894
 20
-1.310413
  0
VERTEX
  8
PLAN_1
 62
     2
  6
CONTINUOUS
 10
-0.393248
 20
-1.310945
  0
VERTEX
  8
PLAN_1
 62
     2
  6
CONTINUOUS
 10
-0.390075
 20
-1.311472
  0
VERTEX
  8
PLAN_1
 62
     2
  6
CONTINUOUS
 10
-0.386374
 20
-1.313059
  0
VERTEX
  8
PLAN_1
 62
     2
  6
CONTINUOUS
 10
-0.383201
 20
-1.314646
  0
VERTEX
  8
PLAN_1
 62
     2
  6
CONTINUOUS
 10
-0.380559
 20
-1.317287
  0
VERTEX
  8
PLAN_1
 62
     2
  6
CONTINUOUS
 10
-0.379500
 20
-1.319406
  0
VERTEX
  8
PLAN_1
 62
     2
  6
CONTINUOUS
 10
-0.378445
 20
-1.320992
  0
VERTEX
  8
PLAN_1
 62
     2
  6
CONTINUOUS
 10
-0.377913
 20
-1.323106
  0
VERTEX
  8
PLAN_1
 62
     2
  6
CONTINUOUS
 10
-0.377913
 20
-1.325748
  0
VERTEX
  8
PLAN_1
 62
     2
  6
CONTINUOUS
 10
-0.377913
 20
-1.356945
  0
VERTEX
  8
PLAN_1
 62
     2
  6
CONTINUOUS
 10
-0.377913
 20
-1.358004
  0
VERTEX
  8
PLAN_1
 62
     2
  6
CONTINUOUS
 10
-0.377913
 20
-1.358531
  0
VERTEX
  8
PLAN_1
 62
     2
  6
CONTINUOUS
 10
-0.377386
 20
-1.359059
  0
VERTEX
  8
PLAN_1
 62
     2
  6
CONTINUOUS
 10
-0.377386
 20
-1.359591
  0
VERTEX
  8
PLAN_1
 62
     2
  6
CONTINUOUS
 10
-0.376858
 20
-1.360118
  0
VERTEX
  8
PLAN_1
 62
     2
  6
CONTINUOUS
 10
-0.376327
 20
-1.360118
  0
VERTEX
  8
PLAN_1
 62
     2
  6
CONTINUOUS
 10
-0.375799
 20
-1.360118
  0
VERTEX
  8
PLAN_1
 62
     2
  6
CONTINUOUS
 10
-0.374744
 20
-1.360118
  0
VERTEX
  8
PLAN_1
 62
     2
  6
CONTINUOUS
 10
-0.374213
 20
-1.360118
  0
VERTEX
  8
PLAN_1
 62
     2
  6
CONTINUOUS
 10
-0.373685
 20
-1.360118
  0
VERTEX
  8
PLAN_1
 62
     2
  6
CONTINUOUS
 10
-0.373157
 20
-1.360118
  0
VERTEX
  8
PLAN_1
 62
     2
  6
CONTINUOUS
 10
-0.372626
 20
-1.360118
  0
VERTEX
  8
PLAN_1
 62
     2
  6
CONTINUOUS
 10
-0.372098
 20
-1.360118
  0
VERTEX
  8
PLAN_1
 62
     2
  6
CONTINUOUS
 10
-0.372098
 20
-1.366465
  0
VERTEX
  8
PLAN_1
 62
     2
  6
CONTINUOUS
 10
-0.372626
 20
-1.366465
  0
VERTEX
  8
PLAN_1
 62
     2
  6
CONTINUOUS
 10
-0.373157
 20
-1.366992
  0
VERTEX
  8
PLAN_1
 62
     2
  6
CONTINUOUS
 10
-0.373685
 20
-1.366992
  0
VERTEX
  8
PLAN_1
 62
     2
  6
CONTINUOUS
 10
-0.374213
 20
-1.366992
  0
VERTEX
  8
PLAN_1
 62
     2
  6
CONTINUOUS
 10
-0.374744
 20
-1.367520
  0
VERTEX
  8
PLAN_1
 62
     2
  6
CONTINUOUS
 10
-0.375272
 20
-1.367520
  0
VERTEX
  8
PLAN_1
 62
     2
  6
CONTINUOUS
 10
-0.376327
 20
-1.367520
  0
VERTEX
  8
PLAN_1
 62
     2
  6
CONTINUOUS
 10
-0.376858
 20
-1.367520
  0
VERTEX
  8
PLAN_1
 62
     2
  6
CONTINUOUS
 10
-0.379500
 20
-1.367520
  0
VERTEX
  8
PLAN_1
 62
     2
  6
CONTINUOUS
 10
-0.381618
 20
-1.366992
  0
VERTEX
  8
PLAN_1
 62
     2
  6
CONTINUOUS
 10
-0.383732
 20
-1.365933
  0
VERTEX
  8
PLAN_1
 62
     2
  6
CONTINUOUS
 10
-0.384787
 20
-1.364878
  0
VERTEX
  8
PLAN_1
 62
     2
  6
CONTINUOUS
 10
-0.385319
 20
-1.363819
  0
VERTEX
  8
PLAN_1
 62
     2
  6
CONTINUOUS
 10
-0.386374
 20
-1.362232
  0
VERTEX
  8
PLAN_1
 62
     2
  6
CONTINUOUS
 10
-0.386374
 20
-1.360646
  0
VERTEX
  8
PLAN_1
 62
     2
  6
CONTINUOUS
 10
-0.386374
 20
-1.359059
  0
VERTEX
  8
PLAN_1
 62
     2
  6
CONTINUOUS
 10
-0.387961
 20
-1.360646
  0
VERTEX
  8
PLAN_1
 62
     2
  6
CONTINUOUS
 10
-0.389547
 20
-1.362232
  0
VERTEX
  8
PLAN_1
 62
     2
  6
CONTINUOUS
 10
-0.391661
 20
-1.363819
  0
VERTEX
  8
PLAN_1
 62
     2
  6
CONTINUOUS
 10
-0.393776
 20
-1.364878
  0
VERTEX
  8
PLAN_1
 62
     2
  6
CONTINUOUS
 10
-0.396421
 20
-1.366465
  0
VERTEX
  8
PLAN_1
 62
     2
  6
CONTINUOUS
 10
-0.399063
 20
-1.366992
  0
VERTEX
  8
PLAN_1
 62
     2
  6
CONTINUOUS
 10
-0.402768
 20
-1.368047
  0
VERTEX
  8
PLAN_1
 62
     2
  6
CONTINUOUS
 10
-0.406469
 20
-1.368047
  0
VERTEX
  8
PLAN_1
 62
     2
  6
CONTINUOUS
 10
-0.409642
 20
-1.368047
  0
VERTEX
  8
PLAN_1
 62
     2
  6
CONTINUOUS
 10
-0.413343
 20
-1.366992
  0
VERTEX
  8
PLAN_1
 62
     2
  6
CONTINUOUS
 10
-0.415984
 20
-1.365406
  0
VERTEX
  8
PLAN_1
 62
     2
  6
CONTINUOUS
 10
-0.418630
 20
-1.363819
  0
VERTEX
  8
PLAN_1
 62
     2
  6
CONTINUOUS
 10
-0.420744
 20
-1.361705
  0
VERTEX
  8
PLAN_1
 62
     2
  6
CONTINUOUS
 10
-0.422331
 20
-1.358531
  0
VERTEX
  8
PLAN_1
 62
     2
  6
CONTINUOUS
 10
-0.422858
 20
-1.355886
  0
VERTEX
  8
PLAN_1
 62
     2
  6
CONTINUOUS
 10
-0.423386
 20
-1.352185
  0
VERTEX
  8
PLAN_1
 62
     2
  6
CONTINUOUS
 10
-0.423386
 20
-1.350598
  0
VERTEX
  8
PLAN_1
 62
     2
  6
CONTINUOUS
 10
-0.422858
 20
-1.347957
  0
VERTEX
  8
PLAN_1
 62
     2
  6
CONTINUOUS
 10
-0.422331
 20
-1.345311
  0
VERTEX
  8
PLAN_1
 62
     2
  6
CONTINUOUS
 10
-0.420744
 20
-1.342669
  0
VERTEX
  8
PLAN_1
 62
     2
  6
CONTINUOUS
 10
-0.418630
 20
-1.340555
  0
VERTEX
  8
PLAN_1
 62
     2
  6
CONTINUOUS
 10
-0.415984
 20
-1.337909
  0
VERTEX
  8
PLAN_1
 62
     2
  6
CONTINUOUS
 10
-0.411756
 20
-1.336323
  0
VERTEX
  8
PLAN_1
 62
     2
  6
CONTINUOUS
 10
-0.406996
 20
-1.335268
  0
VERTEX
  8
PLAN_1
 62
     2
  6
CONTINUOUS
 10
-0.391661
 20
-1.333681
  0
VERTEX
  8
PLAN_1
 62
     2
  6
CONTINUOUS
 10
-0.391134
 20
-1.333150
  0
VERTEX
  8
PLAN_1
 62
     2
  6
CONTINUOUS
 10
-0.390075
 20
-1.333150
  0
VERTEX
  8
PLAN_1
 62
     2
  6
CONTINUOUS
 10
-0.389020
 20
-1.332622
  0
VERTEX
  8
PLAN_1
 62
     2
  6
CONTINUOUS
 10
-0.388488
 20
-1.332094
  0
VERTEX
  8
PLAN_1
 62
     2
  6
CONTINUOUS
 10
-0.387961
 20
-1.331567
  0
VERTEX
  8
PLAN_1
 62
     2
  6
CONTINUOUS
 10
-0.387433
 20
-1.330508
  0
VERTEX
  8
PLAN_1
 62
     2
  6
CONTINUOUS
 10
-0.386906
 20
-1.328921
  0
VERTEX
  8
PLAN_1
 62
     2
  6
CONTINUOUS
 10
-0.386906
 20
-1.326807
  0
VERTEX
  8
PLAN_1
 62
     2
  6
CONTINUOUS
 10
-0.386906
 20
-1.325220
  0
VERTEX
  8
PLAN_1
 62
     2
  6
CONTINUOUS
 10
-0.387961
 20
-1.323106
  0
VERTEX
  8
PLAN_1
 62
     2
  6
CONTINUOUS
 10
-0.388488
 20
-1.321520
  0
VERTEX
  8
PLAN_1
 62
     2
  6
CONTINUOUS
 10
-0.390075
 20
-1.320461
  0
VERTEX
  8
PLAN_1
 62
     2
  6
CONTINUOUS
 10
-0.391661
 20
-1.319406
  0
VERTEX
  8
PLAN_1
 62
     2
  6
CONTINUOUS
 10
-0.394307
 20
-1.318874
  0
VERTEX
  8
PLAN_1
 62
     2
  6
CONTINUOUS
 10
-0.396949
 20
-1.318346
  0
VERTEX
  8
PLAN_1
 62
     2
  6
CONTINUOUS
 10
-0.399594
 20
-1.318346
  0
VERTEX
  8
PLAN_1
 62
     2
  6
CONTINUOUS
 10
-0.403295
 20
-1.318346
  0
VERTEX
  8
PLAN_1
 62
     2
  6
CONTINUOUS
 10
-0.405937
 20
-1.319406
  0
VERTEX
  8
PLAN_1
 62
     2
  6
CONTINUOUS
 10
-0.408055
 20
-1.320461
  0
VERTEX
  8
PLAN_1
 62
     2
  6
CONTINUOUS
 10
-0.409642
 20
-1.322047
  0
VERTEX
  8
PLAN_1
 62
     2
  6
CONTINUOUS
 10
-0.410697
 20
-1.323634
  0
VERTEX
  8
PLAN_1
 62
     2
  6
CONTINUOUS
 10
-0.411224
 20
-1.325220
  0
VERTEX
  8
PLAN_1
 62
     2
  6
CONTINUOUS
 10
-0.411756
 20
-1.326807
  0
VERTEX
  8
PLAN_1
 62
     2
  6
CONTINUOUS
 10
-0.412283
 20
-1.328394
  0
VERTEX
  8
PLAN_1
 62
     2
  6
CONTINUOUS
 10
-0.420744
 20
-1.328394
  0
SEQEND
  8
0
  0
POLYLINE
  8
PLAN_1
 62
     2
  6
CONTINUOUS
 66
     1
 40
0.003000
 41
0.003000
  0
VERTEX
  8
PLAN_1
 62
     2
  6
CONTINUOUS
 10
-0.386906
 20
-1.338969
  0
VERTEX
  8
PLAN_1
 62
     2
  6
CONTINUOUS
 10
-0.387961
 20
-1.338969
  0
VERTEX
  8
PLAN_1
 62
     2
  6
CONTINUOUS
 10
-0.388488
 20
-1.339496
  0
VERTEX
  8
PLAN_1
 62
     2
  6
CONTINUOUS
 10
-0.389547
 20
-1.340024
  0
VERTEX
  8
PLAN_1
 62
     2
  6
CONTINUOUS
 10
-0.391134
 20
-1.340555
  0
VERTEX
  8
PLAN_1
 62
     2
  6
CONTINUOUS
 10
-0.392720
 20
-1.340555
  0
VERTEX
  8
PLAN_1
 62
     2
  6
CONTINUOUS
 10
-0.395362
 20
-1.341083
  0
VERTEX
  8
PLAN_1
 62
     2
  6
CONTINUOUS
 10
-0.398535
 20
-1.341610
  0
VERTEX
  8
PLAN_1
 62
     2
  6
CONTINUOUS
 10
-0.402236
 20
-1.342142
  0
VERTEX
  8
PLAN_1
 62
     2
  6
CONTINUOUS
 10
-0.403823
 20
-1.342669
  0
VERTEX
  8
PLAN_1
 62
     2
  6
CONTINUOUS
 10
-0.405937
 20
-1.342669
  0
VERTEX
  8
PLAN_1
 62
     2
  6
CONTINUOUS
 10
-0.408055
 20
-1.343197
  0
VERTEX
  8
PLAN_1
 62
     2
  6
CONTINUOUS
 10
-0.409642
 20
-1.344256
  0
VERTEX
  8
PLAN_1
 62
     2
  6
CONTINUOUS
 10
-0.411224
 20
-1.345311
  0
VERTEX
  8
PLAN_1
 62
     2
  6
CONTINUOUS
 10
-0.412811
 20
-1.346898
  0
VERTEX
  8
PLAN_1
 62
     2
  6
CONTINUOUS
 10
-0.413343
 20
-1.348484
  0
VERTEX
  8
PLAN_1
 62
     2
  6
CONTINUOUS
 10
-0.413870
 20
-1.351130
  0
VERTEX
  8
PLAN_1
 62
     2
  6
CONTINUOUS
 10
-0.413870
 20
-1.353244
  0
VERTEX
  8
PLAN_1
 62
     2
  6
CONTINUOUS
 10
-0.413343
 20
-1.354831
  0
VERTEX
  8
PLAN_1
 62
     2
  6
CONTINUOUS
 10
-0.412811
 20
-1.356417
  0
VERTEX
  8
PLAN_1
 62
     2
  6
CONTINUOUS
 10
-0.411756
 20
-1.358004
  0
VERTEX
  8
PLAN_1
 62
     2
  6
CONTINUOUS
 10
-0.410169
 20
-1.359059
  0
VERTEX
  8
PLAN_1
 62
     2
  6
CONTINUOUS
 10
-0.408583
 20
-1.359591
  0
VERTEX
  8
PLAN_1
 62
     2
  6
CONTINUOUS
 10
-0.406469
 20
-1.360118
  0
VERTEX
  8
PLAN_1
 62
     2
  6
CONTINUOUS
 10
-0.403823
 20
-1.360646
  0
VERTEX
  8
PLAN_1
 62
     2
  6
CONTINUOUS
 10
-0.400650
 20
-1.360118
  0
VERTEX
  8
PLAN_1
 62
     2
  6
CONTINUOUS
 10
-0.398008
 20
-1.359591
  0
VERTEX
  8
PLAN_1
 62
     2
  6
CONTINUOUS
 10
-0.394835
 20
-1.358531
  0
VERTEX
  8
PLAN_1
 62
     2
  6
CONTINUOUS
 10
-0.392193
 20
-1.356945
  0
VERTEX
  8
PLAN_1
 62
     2
  6
CONTINUOUS
 10
-0.390075
 20
-1.354831
  0
VERTEX
  8
PLAN_1
 62
     2
  6
CONTINUOUS
 10
-0.388488
 20
-1.352717
  0
VERTEX
  8
PLAN_1
 62
     2
  6
CONTINUOUS
 10
-0.387433
 20
-1.350598
  0
VERTEX
  8
PLAN_1
 62
     2
  6
CONTINUOUS
 10
-0.386906
 20
-1.347429
  0
VERTEX
  8
PLAN_1
 62
     2
  6
CONTINUOUS
 10
-0.386906
 20
-1.338969
  0
SEQEND
  8
0
  0
POLYLINE
  8
PLAN_1
 62
     2
  6
CONTINUOUS
 66
     1
 40
0.003000
 41
0.003000
  0
VERTEX
  8
PLAN_1
 62
     2
  6
CONTINUOUS
 10
-0.327154
 20
-1.366465
  0
VERTEX
  8
PLAN_1
 62
     2
  6
CONTINUOUS
 10
-0.327154
 20
-1.358531
  0
VERTEX
  8
PLAN_1
 62
     2
  6
CONTINUOUS
 10
-0.328740
 20
-1.360646
  0
VERTEX
  8
PLAN_1
 62
     2
  6
CONTINUOUS
 10
-0.330327
 20
-1.362760
  0
VERTEX
  8
PLAN_1
 62
     2
  6
CONTINUOUS
 10
-0.331913
 20
-1.364346
  0
VERTEX
  8
PLAN_1
 62
     2
  6
CONTINUOUS
 10
-0.334028
 20
-1.365406
  0
VERTEX
  8
PLAN_1
 62
     2
  6
CONTINUOUS
 10
-0.336142
 20
-1.366465
  0
VERTEX
  8
PLAN_1
 62
     2
  6
CONTINUOUS
 10
-0.338787
 20
-1.367520
  0
VERTEX
  8
PLAN_1
 62
     2
  6
CONTINUOUS
 10
-0.341433
 20
-1.368047
  0
VERTEX
  8
PLAN_1
 62
     2
  6
CONTINUOUS
 10
-0.344602
 20
-1.368047
  0
VERTEX
  8
PLAN_1
 62
     2
  6
CONTINUOUS
 10
-0.347248
 20
-1.368047
  0
VERTEX
  8
PLAN_1
 62
     2
  6
CONTINUOUS
 10
-0.350421
 20
-1.367520
  0
VERTEX
  8
PLAN_1
 62
     2
  6
CONTINUOUS
 10
-0.353591
 20
-1.365933
  0
VERTEX
  8
PLAN_1
 62
     2
  6
CONTINUOUS
 10
-0.356236
 20
-1.364346
  0
VERTEX
  8
PLAN_1
 62
     2
  6
CONTINUOUS
 10
-0.358882
 20
-1.362232
  0
VERTEX
  8
PLAN_1
 62
     2
  6
CONTINUOUS
 10
-0.360465
 20
-1.359591
  0
VERTEX
  8
PLAN_1
 62
     2
  6
CONTINUOUS
 10
-0.361524
 20
-1.355886
  0
VERTEX
  8
PLAN_1
 62
     2
  6
CONTINUOUS
 10
-0.362051
 20
-1.351130
  0
VERTEX
  8
PLAN_1
 62
     2
  6
CONTINUOUS
 10
-0.362051
 20
-1.312000
  0
VERTEX
  8
PLAN_1
 62
     2
  6
CONTINUOUS
 10
-0.353063
 20
-1.312000
  0
VERTEX
  8
PLAN_1
 62
     2
  6
CONTINUOUS
 10
-0.353063
 20
-1.347957
  0
VERTEX
  8
PLAN_1
 62
     2
  6
CONTINUOUS
 10
-0.352535
 20
-1.351130
  0
VERTEX
  8
PLAN_1
 62
     2
  6
CONTINUOUS
 10
-0.352008
 20
-1.353772
  0
VERTEX
  8
PLAN_1
 62
     2
  6
CONTINUOUS
 10
-0.351476
 20
-1.355886
  0
VERTEX
  8
PLAN_1
 62
     2
  6
CONTINUOUS
 10
-0.349890
 20
-1.357472
  0
VERTEX
  8
PLAN_1
 62
     2
  6
CONTINUOUS
 10
-0.348303
 20
-1.358531
  0
VERTEX
  8
PLAN_1
 62
     2
  6
CONTINUOUS
 10
-0.346720
 20
-1.359591
  0
VERTEX
  8
PLAN_1
 62
     2
  6
CONTINUOUS
 10
-0.344602
 20
-1.360118
  0
VERTEX
  8
PLAN_1
 62
     2
  6
CONTINUOUS
 10
-0.342488
 20
-1.360118
  0
VERTEX
  8
PLAN_1
 62
     2
  6
CONTINUOUS
 10
-0.338260
 20
-1.359591
  0
VERTEX
  8
PLAN_1
 62
     2
  6
CONTINUOUS
 10
-0.335087
 20
-1.358531
  0
VERTEX
  8
PLAN_1
 62
     2
  6
CONTINUOUS
 10
-0.332441
 20
-1.356417
  0
VERTEX
  8
PLAN_1
 62
     2
  6
CONTINUOUS
 10
-0.330854
 20
-1.354303
  0
VERTEX
  8
PLAN_1
 62
     2
  6
CONTINUOUS
 10
-0.329272
 20
-1.351130
  0
VERTEX
  8
PLAN_1
 62
     2
  6
CONTINUOUS
 10
-0.328213
 20
-1.348484
  0
VERTEX
  8
PLAN_1
 62
     2
  6
CONTINUOUS
 10
-0.327685
 20
-1.345311
  0
VERTEX
  8
PLAN_1
 62
     2
  6
CONTINUOUS
 10
-0.327685
 20
-1.342142
  0
VERTEX
  8
PLAN_1
 62
     2
  6
CONTINUOUS
 10
-0.327685
 20
-1.312000
  0
VERTEX
  8
PLAN_1
 62
     2
  6
CONTINUOUS
 10
-0.318165
 20
-1.312000
  0
VERTEX
  8
PLAN_1
 62
     2
  6
CONTINUOUS
 10
-0.318165
 20
-1.366465
  0
VERTEX
  8
PLAN_1
 62
     2
  6
CONTINUOUS
 10
-0.327154
 20
-1.366465
  0
SEQEND
  8
0
  0
POLYLINE
  8
PLAN_1
 62
     2
  6
CONTINUOUS
 66
     1
 40
0.003000
 41
0.003000
  0
VERTEX
  8
PLAN_1
 62
     2
  6
CONTINUOUS
 10
-0.259476
 20
-1.366465
  0
VERTEX
  8
PLAN_1
 62
     2
  6
CONTINUOUS
 10
-0.267933
 20
-1.366465
  0
VERTEX
  8
PLAN_1
 62
     2
  6
CONTINUOUS
 10
-0.267933
 20
-1.359059
  0
VERTEX
  8
PLAN_1
 62
     2
  6
CONTINUOUS
 10
-0.268465
 20
-1.359059
  0
VERTEX
  8
PLAN_1
 62
     2
  6
CONTINUOUS
 10
-0.270051
 20
-1.361705
  0
VERTEX
  8
PLAN_1
 62
     2
  6
CONTINUOUS
 10
-0.271638
 20
-1.363819
  0
VERTEX
  8
PLAN_1
 62
     2
  6
CONTINUOUS
 10
-0.273220
 20
-1.365406
  0
VERTEX
  8
PLAN_1
 62
     2
  6
CONTINUOUS
 10
-0.275339
 20
-1.366465
  0
VERTEX
  8
PLAN_1
 62
     2
  6
CONTINUOUS
 10
-0.277453
 20
-1.366992
  0
VERTEX
  8
PLAN_1
 62
     2
  6
CONTINUOUS
 10
-0.279567
 20
-1.367520
  0
VERTEX
  8
PLAN_1
 62
     2
  6
CONTINUOUS
 10
-0.281681
 20
-1.368047
  0
VERTEX
  8
PLAN_1
 62
     2
  6
CONTINUOUS
 10
-0.283799
 20
-1.368047
  0
VERTEX
  8
PLAN_1
 62
     2
  6
CONTINUOUS
 10
-0.286969
 20
-1.368047
  0
VERTEX
  8
PLAN_1
 62
     2
  6
CONTINUOUS
 10
-0.290142
 20
-1.367520
  0
VERTEX
  8
PLAN_1
 62
     2
  6
CONTINUOUS
 10
-0.292787
 20
-1.366465
  0
VERTEX
  8
PLAN_1
 62
     2
  6
CONTINUOUS
 10
-0.295429
 20
-1.365406
  0
VERTEX
  8
PLAN_1
 62
     2
  6
CONTINUOUS
 10
-0.297543
 20
-1.363819
  0
VERTEX
  8
PLAN_1
 62
     2
  6
CONTINUOUS
 10
-0.299661
 20
-1.361705
  0
VERTEX
  8
PLAN_1
 62
     2
  6
CONTINUOUS
 10
-0.301248
 20
-1.360118
  0
VERTEX
  8
PLAN_1
 62
     2
  6
CONTINUOUS
 10
-0.302831
 20
-1.358004
  0
VERTEX
  8
PLAN_1
 62
     2
  6
CONTINUOUS
 10
-0.304949
 20
-1.353244
  0
VERTEX
  8
PLAN_1
 62
     2
  6
CONTINUOUS
 10
-0.306535
 20
-1.347957
  0
VERTEX
  8
PLAN_1
 62
     2
  6
CONTINUOUS
 10
-0.307591
 20
-1.342669
  0
VERTEX
  8
PLAN_1
 62
     2
  6
CONTINUOUS
 10
-0.307591
 20
-1.337909
  0
VERTEX
  8
PLAN_1
 62
     2
  6
CONTINUOUS
 10
-0.307063
 20
-1.332094
  0
VERTEX
  8
PLAN_1
 62
     2
  6
CONTINUOUS
 10
-0.306004
 20
-1.326807
  0
VERTEX
  8
PLAN_1
 62
     2
  6
CONTINUOUS
 10
-0.304417
 20
-1.322575
  0
VERTEX
  8
PLAN_1
 62
     2
  6
CONTINUOUS
 10
-0.301776
 20
-1.318346
  0
VERTEX
  8
PLAN_1
 62
     2
  6
CONTINUOUS
 10
-0.298602
 20
-1.315173
  0
VERTEX
  8
PLAN_1
 62
     2
  6
CONTINUOUS
 10
-0.294374
 20
-1.312531
  0
VERTEX
  8
PLAN_1
 62
     2
  6
CONTINUOUS
 10
-0.292256
 20
-1.312000
  0
VERTEX
  8
PLAN_1
 62
     2
  6
CONTINUOUS
 10
-0.290142
 20
-1.310945
  0
VERTEX
  8
PLAN_1
 62
     2
  6
CONTINUOUS
 10
-0.287500
 20
-1.310945
  0
VERTEX
  8
PLAN_1
 62
     2
  6
CONTINUOUS
 10
-0.284854
 20
-1.310413
  0
VERTEX
  8
PLAN_1
 62
     2
  6
CONTINUOUS
 10
-0.281681
 20
-1.310945
  0
VERTEX
  8
PLAN_1
 62
     2
  6
CONTINUOUS
 10
-0.278512
 20
-1.311472
  0
VERTEX
  8
PLAN_1
 62
     2
  6
CONTINUOUS
 10
-0.275866
 20
-1.312531
  0
VERTEX
  8
PLAN_1
 62
     2
  6
CONTINUOUS
 10
-0.273752
 20
-1.314118
  0
VERTEX
  8
PLAN_1
 62
     2
  6
CONTINUOUS
 10
-0.272165
 20
-1.315701
  0
VERTEX
  8
PLAN_1
 62
     2
  6
CONTINUOUS
 10
-0.270579
 20
-1.317287
  0
VERTEX
  8
PLAN_1
 62
     2
  6
CONTINUOUS
 10
-0.269520
 20
-1.318346
  0
VERTEX
  8
PLAN_1
 62
     2
  6
CONTINUOUS
 10
-0.268992
 20
-1.319933
  0
VERTEX
  8
PLAN_1
 62
     2
  6
CONTINUOUS
 10
-0.268465
 20
-1.318874
  0
VERTEX
  8
PLAN_1
 62
     2
  6
CONTINUOUS
 10
-0.268465
 20
-1.291909
  0
VERTEX
  8
PLAN_1
 62
     2
  6
CONTINUOUS
 10
-0.259476
 20
-1.291909
  0
VERTEX
  8
PLAN_1
 62
     2
  6
CONTINUOUS
 10
-0.259476
 20
-1.366465
  0
SEQEND
  8
0
  0
POLYLINE
  8
PLAN_1
 62
     2
  6
CONTINUOUS
 66
     1
 40
0.003000
 41
0.003000
  0
VERTEX
  8
PLAN_1
 62
     2
  6
CONTINUOUS
 10
-0.283268
 20
-1.360118
  0
VERTEX
  8
PLAN_1
 62
     2
  6
CONTINUOUS
 10
-0.281154
 20
-1.360118
  0
VERTEX
  8
PLAN_1
 62
     2
  6
CONTINUOUS
 10
-0.278512
 20
-1.359591
  0
VERTEX
  8
PLAN_1
 62
     2
  6
CONTINUOUS
 10
-0.276394
 20
-1.358004
  0
VERTEX
  8
PLAN_1
 62
     2
  6
CONTINUOUS
 10
-0.273752
 20
-1.356417
  0
VERTEX
  8
PLAN_1
 62
     2
  6
CONTINUOUS
 10
-0.271638
 20
-1.353772
  0
VERTEX
  8
PLAN_1
 62
     2
  6
CONTINUOUS
 10
-0.270051
 20
-1.350598
  0
VERTEX
  8
PLAN_1
 62
     2
  6
CONTINUOUS
 10
-0.268992
 20
-1.346898
  0
VERTEX
  8
PLAN_1
 62
     2
  6
CONTINUOUS
 10
-0.268465
 20
-1.341610
  0
VERTEX
  8
PLAN_1
 62
     2
  6
CONTINUOUS
 10
-0.268992
 20
-1.338441
  0
VERTEX
  8
PLAN_1
 62
     2
  6
CONTINUOUS
 10
-0.268992
 20
-1.334736
  0
VERTEX
  8
PLAN_1
 62
     2
  6
CONTINUOUS
 10
-0.270051
 20
-1.330508
  0
VERTEX
  8
PLAN_1
 62
     2
  6
CONTINUOUS
 10
-0.271106
 20
-1.326807
  0
VERTEX
  8
PLAN_1
 62
     2
  6
CONTINUOUS
 10
-0.272693
 20
-1.323634
  0
VERTEX
  8
PLAN_1
 62
     2
  6
CONTINUOUS
 10
-0.275339
 20
-1.320992
  0
VERTEX
  8
PLAN_1
 62
     2
  6
CONTINUOUS
 10
-0.276925
 20
-1.319933
  0
VERTEX
  8
PLAN_1
 62
     2
  6
CONTINUOUS
 10
-0.279039
 20
-1.319406
  0
VERTEX
  8
PLAN_1
 62
     2
  6
CONTINUOUS
 10
-0.281154
 20
-1.318874
  0
VERTEX
  8
PLAN_1
 62
     2
  6
CONTINUOUS
 10
-0.283268
 20
-1.318874
  0
VERTEX
  8
PLAN_1
 62
     2
  6
CONTINUOUS
 10
-0.285913
 20
-1.318874
  0
VERTEX
  8
PLAN_1
 62
     2
  6
CONTINUOUS
 10
-0.288028
 20
-1.319406
  0
VERTEX
  8
PLAN_1
 62
     2
  6
CONTINUOUS
 10
-0.290142
 20
-1.319933
  0
VERTEX
  8
PLAN_1
 62
     2
  6
CONTINUOUS
 10
-0.291728
 20
-1.320992
  0
VERTEX
  8
PLAN_1
 62
     2
  6
CONTINUOUS
 10
-0.294374
 20
-1.323634
  0
VERTEX
  8
PLAN_1
 62
     2
  6
CONTINUOUS
 10
-0.295961
 20
-1.326280
  0
VERTEX
  8
PLAN_1
 62
     2
  6
CONTINUOUS
 10
-0.297016
 20
-1.329449
  0
VERTEX
  8
PLAN_1
 62
     2
  6
CONTINUOUS
 10
-0.298075
 20
-1.333150
  0
VERTEX
  8
PLAN_1
 62
     2
  6
CONTINUOUS
 10
-0.298075
 20
-1.336323
  0
VERTEX
  8
PLAN_1
 62
     2
  6
CONTINUOUS
 10
-0.298075
 20
-1.338969
  0
VERTEX
  8
PLAN_1
 62
     2
  6
CONTINUOUS
 10
-0.298075
 20
-1.343728
  0
VERTEX
  8
PLAN_1
 62
     2
  6
CONTINUOUS
 10
-0.297543
 20
-1.347429
  0
VERTEX
  8
PLAN_1
 62
     2
  6
CONTINUOUS
 10
-0.295961
 20
-1.351130
  0
VERTEX
  8
PLAN_1
 62
     2
  6
CONTINUOUS
 10
-0.294374
 20
-1.354303
  0
VERTEX
  8
PLAN_1
 62
     2
  6
CONTINUOUS
 10
-0.292787
 20
-1.356945
  0
VERTEX
  8
PLAN_1
 62
     2
  6
CONTINUOUS
 10
-0.290142
 20
-1.358531
  0
VERTEX
  8
PLAN_1
 62
     2
  6
CONTINUOUS
 10
-0.286969
 20
-1.359591
  0
VERTEX
  8
PLAN_1
 62
     2
  6
CONTINUOUS
 10
-0.283268
 20
-1.360118
  0
SEQEND
  8
0
  0
SOLID
  8
PLAN_1
 62
     2
 10
-0.221933
 20
-1.304598
 11
-0.228807
 21
-1.304598
 12
-0.208717
 22
-1.290323
 13
-0.219819
 23
-1.290323
  0
POLYLINE
  8
PLAN_1
 62
     2
  6
CONTINUOUS
 66
     1
 40
0.003000
 41
0.003000
  0
VERTEX
  8
PLAN_1
 62
     2
  6
CONTINUOUS
 10
-0.221933
 20
-1.304598
  0
VERTEX
  8
PLAN_1
 62
     2
  6
CONTINUOUS
 10
-0.228807
 20
-1.304598
  0
VERTEX
  8
PLAN_1
 62
     2
  6
CONTINUOUS
 10
-0.219819
 20
-1.290323
  0
VERTEX
  8
PLAN_1
 62
     2
  6
CONTINUOUS
 10
-0.208717
 20
-1.290323
  0
VERTEX
  8
PLAN_1
 62
     2
  6
CONTINUOUS
 10
-0.221933
 20
-1.304598
  0
SEQEND
  8
0
  0
POLYLINE
  8
PLAN_1
 62
     2
  6
CONTINUOUS
 66
     1
 40
0.003000
 41
0.003000
  0
VERTEX
  8
PLAN_1
 62
     2
  6
CONTINUOUS
 10
-0.200256
 20
-1.349543
  0
VERTEX
  8
PLAN_1
 62
     2
  6
CONTINUOUS
 10
-0.200783
 20
-1.350598
  0
VERTEX
  8
PLAN_1
 62
     2
  6
CONTINUOUS
 10
-0.201311
 20
-1.352185
  0
VERTEX
  8
PLAN_1
 62
     2
  6
CONTINUOUS
 10
-0.201843
 20
-1.354303
  0
VERTEX
  8
PLAN_1
 62
     2
  6
CONTINUOUS
 10
-0.202898
 20
-1.356417
  0
VERTEX
  8
PLAN_1
 62
     2
  6
CONTINUOUS
 10
-0.203957
 20
-1.358531
  0
VERTEX
  8
PLAN_1
 62
     2
  6
CONTINUOUS
 10
-0.205543
 20
-1.360646
  0
VERTEX
  8
PLAN_1
 62
     2
  6
CONTINUOUS
 10
-0.207657
 20
-1.362232
  0
VERTEX
  8
PLAN_1
 62
     2
  6
CONTINUOUS
 10
-0.210299
 20
-1.364346
  0
VERTEX
  8
PLAN_1
 62
     2
  6
CONTINUOUS
 10
-0.211358
 20
-1.364878
  0
VERTEX
  8
PLAN_1
 62
     2
  6
CONTINUOUS
 10
-0.212417
 20
-1.365406
  0
VERTEX
  8
PLAN_1
 62
     2
  6
CONTINUOUS
 10
-0.213472
 20
-1.366465
  0
VERTEX
  8
PLAN_1
 62
     2
  6
CONTINUOUS
 10
-0.215059
 20
-1.366992
  0
VERTEX
  8
PLAN_1
 62
     2
  6
CONTINUOUS
 10
-0.217173
 20
-1.367520
  0
VERTEX
  8
PLAN_1
 62
     2
  6
CONTINUOUS
 10
-0.219291
 20
-1.367520
  0
VERTEX
  8
PLAN_1
 62
     2
  6
CONTINUOUS
 10
-0.221933
 20
-1.368047
  0
VERTEX
  8
PLAN_1
 62
     2
  6
CONTINUOUS
 10
-0.225106
 20
-1.368047
  0
VERTEX
  8
PLAN_1
 62
     2
  6
CONTINUOUS
 10
-0.227748
 20
-1.368047
  0
VERTEX
  8
PLAN_1
 62
     2
  6
CONTINUOUS
 10
-0.230394
 20
-1.367520
  0
VERTEX
  8
PLAN_1
 62
     2
  6
CONTINUOUS
 10
-0.233039
 20
-1.366992
  0
VERTEX
  8
PLAN_1
 62
     2
  6
CONTINUOUS
 10
-0.235154
 20
-1.365933
  0
VERTEX
  8
PLAN_1
 62
     2
  6
CONTINUOUS
 10
-0.237268
 20
-1.364878
  0
VERTEX
  8
PLAN_1
 62
     2
  6
CONTINUOUS
 10
-0.239382
 20
-1.363819
  0
VERTEX
  8
PLAN_1
 62
     2
  6
CONTINUOUS
 10
-0.240969
 20
-1.362232
  0
VERTEX
  8
PLAN_1
 62
     2
  6
CONTINUOUS
 10
-0.242555
 20
-1.360118
  0
VERTEX
  8
PLAN_1
 62
     2
  6
CONTINUOUS
 10
-0.245728
 20
-1.356417
  0
VERTEX
  8
PLAN_1
 62
     2
  6
CONTINUOUS
 10
-0.247843
 20
-1.351657
  0
VERTEX
  8
PLAN_1
 62
     2
  6
CONTINUOUS
 10
-0.248902
 20
-1.346370
  0
VERTEX
  8
PLAN_1
 62
     2
  6
CONTINUOUS
 10
-0.249429
 20
-1.341083
  0
VERTEX
  8
PLAN_1
 62
     2
  6
CONTINUOUS
 10
-0.248902
 20
-1.334736
  0
VERTEX
  8
PLAN_1
 62
     2
  6
CONTINUOUS
 10
-0.247843
 20
-1.328921
  0
VERTEX
  8
PLAN_1
 62
     2
  6
CONTINUOUS
 10
-0.245728
 20
-1.323634
  0
VERTEX
  8
PLAN_1
 62
     2
  6
CONTINUOUS
 10
-0.243083
 20
-1.319406
  0
VERTEX
  8
PLAN_1
 62
     2
  6
CONTINUOUS
 10
-0.241496
 20
-1.317287
  0
VERTEX
  8
PLAN_1
 62
     2
  6
CONTINUOUS
 10
-0.239382
 20
-1.315701
  0
VERTEX
  8
PLAN_1
 62
     2
  6
CONTINUOUS
 10
-0.237268
 20
-1.314118
  0
VERTEX
  8
PLAN_1
 62
     2
  6
CONTINUOUS
 10
-0.234622
 20
-1.313059
  0
VERTEX
  8
PLAN_1
 62
     2
  6
CONTINUOUS
 10
-0.231980
 20
-1.312000
  0
VERTEX
  8
PLAN_1
 62
     2
  6
CONTINUOUS
 10
-0.229335
 20
-1.310945
  0
VERTEX
  8
PLAN_1
 62
     2
  6
CONTINUOUS
 10
-0.226165
 20
-1.310945
  0
VERTEX
  8
PLAN_1
 62
     2
  6
CONTINUOUS
 10
-0.222992
 20
-1.310413
  0
VERTEX
  8
PLAN_1
 62
     2
  6
CONTINUOUS
 10
-0.220346
 20
-1.310945
  0
VERTEX
  8
PLAN_1
 62
     2
  6
CONTINUOUS
 10
-0.217705
 20
-1.310945
  0
VERTEX
  8
PLAN_1
 62
     2
  6
CONTINUOUS
 10
-0.215059
 20
-1.312000
  0
VERTEX
  8
PLAN_1
 62
     2
  6
CONTINUOUS
 10
-0.212945
 20
-1.313059
  0
VERTEX
  8
PLAN_1
 62
     2
  6
CONTINUOUS
 10
-0.210831
 20
-1.314118
  0
VERTEX
  8
PLAN_1
 62
     2
  6
CONTINUOUS
 10
-0.208717
 20
-1.315701
  0
VERTEX
  8
PLAN_1
 62
     2
  6
CONTINUOUS
 10
-0.207130
 20
-1.317287
  0
VERTEX
  8
PLAN_1
 62
     2
  6
CONTINUOUS
 10
-0.205543
 20
-1.319406
  0
VERTEX
  8
PLAN_1
 62
     2
  6
CONTINUOUS
 10
-0.202898
 20
-1.323634
  0
VERTEX
  8
PLAN_1
 62
     2
  6
CONTINUOUS
 10
-0.201311
 20
-1.329449
  0
VERTEX
  8
PLAN_1
 62
     2
  6
CONTINUOUS
 10
-0.200256
 20
-1.335268
  0
VERTEX
  8
PLAN_1
 62
     2
  6
CONTINUOUS
 10
-0.199724
 20
-1.342142
  0
VERTEX
  8
PLAN_1
 62
     2
  6
CONTINUOUS
 10
-0.239382
 20
-1.342142
  0
VERTEX
  8
PLAN_1
 62
     2
  6
CONTINUOUS
 10
-0.239382
 20
-1.346370
  0
VERTEX
  8
PLAN_1
 62
     2
  6
CONTINUOUS
 10
-0.238327
 20
-1.350071
  0
VERTEX
  8
PLAN_1
 62
     2
  6
CONTINUOUS
 10
-0.237268
 20
-1.352717
  0
VERTEX
  8
PLAN_1
 62
     2
  6
CONTINUOUS
 10
-0.235681
 20
-1.355358
  0
VERTEX
  8
PLAN_1
 62
     2
  6
CONTINUOUS
 10
-0.233039
 20
-1.357472
  0
VERTEX
  8
PLAN_1
 62
     2
  6
CONTINUOUS
 10
-0.230394
 20
-1.359059
  0
VERTEX
  8
PLAN_1
 62
     2
  6
CONTINUOUS
 10
-0.227220
 20
-1.360118
  0
VERTEX
  8
PLAN_1
 62
     2
  6
CONTINUOUS
 10
-0.223520
 20
-1.360118
  0
VERTEX
  8
PLAN_1
 62
     2
  6
CONTINUOUS
 10
-0.220346
 20
-1.360118
  0
VERTEX
  8
PLAN_1
 62
     2
  6
CONTINUOUS
 10
-0.217705
 20
-1.359059
  0
VERTEX
  8
PLAN_1
 62
     2
  6
CONTINUOUS
 10
-0.215591
 20
-1.358004
  0
VERTEX
  8
PLAN_1
 62
     2
  6
CONTINUOUS
 10
-0.213472
 20
-1.356417
  0
VERTEX
  8
PLAN_1
 62
     2
  6
CONTINUOUS
 10
-0.211886
 20
-1.354831
  0
VERTEX
  8
PLAN_1
 62
     2
  6
CONTINUOUS
 10
-0.210831
 20
-1.352717
  0
VERTEX
  8
PLAN_1
 62
     2
  6
CONTINUOUS
 10
-0.209772
 20
-1.351130
  0
VERTEX
  8
PLAN_1
 62
     2
  6
CONTINUOUS
 10
-0.209772
 20
-1.349543
  0
VERTEX
  8
PLAN_1
 62
     2
  6
CONTINUOUS
 10
-0.200256
 20
-1.349543
  0
SEQEND
  8
0
  0
POLYLINE
  8
PLAN_1
 62
     2
  6
CONTINUOUS
 66
     1
 40
0.003000
 41
0.003000
  0
VERTEX
  8
PLAN_1
 62
     2
  6
CONTINUOUS
 10
-0.209244
 20
-1.334736
  0
VERTEX
  8
PLAN_1
 62
     2
  6
CONTINUOUS
 10
-0.209772
 20
-1.332094
  0
VERTEX
  8
PLAN_1
 62
     2
  6
CONTINUOUS
 10
-0.210299
 20
-1.328921
  0
VERTEX
  8
PLAN_1
 62
     2
  6
CONTINUOUS
 10
-0.211358
 20
-1.326280
  0
VERTEX
  8
PLAN_1
 62
     2
  6
CONTINUOUS
 10
-0.212945
 20
-1.323634
  0
VERTEX
  8
PLAN_1
 62
     2
  6
CONTINUOUS
 10
-0.215059
 20
-1.321520
  0
VERTEX
  8
PLAN_1
 62
     2
  6
CONTINUOUS
 10
-0.217173
 20
-1.319933
  0
VERTEX
  8
PLAN_1
 62
     2
  6
CONTINUOUS
 10
-0.220346
 20
-1.318874
  0
VERTEX
  8
PLAN_1
 62
     2
  6
CONTINUOUS
 10
-0.224579
 20
-1.318874
  0
VERTEX
  8
PLAN_1
 62
     2
  6
CONTINUOUS
 10
-0.227220
 20
-1.318874
  0
VERTEX
  8
PLAN_1
 62
     2
  6
CONTINUOUS
 10
-0.230394
 20
-1.319933
  0
VERTEX
  8
PLAN_1
 62
     2
  6
CONTINUOUS
 10
-0.233039
 20
-1.321520
  0
VERTEX
  8
PLAN_1
 62
     2
  6
CONTINUOUS
 10
-0.235154
 20
-1.323634
  0
VERTEX
  8
PLAN_1
 62
     2
  6
CONTINUOUS
 10
-0.236740
 20
-1.326280
  0
VERTEX
  8
PLAN_1
 62
     2
  6
CONTINUOUS
 10
-0.238327
 20
-1.328921
  0
VERTEX
  8
PLAN_1
 62
     2
  6
CONTINUOUS
 10
-0.239382
 20
-1.332094
  0
VERTEX
  8
PLAN_1
 62
     2
  6
CONTINUOUS
 10
-0.239382
 20
-1.334736
  0
VERTEX
  8
PLAN_1
 62
     2
  6
CONTINUOUS
 10
-0.209244
 20
-1.334736
  0
SEQEND
  8
0
  0
POLYLINE
  8
PLAN_1
 62
     2
  6
CONTINUOUS
 66
     1
 40
0.003000
 41
0.003000
  0
VERTEX
  8
PLAN_1
 62
     2
  6
CONTINUOUS
 10
-0.160598
 20
-1.312000
  0
VERTEX
  8
PLAN_1
 62
     2
  6
CONTINUOUS
 10
-0.152138
 20
-1.312000
  0
VERTEX
  8
PLAN_1
 62
     2
  6
CONTINUOUS
 10
-0.152138
 20
-1.319933
  0
VERTEX
  8
PLAN_1
 62
     2
  6
CONTINUOUS
 10
-0.151610
 20
-1.319933
  0
VERTEX
  8
PLAN_1
 62
     2
  6
CONTINUOUS
 10
-0.150551
 20
-1.318346
  0
VERTEX
  8
PLAN_1
 62
     2
  6
CONTINUOUS
 10
-0.149496
 20
-1.317287
  0
VERTEX
  8
PLAN_1
 62
     2
  6
CONTINUOUS
 10
-0.148437
 20
-1.315701
  0
VERTEX
  8
PLAN_1
 62
     2
  6
CONTINUOUS
 10
-0.146323
 20
-1.314118
  0
VERTEX
  8
PLAN_1
 62
     2
  6
CONTINUOUS
 10
-0.144209
 20
-1.312531
  0
VERTEX
  8
PLAN_1
 62
     2
  6
CONTINUOUS
 10
-0.142091
 20
-1.311472
  0
VERTEX
  8
PLAN_1
 62
     2
  6
CONTINUOUS
 10
-0.138921
 20
-1.310945
  0
VERTEX
  8
PLAN_1
 62
     2
  6
CONTINUOUS
 10
-0.135220
 20
-1.310413
  0
VERTEX
  8
PLAN_1
 62
     2
  6
CONTINUOUS
 10
-0.132575
 20
-1.310945
  0
VERTEX
  8
PLAN_1
 62
     2
  6
CONTINUOUS
 10
-0.130461
 20
-1.310945
  0
VERTEX
  8
PLAN_1
 62
     2
  6
CONTINUOUS
 10
-0.127815
 20
-1.312000
  0
VERTEX
  8
PLAN_1
 62
     2
  6
CONTINUOUS
 10
-0.125701
 20
-1.312531
  0
VERTEX
  8
PLAN_1
 62
     2
  6
CONTINUOUS
 10
-0.122000
 20
-1.315173
  0
VERTEX
  8
PLAN_1
 62
     2
  6
CONTINUOUS
 10
-0.118827
 20
-1.318346
  0
VERTEX
  8
PLAN_1
 62
     2
  6
CONTINUOUS
 10
-0.116185
 20
-1.322575
  0
VERTEX
  8
PLAN_1
 62
     2
  6
CONTINUOUS
 10
-0.114067
 20
-1.326807
  0
VERTEX
  8
PLAN_1
 62
     2
  6
CONTINUOUS
 10
-0.113012
 20
-1.332094
  0
VERTEX
  8
PLAN_1
 62
     2
  6
CONTINUOUS
 10
-0.113012
 20
-1.337909
  0
VERTEX
  8
PLAN_1
 62
     2
  6
CONTINUOUS
 10
-0.113012
 20
-1.342669
  0
VERTEX
  8
PLAN_1
 62
     2
  6
CONTINUOUS
 10
-0.114067
 20
-1.347957
  0
VERTEX
  8
PLAN_1
 62
     2
  6
CONTINUOUS
 10
-0.115654
 20
-1.353244
  0
VERTEX
  8
PLAN_1
 62
     2
  6
CONTINUOUS
 10
-0.117772
 20
-1.358004
  0
VERTEX
  8
PLAN_1
 62
     2
  6
CONTINUOUS
 10
-0.119354
 20
-1.360118
  0
VERTEX
  8
PLAN_1
 62
     2
  6
CONTINUOUS
 10
-0.120941
 20
-1.361705
  0
VERTEX
  8
PLAN_1
 62
     2
  6
CONTINUOUS
 10
-0.123059
 20
-1.363819
  0
VERTEX
  8
PLAN_1
 62
     2
  6
CONTINUOUS
 10
-0.125173
 20
-1.365406
  0
VERTEX
  8
PLAN_1
 62
     2
  6
CONTINUOUS
 10
-0.127815
 20
-1.366465
  0
VERTEX
  8
PLAN_1
 62
     2
  6
CONTINUOUS
 10
-0.130461
 20
-1.367520
  0
VERTEX
  8
PLAN_1
 62
     2
  6
CONTINUOUS
 10
-0.133634
 20
-1.368047
  0
VERTEX
  8
PLAN_1
 62
     2
  6
CONTINUOUS
 10
-0.136803
 20
-1.368047
  0
VERTEX
  8
PLAN_1
 62
     2
  6
CONTINUOUS
 10
-0.139449
 20
-1.368047
  0
VERTEX
  8
PLAN_1
 62
     2
  6
CONTINUOUS
 10
-0.141563
 20
-1.367520
  0
VERTEX
  8
PLAN_1
 62
     2
  6
CONTINUOUS
 10
-0.143677
 20
-1.366992
  0
VERTEX
  8
PLAN_1
 62
     2
  6
CONTINUOUS
 10
-0.145795
 20
-1.365933
  0
VERTEX
  8
PLAN_1
 62
     2
  6
CONTINUOUS
 10
-0.147378
 20
-1.364878
  0
VERTEX
  8
PLAN_1
 62
     2
  6
CONTINUOUS
 10
-0.148965
 20
-1.363819
  0
VERTEX
  8
PLAN_1
 62
     2
  6
CONTINUOUS
 10
-0.150024
 20
-1.362232
  0
VERTEX
  8
PLAN_1
 62
     2
  6
CONTINUOUS
 10
-0.151083
 20
-1.360646
  0
VERTEX
  8
PLAN_1
 62
     2
  6
CONTINUOUS
 10
-0.151610
 20
-1.360646
  0
VERTEX
  8
PLAN_1
 62
     2
  6
CONTINUOUS
 10
-0.151610
 20
-1.388142
  0
VERTEX
  8
PLAN_1
 62
     2
  6
CONTINUOUS
 10
-0.160598
 20
-1.388142
  0
VERTEX
  8
PLAN_1
 62
     2
  6
CONTINUOUS
 10
-0.160598
 20
-1.312000
  0
SEQEND
  8
0
  0
POLYLINE
  8
PLAN_1
 62
     2
  6
CONTINUOUS
 66
     1
 40
0.003000
 41
0.003000
  0
VERTEX
  8
PLAN_1
 62
     2
  6
CONTINUOUS
 10
-0.136803
 20
-1.360118
  0
VERTEX
  8
PLAN_1
 62
     2
  6
CONTINUOUS
 10
-0.133634
 20
-1.359591
  0
VERTEX
  8
PLAN_1
 62
     2
  6
CONTINUOUS
 10
-0.130461
 20
-1.358531
  0
VERTEX
  8
PLAN_1
 62
     2
  6
CONTINUOUS
 10
-0.127815
 20
-1.356945
  0
VERTEX
  8
PLAN_1
 62
     2
  6
CONTINUOUS
 10
-0.125701
 20
-1.354303
  0
VERTEX
  8
PLAN_1
 62
     2
  6
CONTINUOUS
 10
-0.124114
 20
-1.351130
  0
VERTEX
  8
PLAN_1
 62
     2
  6
CONTINUOUS
 10
-0.123059
 20
-1.347429
  0
VERTEX
  8
PLAN_1
 62
     2
  6
CONTINUOUS
 10
-0.122528
 20
-1.343728
  0
VERTEX
  8
PLAN_1
 62
     2
  6
CONTINUOUS
 10
-0.122000
 20
-1.338969
  0
VERTEX
  8
PLAN_1
 62
     2
  6
CONTINUOUS
 10
-0.122528
 20
-1.336323
  0
VERTEX
  8
PLAN_1
 62
     2
  6
CONTINUOUS
 10
-0.122528
 20
-1.333150
  0
VERTEX
  8
PLAN_1
 62
     2
  6
CONTINUOUS
 10
-0.123059
 20
-1.329449
  0
VERTEX
  8
PLAN_1
 62
     2
  6
CONTINUOUS
 10
-0.124642
 20
-1.326280
  0
VERTEX
  8
PLAN_1
 62
     2
  6
CONTINUOUS
 10
-0.126228
 20
-1.323634
  0
VERTEX
  8
PLAN_1
 62
     2
  6
CONTINUOUS
 10
-0.128874
 20
-1.320992
  0
VERTEX
  8
PLAN_1
 62
     2
  6
CONTINUOUS
 10
-0.130461
 20
-1.319933
  0
VERTEX
  8
PLAN_1
 62
     2
  6
CONTINUOUS
 10
-0.132575
 20
-1.319406
  0
VERTEX
  8
PLAN_1
 62
     2
  6
CONTINUOUS
 10
-0.134689
 20
-1.318874
  0
VERTEX
  8
PLAN_1
 62
     2
  6
CONTINUOUS
 10
-0.137335
 20
-1.318874
  0
VERTEX
  8
PLAN_1
 62
     2
  6
CONTINUOUS
 10
-0.139449
 20
-1.318874
  0
VERTEX
  8
PLAN_1
 62
     2
  6
CONTINUOUS
 10
-0.141563
 20
-1.319406
  0
VERTEX
  8
PLAN_1
 62
     2
  6
CONTINUOUS
 10
-0.143150
 20
-1.319933
  0
VERTEX
  8
PLAN_1
 62
     2
  6
CONTINUOUS
 10
-0.145264
 20
-1.320992
  0
VERTEX
  8
PLAN_1
 62
     2
  6
CONTINUOUS
 10
-0.147378
 20
-1.323634
  0
VERTEX
  8
PLAN_1
 62
     2
  6
CONTINUOUS
 10
-0.149496
 20
-1.326807
  0
VERTEX
  8
PLAN_1
 62
     2
  6
CONTINUOUS
 10
-0.150551
 20
-1.330508
  0
VERTEX
  8
PLAN_1
 62
     2
  6
CONTINUOUS
 10
-0.151610
 20
-1.334736
  0
VERTEX
  8
PLAN_1
 62
     2
  6
CONTINUOUS
 10
-0.151610
 20
-1.338441
  0
VERTEX
  8
PLAN_1
 62
     2
  6
CONTINUOUS
 10
-0.151610
 20
-1.341610
  0
VERTEX
  8
PLAN_1
 62
     2
  6
CONTINUOUS
 10
-0.151610
 20
-1.346898
  0
VERTEX
  8
PLAN_1
 62
     2
  6
CONTINUOUS
 10
-0.150551
 20
-1.350598
  0
VERTEX
  8
PLAN_1
 62
     2
  6
CONTINUOUS
 10
-0.148437
 20
-1.353772
  0
VERTEX
  8
PLAN_1
 62
     2
  6
CONTINUOUS
 10
-0.146323
 20
-1.356417
  0
VERTEX
  8
PLAN_1
 62
     2
  6
CONTINUOUS
 10
-0.144209
 20
-1.358004
  0
VERTEX
  8
PLAN_1
 62
     2
  6
CONTINUOUS
 10
-0.141563
 20
-1.359591
  0
VERTEX
  8
PLAN_1
 62
     2
  6
CONTINUOUS
 10
-0.139449
 20
-1.360118
  0
VERTEX
  8
PLAN_1
 62
     2
  6
CONTINUOUS
 10
-0.136803
 20
-1.360118
  0
SEQEND
  8
0
  0
POLYLINE
  8
PLAN_1
 62
     2
  6
CONTINUOUS
 66
     1
 40
0.003000
 41
0.003000
  0
VERTEX
  8
PLAN_1
 62
     2
  6
CONTINUOUS
 10
-0.079701
 20
-1.310413
  0
VERTEX
  8
PLAN_1
 62
     2
  6
CONTINUOUS
 10
-0.076528
 20
-1.310945
  0
VERTEX
  8
PLAN_1
 62
     2
  6
CONTINUOUS
 10
-0.073882
 20
-1.310945
  0
VERTEX
  8
PLAN_1
 62
     2
  6
CONTINUOUS
 10
-0.071240
 20
-1.312000
  0
VERTEX
  8
PLAN_1
 62
     2
  6
CONTINUOUS
 10
-0.068594
 20
-1.313059
  0
VERTEX
  8
PLAN_1
 62
     2
  6
CONTINUOUS
 10
-0.065953
 20
-1.314646
  0
VERTEX
  8
PLAN_1
 62
     2
  6
CONTINUOUS
 10
-0.064366
 20
-1.315701
  0
VERTEX
  8
PLAN_1
 62
     2
  6
CONTINUOUS
 10
-0.062252
 20
-1.317819
  0
VERTEX
  8
PLAN_1
 62
     2
  6
CONTINUOUS
 10
-0.060665
 20
-1.319406
  0
VERTEX
  8
PLAN_1
 62
     2
  6
CONTINUOUS
 10
-0.058020
 20
-1.324161
  0
VERTEX
  8
PLAN_1
 62
     2
  6
CONTINUOUS
 10
-0.055906
 20
-1.328921
  0
VERTEX
  8
PLAN_1
 62
     2
  6
CONTINUOUS
 10
-0.054850
 20
-1.334209
  0
VERTEX
  8
PLAN_1
 62
     2
  6
CONTINUOUS
 10
-0.054319
 20
-1.339496
  0
VERTEX
  8
PLAN_1
 62
     2
  6
CONTINUOUS
 10
-0.054850
 20
-1.344783
  0
VERTEX
  8
PLAN_1
 62
     2
  6
CONTINUOUS
 10
-0.055906
 20
-1.349543
  0
VERTEX
  8
PLAN_1
 62
     2
  6
CONTINUOUS
 10
-0.058020
 20
-1.354303
  0
VERTEX
  8
PLAN_1
 62
     2
  6
CONTINUOUS
 10
-0.060665
 20
-1.359059
  0
VERTEX
  8
PLAN_1
 62
     2
  6
CONTINUOUS
 10
-0.062252
 20
-1.360646
  0
VERTEX
  8
PLAN_1
 62
     2
  6
CONTINUOUS
 10
-0.064366
 20
-1.362760
  0
VERTEX
  8
PLAN_1
 62
     2
  6
CONTINUOUS
 10
-0.065953
 20
-1.364346
  0
VERTEX
  8
PLAN_1
 62
     2
  6
CONTINUOUS
 10
-0.068594
 20
-1.365406
  0
VERTEX
  8
PLAN_1
 62
     2
  6
CONTINUOUS
 10
-0.071240
 20
-1.366465
  0
VERTEX
  8
PLAN_1
 62
     2
  6
CONTINUOUS
 10
-0.073882
 20
-1.367520
  0
VERTEX
  8
PLAN_1
 62
     2
  6
CONTINUOUS
 10
-0.076528
 20
-1.368047
  0
VERTEX
  8
PLAN_1
 62
     2
  6
CONTINUOUS
 10
-0.079701
 20
-1.368047
  0
VERTEX
  8
PLAN_1
 62
     2
  6
CONTINUOUS
 10
-0.082874
 20
-1.368047
  0
VERTEX
  8
PLAN_1
 62
     2
  6
CONTINUOUS
 10
-0.086043
 20
-1.367520
  0
VERTEX
  8
PLAN_1
 62
     2
  6
CONTINUOUS
 10
-0.088689
 20
-1.366465
  0
VERTEX
  8
PLAN_1
 62
     2
  6
CONTINUOUS
 10
-0.090803
 20
-1.365406
  0
VERTEX
  8
PLAN_1
 62
     2
  6
CONTINUOUS
 10
-0.093449
 20
-1.364346
  0
VERTEX
  8
PLAN_1
 62
     2
  6
CONTINUOUS
 10
-0.095563
 20
-1.362760
  0
VERTEX
  8
PLAN_1
 62
     2
  6
CONTINUOUS
 10
-0.097150
 20
-1.360646
  0
VERTEX
  8
PLAN_1
 62
     2
  6
CONTINUOUS
 10
-0.098736
 20
-1.359059
  0
VERTEX
  8
PLAN_1
 62
     2
  6
CONTINUOUS
 10
-0.101378
 20
-1.354303
  0
VERTEX
  8
PLAN_1
 62
     2
  6
CONTINUOUS
 10
-0.103492
 20
-1.349543
  0
VERTEX
  8
PLAN_1
 62
     2
  6
CONTINUOUS
 10
-0.104551
 20
-1.344783
  0
VERTEX
  8
PLAN_1
 62
     2
  6
CONTINUOUS
 10
-0.105079
 20
-1.339496
  0
VERTEX
  8
PLAN_1
 62
     2
  6
CONTINUOUS
 10
-0.104551
 20
-1.334209
  0
VERTEX
  8
PLAN_1
 62
     2
  6
CONTINUOUS
 10
-0.103492
 20
-1.328921
  0
VERTEX
  8
PLAN_1
 62
     2
  6
CONTINUOUS
 10
-0.101378
 20
-1.324161
  0
VERTEX
  8
PLAN_1
 62
     2
  6
CONTINUOUS
 10
-0.098736
 20
-1.319406
  0
VERTEX
  8
PLAN_1
 62
     2
  6
CONTINUOUS
 10
-0.097150
 20
-1.317819
  0
VERTEX
  8
PLAN_1
 62
     2
  6
CONTINUOUS
 10
-0.095563
 20
-1.315701
  0
VERTEX
  8
PLAN_1
 62
     2
  6
CONTINUOUS
 10
-0.093449
 20
-1.314646
  0
VERTEX
  8
PLAN_1
 62
     2
  6
CONTINUOUS
 10
-0.090803
 20
-1.313059
  0
VERTEX
  8
PLAN_1
 62
     2
  6
CONTINUOUS
 10
-0.088689
 20
-1.312000
  0
VERTEX
  8
PLAN_1
 62
     2
  6
CONTINUOUS
 10
-0.086043
 20
-1.310945
  0
VERTEX
  8
PLAN_1
 62
     2
  6
CONTINUOUS
 10
-0.082874
 20
-1.310945
  0
VERTEX
  8
PLAN_1
 62
     2
  6
CONTINUOUS
 10
-0.079701
 20
-1.310413
  0
SEQEND
  8
0
  0
POLYLINE
  8
PLAN_1
 62
     2
  6
CONTINUOUS
 66
     1
 40
0.003000
 41
0.003000
  0
VERTEX
  8
PLAN_1
 62
     2
  6
CONTINUOUS
 10
-0.079701
 20
-1.360118
  0
VERTEX
  8
PLAN_1
 62
     2
  6
CONTINUOUS
 10
-0.077587
 20
-1.360118
  0
VERTEX
  8
PLAN_1
 62
     2
  6
CONTINUOUS
 10
-0.075469
 20
-1.359591
  0
VERTEX
  8
PLAN_1
 62
     2
  6
CONTINUOUS
 10
-0.073354
 20
-1.358531
  0
VERTEX
  8
PLAN_1
 62
     2
  6
CONTINUOUS
 10
-0.071768
 20
-1.358004
  0
VERTEX
  8
PLAN_1
 62
     2
  6
CONTINUOUS
 10
-0.069126
 20
-1.355358
  0
VERTEX
  8
PLAN_1
 62
     2
  6
CONTINUOUS
 10
-0.067012
 20
-1.352185
  0
VERTEX
  8
PLAN_1
 62
     2
  6
CONTINUOUS
 10
-0.065425
 20
-1.349016
  0
VERTEX
  8
PLAN_1
 62
     2
  6
CONTINUOUS
 10
-0.064366
 20
-1.345843
  0
VERTEX
  8
PLAN_1
 62
     2
  6
CONTINUOUS
 10
-0.063839
 20
-1.342142
  0
VERTEX
  8
PLAN_1
 62
     2
  6
CONTINUOUS
 10
-0.063839
 20
-1.339496
  0
VERTEX
  8
PLAN_1
 62
     2
  6
CONTINUOUS
 10
-0.063839
 20
-1.336323
  0
VERTEX
  8
PLAN_1
 62
     2
  6
CONTINUOUS
 10
-0.064366
 20
-1.333150
  0
VERTEX
  8
PLAN_1
 62
     2
  6
CONTINUOUS
 10
-0.065425
 20
-1.329449
  0
VERTEX
  8
PLAN_1
 62
     2
  6
CONTINUOUS
 10
-0.067012
 20
-1.326280
  0
VERTEX
  8
PLAN_1
 62
     2
  6
CONTINUOUS
 10
-0.069126
 20
-1.323106
  0
VERTEX
  8
PLAN_1
 62
     2
  6
CONTINUOUS
 10
-0.071768
 20
-1.320461
  0
VERTEX
  8
PLAN_1
 62
     2
  6
CONTINUOUS
 10
-0.073354
 20
-1.319933
  0
VERTEX
  8
PLAN_1
 62
     2
  6
CONTINUOUS
 10
-0.075469
 20
-1.318874
  0
VERTEX
  8
PLAN_1
 62
     2
  6
CONTINUOUS
 10
-0.077587
 20
-1.318346
  0
VERTEX
  8
PLAN_1
 62
     2
  6
CONTINUOUS
 10
-0.079701
 20
-1.318346
  0
VERTEX
  8
PLAN_1
 62
     2
  6
CONTINUOUS
 10
-0.082343
 20
-1.318346
  0
VERTEX
  8
PLAN_1
 62
     2
  6
CONTINUOUS
 10
-0.084461
 20
-1.318874
  0
VERTEX
  8
PLAN_1
 62
     2
  6
CONTINUOUS
 10
-0.086043
 20
-1.319933
  0
VERTEX
  8
PLAN_1
 62
     2
  6
CONTINUOUS
 10
-0.087630
 20
-1.320461
  0
VERTEX
  8
PLAN_1
 62
     2
  6
CONTINUOUS
 10
-0.090276
 20
-1.323106
  0
VERTEX
  8
PLAN_1
 62
     2
  6
CONTINUOUS
 10
-0.092390
 20
-1.326280
  0
VERTEX
  8
PLAN_1
 62
     2
  6
CONTINUOUS
 10
-0.093976
 20
-1.329449
  0
VERTEX
  8
PLAN_1
 62
     2
  6
CONTINUOUS
 10
-0.095035
 20
-1.333150
  0
VERTEX
  8
PLAN_1
 62
     2
  6
CONTINUOUS
 10
-0.095563
 20
-1.336323
  0
VERTEX
  8
PLAN_1
 62
     2
  6
CONTINUOUS
 10
-0.095563
 20
-1.339496
  0
VERTEX
  8
PLAN_1
 62
     2
  6
CONTINUOUS
 10
-0.095563
 20
-1.342142
  0
VERTEX
  8
PLAN_1
 62
     2
  6
CONTINUOUS
 10
-0.095035
 20
-1.345843
  0
VERTEX
  8
PLAN_1
 62
     2
  6
CONTINUOUS
 10
-0.093976
 20
-1.349016
  0
VERTEX
  8
PLAN_1
 62
     2
  6
CONTINUOUS
 10
-0.092390
 20
-1.352185
  0
VERTEX
  8
PLAN_1
 62
     2
  6
CONTINUOUS
 10
-0.090276
 20
-1.355358
  0
VERTEX
  8
PLAN_1
 62
     2
  6
CONTINUOUS
 10
-0.087630
 20
-1.358004
  0
VERTEX
  8
PLAN_1
 62
     2
  6
CONTINUOUS
 10
-0.086043
 20
-1.358531
  0
VERTEX
  8
PLAN_1
 62
     2
  6
CONTINUOUS
 10
-0.084461
 20
-1.359591
  0
VERTEX
  8
PLAN_1
 62
     2
  6
CONTINUOUS
 10
-0.082343
 20
-1.360118
  0
VERTEX
  8
PLAN_1
 62
     2
  6
CONTINUOUS
 10
-0.079701
 20
-1.360118
  0
SEQEND
  8
0
  0
POLYLINE
  8
PLAN_1
 62
     2
  6
CONTINUOUS
 66
     1
 40
0.003000
 41
0.003000
  0
VERTEX
  8
PLAN_1
 62
     2
  6
CONTINUOUS
 10
-0.008319
 20
-1.366465
  0
VERTEX
  8
PLAN_1
 62
     2
  6
CONTINUOUS
 10
-0.008319
 20
-1.358531
  0
VERTEX
  8
PLAN_1
 62
     2
  6
CONTINUOUS
 10
-0.008846
 20
-1.358531
  0
VERTEX
  8
PLAN_1
 62
     2
  6
CONTINUOUS
 10
-0.010433
 20
-1.360646
  0
VERTEX
  8
PLAN_1
 62
     2
  6
CONTINUOUS
 10
-0.012020
 20
-1.362760
  0
VERTEX
  8
PLAN_1
 62
     2
  6
CONTINUOUS
 10
-0.013606
 20
-1.364346
  0
VERTEX
  8
PLAN_1
 62
     2
  6
CONTINUOUS
 10
-0.015720
 20
-1.365406
  0
VERTEX
  8
PLAN_1
 62
     2
  6
CONTINUOUS
 10
-0.017835
 20
-1.366465
  0
VERTEX
  8
PLAN_1
 62
     2
  6
CONTINUOUS
 10
-0.019953
 20
-1.367520
  0
VERTEX
  8
PLAN_1
 62
     2
  6
CONTINUOUS
 10
-0.023122
 20
-1.368047
  0
VERTEX
  8
PLAN_1
 62
     2
  6
CONTINUOUS
 10
-0.025768
 20
-1.368047
  0
VERTEX
  8
PLAN_1
 62
     2
  6
CONTINUOUS
 10
-0.028941
 20
-1.368047
  0
VERTEX
  8
PLAN_1
 62
     2
  6
CONTINUOUS
 10
-0.032114
 20
-1.367520
  0
VERTEX
  8
PLAN_1
 62
     2
  6
CONTINUOUS
 10
-0.035283
 20
-1.365933
  0
VERTEX
  8
PLAN_1
 62
     2
  6
CONTINUOUS
 10
-0.037929
 20
-1.364346
  0
VERTEX
  8
PLAN_1
 62
     2
  6
CONTINUOUS
 10
-0.040043
 20
-1.362232
  0
VERTEX
  8
PLAN_1
 62
     2
  6
CONTINUOUS
 10
-0.042157
 20
-1.359591
  0
VERTEX
  8
PLAN_1
 62
     2
  6
CONTINUOUS
 10
-0.043217
 20
-1.355886
  0
VERTEX
  8
PLAN_1
 62
     2
  6
CONTINUOUS
 10
-0.043744
 20
-1.351130
  0
VERTEX
  8
PLAN_1
 62
     2
  6
CONTINUOUS
 10
-0.043744
 20
-1.312000
  0
VERTEX
  8
PLAN_1
 62
     2
  6
CONTINUOUS
 10
-0.034756
 20
-1.312000
  0
VERTEX
  8
PLAN_1
 62
     2
  6
CONTINUOUS
 10
-0.034756
 20
-1.347957
  0
VERTEX
  8
PLAN_1
 62
     2
  6
CONTINUOUS
 10
-0.034228
 20
-1.351130
  0
VERTEX
  8
PLAN_1
 62
     2
  6
CONTINUOUS
 10
-0.033697
 20
-1.353772
  0
VERTEX
  8
PLAN_1
 62
     2
  6
CONTINUOUS
 10
-0.032642
 20
-1.355886
  0
VERTEX
  8
PLAN_1
 62
     2
  6
CONTINUOUS
 10
-0.031583
 20
-1.357472
  0
VERTEX
  8
PLAN_1
 62
     2
  6
CONTINUOUS
 10
-0.029996
 20
-1.358531
  0
VERTEX
  8
PLAN_1
 62
     2
  6
CONTINUOUS
 10
-0.028409
 20
-1.359591
  0
VERTEX
  8
PLAN_1
 62
     2
  6
CONTINUOUS
 10
-0.026295
 20
-1.360118
  0
VERTEX
  8
PLAN_1
 62
     2
  6
CONTINUOUS
 10
-0.024181
 20
-1.360118
  0
VERTEX
  8
PLAN_1
 62
     2
  6
CONTINUOUS
 10
-0.019953
 20
-1.359591
  0
VERTEX
  8
PLAN_1
 62
     2
  6
CONTINUOUS
 10
-0.016780
 20
-1.358531
  0
VERTEX
  8
PLAN_1
 62
     2
  6
CONTINUOUS
 10
-0.014134
 20
-1.356417
  0
VERTEX
  8
PLAN_1
 62
     2
  6
CONTINUOUS
 10
-0.012020
 20
-1.354303
  0
VERTEX
  8
PLAN_1
 62
     2
  6
CONTINUOUS
 10
-0.010961
 20
-1.351130
  0
VERTEX
  8
PLAN_1
 62
     2
  6
CONTINUOUS
 10
-0.009906
 20
-1.348484
  0
VERTEX
  8
PLAN_1
 62
     2
  6
CONTINUOUS
 10
-0.009378
 20
-1.345311
  0
VERTEX
  8
PLAN_1
 62
     2
  6
CONTINUOUS
 10
-0.008846
 20
-1.342142
  0
VERTEX
  8
PLAN_1
 62
     2
  6
CONTINUOUS
 10
-0.008846
 20
-1.312000
  0
VERTEX
  8
PLAN_1
 62
     2
  6
CONTINUOUS
 10
0.000142
 20
-1.312000
  0
VERTEX
  8
PLAN_1
 62
     2
  6
CONTINUOUS
 10
0.000142
 20
-1.366465
  0
VERTEX
  8
PLAN_1
 62
     2
  6
CONTINUOUS
 10
-0.008319
 20
-1.366465
  0
SEQEND
  8
0
  0
POLYLINE
  8
PLAN_1
 62
     2
  6
CONTINUOUS
 66
     1
 40
0.003000
 41
0.003000
  0
VERTEX
  8
PLAN_1
 62
     2
  6
CONTINUOUS
 10
0.024465
 20
-1.366465
  0
VERTEX
  8
PLAN_1
 62
     2
  6
CONTINUOUS
 10
0.014945
 20
-1.366465
  0
VERTEX
  8
PLAN_1
 62
     2
  6
CONTINUOUS
 10
0.014945
 20
-1.312000
  0
VERTEX
  8
PLAN_1
 62
     2
  6
CONTINUOUS
 10
0.023937
 20
-1.312000
  0
VERTEX
  8
PLAN_1
 62
     2
  6
CONTINUOUS
 10
0.023937
 20
-1.320992
  0
VERTEX
  8
PLAN_1
 62
     2
  6
CONTINUOUS
 10
0.025520
 20
-1.318874
  0
VERTEX
  8
PLAN_1
 62
     2
  6
CONTINUOUS
 10
0.027106
 20
-1.316760
  0
VERTEX
  8
PLAN_1
 62
     2
  6
CONTINUOUS
 10
0.028693
 20
-1.315173
  0
VERTEX
  8
PLAN_1
 62
     2
  6
CONTINUOUS
 10
0.030280
 20
-1.313587
  0
VERTEX
  8
PLAN_1
 62
     2
  6
CONTINUOUS
 10
0.032394
 20
-1.312000
  0
VERTEX
  8
PLAN_1
 62
     2
  6
CONTINUOUS
 10
0.034512
 20
-1.311472
  0
VERTEX
  8
PLAN_1
 62
     2
  6
CONTINUOUS
 10
0.036626
 20
-1.310945
  0
VERTEX
  8
PLAN_1
 62
     2
  6
CONTINUOUS
 10
0.039268
 20
-1.310413
  0
VERTEX
  8
PLAN_1
 62
     2
  6
CONTINUOUS
 10
0.039799
 20
-1.310413
  0
VERTEX
  8
PLAN_1
 62
     2
  6
CONTINUOUS
 10
0.040327
 20
-1.310413
  0
VERTEX
  8
PLAN_1
 62
     2
  6
CONTINUOUS
 10
0.040854
 20
-1.310413
  0
VERTEX
  8
PLAN_1
 62
     2
  6
CONTINUOUS
 10
0.041382
 20
-1.310945
  0
VERTEX
  8
PLAN_1
 62
     2
  6
CONTINUOUS
 10
0.041382
 20
-1.320461
  0
VERTEX
  8
PLAN_1
 62
     2
  6
CONTINUOUS
 10
0.038213
 20
-1.320461
  0
VERTEX
  8
PLAN_1
 62
     2
  6
CONTINUOUS
 10
0.035039
 20
-1.320461
  0
VERTEX
  8
PLAN_1
 62
     2
  6
CONTINUOUS
 10
0.032394
 20
-1.321520
  0
VERTEX
  8
PLAN_1
 62
     2
  6
CONTINUOUS
 10
0.030280
 20
-1.323106
  0
VERTEX
  8
PLAN_1
 62
     2
  6
CONTINUOUS
 10
0.028165
 20
-1.324693
  0
VERTEX
  8
PLAN_1
 62
     2
  6
CONTINUOUS
 10
0.026579
 20
-1.326807
  0
VERTEX
  8
PLAN_1
 62
     2
  6
CONTINUOUS
 10
0.024992
 20
-1.329449
  0
VERTEX
  8
PLAN_1
 62
     2
  6
CONTINUOUS
 10
0.024465
 20
-1.332094
  0
VERTEX
  8
PLAN_1
 62
     2
  6
CONTINUOUS
 10
0.024465
 20
-1.334736
  0
VERTEX
  8
PLAN_1
 62
     2
  6
CONTINUOUS
 10
0.024465
 20
-1.366465
  0
SEQEND
  8
0
  0
POLYLINE
  8
PLAN_1
 62
     2
  6
CONTINUOUS
 66
     1
 40
0.003000
 41
0.003000
  0
VERTEX
  8
PLAN_1
 62
     2
  6
CONTINUOUS
 10
-0.824709
 20
-1.444717
  0
VERTEX
  8
PLAN_1
 62
     2
  6
CONTINUOUS
 10
-0.824709
 20
-1.480146
  0
VERTEX
  8
PLAN_1
 62
     2
  6
CONTINUOUS
 10
-0.824709
 20
-1.481728
  0
VERTEX
  8
PLAN_1
 62
     2
  6
CONTINUOUS
 10
-0.824181
 20
-1.482787
  0
VERTEX
  8
PLAN_1
 62
     2
  6
CONTINUOUS
 10
-0.823650
 20
-1.483315
  0
VERTEX
  8
PLAN_1
 62
     2
  6
CONTINUOUS
 10
-0.822594
 20
-1.483846
  0
VERTEX
  8
PLAN_1
 62
     2
  6
CONTINUOUS
 10
-0.821535
 20
-1.483846
  0
VERTEX
  8
PLAN_1
 62
     2
  6
CONTINUOUS
 10
-0.821008
 20
-1.484374
  0
VERTEX
  8
PLAN_1
 62
     2
  6
CONTINUOUS
 10
-0.819949
 20
-1.484374
  0
VERTEX
  8
PLAN_1
 62
     2
  6
CONTINUOUS
 10
-0.819421
 20
-1.484374
  0
VERTEX
  8
PLAN_1
 62
     2
  6
CONTINUOUS
 10
-0.815720
 20
-1.484374
  0
VERTEX
  8
PLAN_1
 62
     2
  6
CONTINUOUS
 10
-0.815720
 20
-1.491248
  0
VERTEX
  8
PLAN_1
 62
     2
  6
CONTINUOUS
 10
-0.817307
 20
-1.491776
  0
VERTEX
  8
PLAN_1
 62
     2
  6
CONTINUOUS
 10
-0.818362
 20
-1.491776
  0
VERTEX
  8
PLAN_1
 62
     2
  6
CONTINUOUS
 10
-0.819421
 20
-1.491776
  0
VERTEX
  8
PLAN_1
 62
     2
  6
CONTINUOUS
 10
-0.820480
 20
-1.491776
  0
VERTEX
  8
PLAN_1
 62
     2
  6
CONTINUOUS
 10
-0.821008
 20
-1.492307
  0
VERTEX
  8
PLAN_1
 62
     2
  6
CONTINUOUS
 10
-0.822063
 20
-1.492307
  0
VERTEX
  8
PLAN_1
 62
     2
  6
CONTINUOUS
 10
-0.822594
 20
-1.492307
  0
VERTEX
  8
PLAN_1
 62
     2
  6
CONTINUOUS
 10
-0.825768
 20
-1.491776
  0
VERTEX
  8
PLAN_1
 62
     2
  6
CONTINUOUS
 10
-0.828409
 20
-1.491248
  0
VERTEX
  8
PLAN_1
 62
     2
  6
CONTINUOUS
 10
-0.830524
 20
-1.490189
  0
VERTEX
  8
PLAN_1
 62
     2
  6
CONTINUOUS
 10
-0.831583
 20
-1.488602
  0
VERTEX
  8
PLAN_1
 62
     2
  6
CONTINUOUS
 10
-0.832642
 20
-1.487020
  0
VERTEX
  8
PLAN_1
 62
     2
  6
CONTINUOUS
 10
-0.833697
 20
-1.484902
  0
VERTEX
  8
PLAN_1
 62
     2
  6
CONTINUOUS
 10
-0.833697
 20
-1.482787
  0
VERTEX
  8
PLAN_1
 62
     2
  6
CONTINUOUS
 10
-0.833697
 20
-1.480673
  0
VERTEX
  8
PLAN_1
 62
     2
  6
CONTINUOUS
 10
-0.833697
 20
-1.444717
  0
VERTEX
  8
PLAN_1
 62
     2
  6
CONTINUOUS
 10
-0.841098
 20
-1.444717
  0
VERTEX
  8
PLAN_1
 62
     2
  6
CONTINUOUS
 10
-0.841098
 20
-1.437315
  0
VERTEX
  8
PLAN_1
 62
     2
  6
CONTINUOUS
 10
-0.833697
 20
-1.437315
  0
VERTEX
  8
PLAN_1
 62
     2
  6
CONTINUOUS
 10
-0.833697
 20
-1.421980
  0
VERTEX
  8
PLAN_1
 62
     2
  6
CONTINUOUS
 10
-0.824709
 20
-1.421980
  0
VERTEX
  8
PLAN_1
 62
     2
  6
CONTINUOUS
 10
-0.824709
 20
-1.437315
  0
VERTEX
  8
PLAN_1
 62
     2
  6
CONTINUOUS
 10
-0.815720
 20
-1.437315
  0
VERTEX
  8
PLAN_1
 62
     2
  6
CONTINUOUS
 10
-0.815720
 20
-1.444717
  0
VERTEX
  8
PLAN_1
 62
     2
  6
CONTINUOUS
 10
-0.824709
 20
-1.444717
  0
SEQEND
  8
0
  0
POLYLINE
  8
PLAN_1
 62
     2
  6
CONTINUOUS
 66
     1
 40
0.003000
 41
0.003000
  0
VERTEX
  8
PLAN_1
 62
     2
  6
CONTINUOUS
 10
-0.771303
 20
-1.491248
  0
VERTEX
  8
PLAN_1
 62
     2
  6
CONTINUOUS
 10
-0.771303
 20
-1.483846
  0
VERTEX
  8
PLAN_1
 62
     2
  6
CONTINUOUS
 10
-0.771835
 20
-1.483315
  0
VERTEX
  8
PLAN_1
 62
     2
  6
CONTINUOUS
 10
-0.773421
 20
-1.485433
  0
VERTEX
  8
PLAN_1
 62
     2
  6
CONTINUOUS
 10
-0.775008
 20
-1.487547
  0
VERTEX
  8
PLAN_1
 62
     2
  6
CONTINUOUS
 10
-0.776591
 20
-1.489134
  0
VERTEX
  8
PLAN_1
 62
     2
  6
CONTINUOUS
 10
-0.778709
 20
-1.490720
  0
VERTEX
  8
PLAN_1
 62
     2
  6
CONTINUOUS
 10
-0.780823
 20
-1.491776
  0
VERTEX
  8
PLAN_1
 62
     2
  6
CONTINUOUS
 10
-0.782937
 20
-1.492307
  0
VERTEX
  8
PLAN_1
 62
     2
  6
CONTINUOUS
 10
-0.786110
 20
-1.492835
  0
VERTEX
  8
PLAN_1
 62
     2
  6
CONTINUOUS
 10
-0.789283
 20
-1.492835
  0
VERTEX
  8
PLAN_1
 62
     2
  6
CONTINUOUS
 10
-0.791925
 20
-1.492835
  0
VERTEX
  8
PLAN_1
 62
     2
  6
CONTINUOUS
 10
-0.795098
 20
-1.492307
  0
VERTEX
  8
PLAN_1
 62
     2
  6
CONTINUOUS
 10
-0.798272
 20
-1.491248
  0
VERTEX
  8
PLAN_1
 62
     2
  6
CONTINUOUS
 10
-0.800913
 20
-1.489661
  0
VERTEX
  8
PLAN_1
 62
     2
  6
CONTINUOUS
 10
-0.803031
 20
-1.487020
  0
VERTEX
  8
PLAN_1
 62
     2
  6
CONTINUOUS
 10
-0.805146
 20
-1.484374
  0
VERTEX
  8
PLAN_1
 62
     2
  6
CONTINUOUS
 10
-0.806201
 20
-1.480673
  0
VERTEX
  8
PLAN_1
 62
     2
  6
CONTINUOUS
 10
-0.806732
 20
-1.476441
  0
VERTEX
  8
PLAN_1
 62
     2
  6
CONTINUOUS
 10
-0.806732
 20
-1.437315
  0
VERTEX
  8
PLAN_1
 62
     2
  6
CONTINUOUS
 10
-0.797744
 20
-1.437315
  0
VERTEX
  8
PLAN_1
 62
     2
  6
CONTINUOUS
 10
-0.797744
 20
-1.473272
  0
VERTEX
  8
PLAN_1
 62
     2
  6
CONTINUOUS
 10
-0.797213
 20
-1.476441
  0
VERTEX
  8
PLAN_1
 62
     2
  6
CONTINUOUS
 10
-0.796685
 20
-1.479087
  0
VERTEX
  8
PLAN_1
 62
     2
  6
CONTINUOUS
 10
-0.795626
 20
-1.480673
  0
VERTEX
  8
PLAN_1
 62
     2
  6
CONTINUOUS
 10
-0.794571
 20
-1.482787
  0
VERTEX
  8
PLAN_1
 62
     2
  6
CONTINUOUS
 10
-0.792984
 20
-1.483846
  0
VERTEX
  8
PLAN_1
 62
     2
  6
CONTINUOUS
 10
-0.791398
 20
-1.484374
  0
VERTEX
  8
PLAN_1
 62
     2
  6
CONTINUOUS
 10
-0.789283
 20
-1.484902
  0
VERTEX
  8
PLAN_1
 62
     2
  6
CONTINUOUS
 10
-0.787169
 20
-1.484902
  0
VERTEX
  8
PLAN_1
 62
     2
  6
CONTINUOUS
 10
-0.782937
 20
-1.484902
  0
VERTEX
  8
PLAN_1
 62
     2
  6
CONTINUOUS
 10
-0.779764
 20
-1.483315
  0
VERTEX
  8
PLAN_1
 62
     2
  6
CONTINUOUS
 10
-0.777122
 20
-1.481728
  0
VERTEX
  8
PLAN_1
 62
     2
  6
CONTINUOUS
 10
-0.775008
 20
-1.479087
  0
VERTEX
  8
PLAN_1
 62
     2
  6
CONTINUOUS
 10
-0.773949
 20
-1.476441
  0
VERTEX
  8
PLAN_1
 62
     2
  6
CONTINUOUS
 10
-0.772890
 20
-1.473272
  0
VERTEX
  8
PLAN_1
 62
     2
  6
CONTINUOUS
 10
-0.772362
 20
-1.470098
  0
VERTEX
  8
PLAN_1
 62
     2
  6
CONTINUOUS
 10
-0.771835
 20
-1.466925
  0
VERTEX
  8
PLAN_1
 62
     2
  6
CONTINUOUS
 10
-0.771835
 20
-1.437315
  0
VERTEX
  8
PLAN_1
 62
     2
  6
CONTINUOUS
 10
-0.762846
 20
-1.437315
  0
VERTEX
  8
PLAN_1
 62
     2
  6
CONTINUOUS
 10
-0.762846
 20
-1.491248
  0
VERTEX
  8
PLAN_1
 62
     2
  6
CONTINUOUS
 10
-0.771303
 20
-1.491248
  0
SEQEND
  8
0
  0
POLYLINE
  8
PLAN_1
 62
     2
  6
CONTINUOUS
 66
     1
 40
0.003000
 41
0.003000
  0
VERTEX
  8
PLAN_1
 62
     2
  6
CONTINUOUS
 10
-0.749626
 20
-1.491248
  0
VERTEX
  8
PLAN_1
 62
     2
  6
CONTINUOUS
 10
-0.749626
 20
-1.416693
  0
VERTEX
  8
PLAN_1
 62
     2
  6
CONTINUOUS
 10
-0.740638
 20
-1.416693
  0
VERTEX
  8
PLAN_1
 62
     2
  6
CONTINUOUS
 10
-0.740638
 20
-1.444189
  0
VERTEX
  8
PLAN_1
 62
     2
  6
CONTINUOUS
 10
-0.739051
 20
-1.442075
  0
VERTEX
  8
PLAN_1
 62
     2
  6
CONTINUOUS
 10
-0.737465
 20
-1.440488
  0
VERTEX
  8
PLAN_1
 62
     2
  6
CONTINUOUS
 10
-0.735350
 20
-1.438902
  0
VERTEX
  8
PLAN_1
 62
     2
  6
CONTINUOUS
 10
-0.733764
 20
-1.437843
  0
VERTEX
  8
PLAN_1
 62
     2
  6
CONTINUOUS
 10
-0.731650
 20
-1.436787
  0
VERTEX
  8
PLAN_1
 62
     2
  6
CONTINUOUS
 10
-0.729535
 20
-1.436256
  0
VERTEX
  8
PLAN_1
 62
     2
  6
CONTINUOUS
 10
-0.726890
 20
-1.435728
  0
VERTEX
  8
PLAN_1
 62
     2
  6
CONTINUOUS
 10
-0.724776
 20
-1.435728
  0
VERTEX
  8
PLAN_1
 62
     2
  6
CONTINUOUS
 10
-0.722130
 20
-1.435728
  0
VERTEX
  8
PLAN_1
 62
     2
  6
CONTINUOUS
 10
-0.719488
 20
-1.436256
  0
VERTEX
  8
PLAN_1
 62
     2
  6
CONTINUOUS
 10
-0.717374
 20
-1.436787
  0
VERTEX
  8
PLAN_1
 62
     2
  6
CONTINUOUS
 10
-0.715256
 20
-1.437843
  0
VERTEX
  8
PLAN_1
 62
     2
  6
CONTINUOUS
 10
-0.711028
 20
-1.439961
  0
VERTEX
  8
PLAN_1
 62
     2
  6
CONTINUOUS
 10
-0.707854
 20
-1.443130
  0
VERTEX
  8
PLAN_1
 62
     2
  6
CONTINUOUS
 10
-0.705213
 20
-1.447362
  0
VERTEX
  8
PLAN_1
 62
     2
  6
CONTINUOUS
 10
-0.703626
 20
-1.452122
  0
VERTEX
  8
PLAN_1
 62
     2
  6
CONTINUOUS
 10
-0.702567
 20
-1.456878
  0
VERTEX
  8
PLAN_1
 62
     2
  6
CONTINUOUS
 10
-0.702039
 20
-1.462697
  0
VERTEX
  8
PLAN_1
 62
     2
  6
CONTINUOUS
 10
-0.702567
 20
-1.467984
  0
VERTEX
  8
PLAN_1
 62
     2
  6
CONTINUOUS
 10
-0.703094
 20
-1.472740
  0
VERTEX
  8
PLAN_1
 62
     2
  6
CONTINUOUS
 10
-0.704681
 20
-1.478028
  0
VERTEX
  8
PLAN_1
 62
     2
  6
CONTINUOUS
 10
-0.707327
 20
-1.482787
  0
VERTEX
  8
PLAN_1
 62
     2
  6
CONTINUOUS
 10
-0.708382
 20
-1.484902
  0
VERTEX
  8
PLAN_1
 62
     2
  6
CONTINUOUS
 10
-0.710500
 20
-1.487020
  0
VERTEX
  8
PLAN_1
 62
     2
  6
CONTINUOUS
 10
-0.712087
 20
-1.488602
  0
VERTEX
  8
PLAN_1
 62
     2
  6
CONTINUOUS
 10
-0.714728
 20
-1.490189
  0
VERTEX
  8
PLAN_1
 62
     2
  6
CONTINUOUS
 10
-0.716843
 20
-1.491248
  0
VERTEX
  8
PLAN_1
 62
     2
  6
CONTINUOUS
 10
-0.719488
 20
-1.492307
  0
VERTEX
  8
PLAN_1
 62
     2
  6
CONTINUOUS
 10
-0.722661
 20
-1.492835
  0
VERTEX
  8
PLAN_1
 62
     2
  6
CONTINUOUS
 10
-0.725831
 20
-1.492835
  0
VERTEX
  8
PLAN_1
 62
     2
  6
CONTINUOUS
 10
-0.729004
 20
-1.492835
  0
VERTEX
  8
PLAN_1
 62
     2
  6
CONTINUOUS
 10
-0.732177
 20
-1.492307
  0
VERTEX
  8
PLAN_1
 62
     2
  6
CONTINUOUS
 10
-0.734291
 20
-1.491248
  0
VERTEX
  8
PLAN_1
 62
     2
  6
CONTINUOUS
 10
-0.736406
 20
-1.490189
  0
VERTEX
  8
PLAN_1
 62
     2
  6
CONTINUOUS
 10
-0.737992
 20
-1.488602
  0
VERTEX
  8
PLAN_1
 62
     2
  6
CONTINUOUS
 10
-0.739051
 20
-1.487547
  0
VERTEX
  8
PLAN_1
 62
     2
  6
CONTINUOUS
 10
-0.740110
 20
-1.485961
  0
VERTEX
  8
PLAN_1
 62
     2
  6
CONTINUOUS
 10
-0.741165
 20
-1.484902
  0
VERTEX
  8
PLAN_1
 62
     2
  6
CONTINUOUS
 10
-0.741165
 20
-1.491248
  0
VERTEX
  8
PLAN_1
 62
     2
  6
CONTINUOUS
 10
-0.749626
 20
-1.491248
  0
SEQEND
  8
0
  0
POLYLINE
  8
PLAN_1
 62
     2
  6
CONTINUOUS
 66
     1
 40
0.003000
 41
0.003000
  0
VERTEX
  8
PLAN_1
 62
     2
  6
CONTINUOUS
 10
-0.726362
 20
-1.443661
  0
VERTEX
  8
PLAN_1
 62
     2
  6
CONTINUOUS
 10
-0.729004
 20
-1.443661
  0
VERTEX
  8
PLAN_1
 62
     2
  6
CONTINUOUS
 10
-0.731118
 20
-1.444189
  0
VERTEX
  8
PLAN_1
 62
     2
  6
CONTINUOUS
 10
-0.732705
 20
-1.445248
  0
VERTEX
  8
PLAN_1
 62
     2
  6
CONTINUOUS
 10
-0.734291
 20
-1.446303
  0
VERTEX
  8
PLAN_1
 62
     2
  6
CONTINUOUS
 10
-0.736937
 20
-1.448949
  0
VERTEX
  8
PLAN_1
 62
     2
  6
CONTINUOUS
 10
-0.738524
 20
-1.452122
  0
VERTEX
  8
PLAN_1
 62
     2
  6
CONTINUOUS
 10
-0.740110
 20
-1.455823
  0
VERTEX
  8
PLAN_1
 62
     2
  6
CONTINUOUS
 10
-0.740638
 20
-1.459524
  0
VERTEX
  8
PLAN_1
 62
     2
  6
CONTINUOUS
 10
-0.741165
 20
-1.463224
  0
VERTEX
  8
PLAN_1
 62
     2
  6
CONTINUOUS
 10
-0.741165
 20
-1.466925
  0
VERTEX
  8
PLAN_1
 62
     2
  6
CONTINUOUS
 10
-0.740638
 20
-1.471685
  0
VERTEX
  8
PLAN_1
 62
     2
  6
CONTINUOUS
 10
-0.739579
 20
-1.475913
  0
VERTEX
  8
PLAN_1
 62
     2
  6
CONTINUOUS
 10
-0.737992
 20
-1.479087
  0
VERTEX
  8
PLAN_1
 62
     2
  6
CONTINUOUS
 10
-0.735878
 20
-1.481201
  0
VERTEX
  8
PLAN_1
 62
     2
  6
CONTINUOUS
 10
-0.733764
 20
-1.483315
  0
VERTEX
  8
PLAN_1
 62
     2
  6
CONTINUOUS
 10
-0.731118
 20
-1.484374
  0
VERTEX
  8
PLAN_1
 62
     2
  6
CONTINUOUS
 10
-0.728476
 20
-1.484902
  0
VERTEX
  8
PLAN_1
 62
     2
  6
CONTINUOUS
 10
-0.726362
 20
-1.484902
  0
VERTEX
  8
PLAN_1
 62
     2
  6
CONTINUOUS
 10
-0.722661
 20
-1.484902
  0
VERTEX
  8
PLAN_1
 62
     2
  6
CONTINUOUS
 10
-0.719488
 20
-1.483315
  0
VERTEX
  8
PLAN_1
 62
     2
  6
CONTINUOUS
 10
-0.717374
 20
-1.481728
  0
VERTEX
  8
PLAN_1
 62
     2
  6
CONTINUOUS
 10
-0.715256
 20
-1.479087
  0
VERTEX
  8
PLAN_1
 62
     2
  6
CONTINUOUS
 10
-0.713669
 20
-1.475913
  0
VERTEX
  8
PLAN_1
 62
     2
  6
CONTINUOUS
 10
-0.712614
 20
-1.472213
  0
VERTEX
  8
PLAN_1
 62
     2
  6
CONTINUOUS
 10
-0.711555
 20
-1.468512
  0
VERTEX
  8
PLAN_1
 62
     2
  6
CONTINUOUS
 10
-0.711555
 20
-1.464280
  0
VERTEX
  8
PLAN_1
 62
     2
  6
CONTINUOUS
 10
-0.711555
 20
-1.461110
  0
VERTEX
  8
PLAN_1
 62
     2
  6
CONTINUOUS
 10
-0.712087
 20
-1.457937
  0
VERTEX
  8
PLAN_1
 62
     2
  6
CONTINUOUS
 10
-0.712614
 20
-1.454764
  0
VERTEX
  8
PLAN_1
 62
     2
  6
CONTINUOUS
 10
-0.713669
 20
-1.451591
  0
VERTEX
  8
PLAN_1
 62
     2
  6
CONTINUOUS
 10
-0.715787
 20
-1.448417
  0
VERTEX
  8
PLAN_1
 62
     2
  6
CONTINUOUS
 10
-0.717902
 20
-1.445776
  0
VERTEX
  8
PLAN_1
 62
     2
  6
CONTINUOUS
 10
-0.720016
 20
-1.445248
  0
VERTEX
  8
PLAN_1
 62
     2
  6
CONTINUOUS
 10
-0.721602
 20
-1.444189
  0
VERTEX
  8
PLAN_1
 62
     2
  6
CONTINUOUS
 10
-0.723717
 20
-1.443661
  0
VERTEX
  8
PLAN_1
 62
     2
  6
CONTINUOUS
 10
-0.726362
 20
-1.443661
  0
SEQEND
  8
0
  0
POLYLINE
  8
PLAN_1
 62
     2
  6
CONTINUOUS
 66
     1
 40
0.003000
 41
0.003000
  0
VERTEX
  8
PLAN_1
 62
     2
  6
CONTINUOUS
 10
-0.644933
 20
-1.474327
  0
VERTEX
  8
PLAN_1
 62
     2
  6
CONTINUOUS
 10
-0.645461
 20
-1.475386
  0
VERTEX
  8
PLAN_1
 62
     2
  6
CONTINUOUS
 10
-0.645461
 20
-1.476972
  0
VERTEX
  8
PLAN_1
 62
     2
  6
CONTINUOUS
 10
-0.646520
 20
-1.479087
  0
VERTEX
  8
PLAN_1
 62
     2
  6
CONTINUOUS
 10
-0.647579
 20
-1.481201
  0
VERTEX
  8
PLAN_1
 62
     2
  6
CONTINUOUS
 10
-0.648634
 20
-1.483315
  0
VERTEX
  8
PLAN_1
 62
     2
  6
CONTINUOUS
 10
-0.650220
 20
-1.485433
  0
VERTEX
  8
PLAN_1
 62
     2
  6
CONTINUOUS
 10
-0.652335
 20
-1.487547
  0
VERTEX
  8
PLAN_1
 62
     2
  6
CONTINUOUS
 10
-0.654453
 20
-1.489134
  0
VERTEX
  8
PLAN_1
 62
     2
  6
CONTINUOUS
 10
-0.655508
 20
-1.490189
  0
VERTEX
  8
PLAN_1
 62
     2
  6
CONTINUOUS
 10
-0.657094
 20
-1.490720
  0
VERTEX
  8
PLAN_1
 62
     2
  6
CONTINUOUS
 10
-0.658154
 20
-1.491248
  0
VERTEX
  8
PLAN_1
 62
     2
  6
CONTINUOUS
 10
-0.659740
 20
-1.491776
  0
VERTEX
  8
PLAN_1
 62
     2
  6
CONTINUOUS
 10
-0.661854
 20
-1.492307
  0
VERTEX
  8
PLAN_1
 62
     2
  6
CONTINUOUS
 10
-0.663969
 20
-1.492835
  0
VERTEX
  8
PLAN_1
 62
     2
  6
CONTINUOUS
 10
-0.666614
 20
-1.492835
  0
VERTEX
  8
PLAN_1
 62
     2
  6
CONTINUOUS
 10
-0.669256
 20
-1.492835
  0
VERTEX
  8
PLAN_1
 62
     2
  6
CONTINUOUS
 10
-0.672429
 20
-1.492835
  0
VERTEX
  8
PLAN_1
 62
     2
  6
CONTINUOUS
 10
-0.675071
 20
-1.492307
  0
VERTEX
  8
PLAN_1
 62
     2
  6
CONTINUOUS
 10
-0.677189
 20
-1.491776
  0
VERTEX
  8
PLAN_1
 62
     2
  6
CONTINUOUS
 10
-0.679831
 20
-1.491248
  0
VERTEX
  8
PLAN_1
 62
     2
  6
CONTINUOUS
 10
-0.681945
 20
-1.489661
  0
VERTEX
  8
PLAN_1
 62
     2
  6
CONTINUOUS
 10
-0.684063
 20
-1.488602
  0
VERTEX
  8
PLAN_1
 62
     2
  6
CONTINUOUS
 10
-0.685646
 20
-1.487020
  0
VERTEX
  8
PLAN_1
 62
     2
  6
CONTINUOUS
 10
-0.687232
 20
-1.485433
  0
VERTEX
  8
PLAN_1
 62
     2
  6
CONTINUOUS
 10
-0.690406
 20
-1.481201
  0
VERTEX
  8
PLAN_1
 62
     2
  6
CONTINUOUS
 10
-0.691992
 20
-1.476441
  0
VERTEX
  8
PLAN_1
 62
     2
  6
CONTINUOUS
 10
-0.693579
 20
-1.471685
  0
VERTEX
  8
PLAN_1
 62
     2
  6
CONTINUOUS
 10
-0.693579
 20
-1.465866
  0
VERTEX
  8
PLAN_1
 62
     2
  6
CONTINUOUS
 10
-0.693579
 20
-1.459524
  0
VERTEX
  8
PLAN_1
 62
     2
  6
CONTINUOUS
 10
-0.692520
 20
-1.453705
  0
VERTEX
  8
PLAN_1
 62
     2
  6
CONTINUOUS
 10
-0.690406
 20
-1.448949
  0
VERTEX
  8
PLAN_1
 62
     2
  6
CONTINUOUS
 10
-0.687764
 20
-1.444189
  0
VERTEX
  8
PLAN_1
 62
     2
  6
CONTINUOUS
 10
-0.685646
 20
-1.442602
  0
VERTEX
  8
PLAN_1
 62
     2
  6
CONTINUOUS
 10
-0.684063
 20
-1.440488
  0
VERTEX
  8
PLAN_1
 62
     2
  6
CONTINUOUS
 10
-0.681945
 20
-1.438902
  0
VERTEX
  8
PLAN_1
 62
     2
  6
CONTINUOUS
 10
-0.679303
 20
-1.437843
  0
VERTEX
  8
PLAN_1
 62
     2
  6
CONTINUOUS
 10
-0.676657
 20
-1.436787
  0
VERTEX
  8
PLAN_1
 62
     2
  6
CONTINUOUS
 10
-0.674016
 20
-1.436256
  0
VERTEX
  8
PLAN_1
 62
     2
  6
CONTINUOUS
 10
-0.670843
 20
-1.435728
  0
VERTEX
  8
PLAN_1
 62
     2
  6
CONTINUOUS
 10
-0.667669
 20
-1.435728
  0
VERTEX
  8
PLAN_1
 62
     2
  6
CONTINUOUS
 10
-0.665028
 20
-1.435728
  0
VERTEX
  8
PLAN_1
 62
     2
  6
CONTINUOUS
 10
-0.662382
 20
-1.436256
  0
VERTEX
  8
PLAN_1
 62
     2
  6
CONTINUOUS
 10
-0.659740
 20
-1.436787
  0
VERTEX
  8
PLAN_1
 62
     2
  6
CONTINUOUS
 10
-0.657622
 20
-1.437843
  0
VERTEX
  8
PLAN_1
 62
     2
  6
CONTINUOUS
 10
-0.655508
 20
-1.438902
  0
VERTEX
  8
PLAN_1
 62
     2
  6
CONTINUOUS
 10
-0.653394
 20
-1.440488
  0
VERTEX
  8
PLAN_1
 62
     2
  6
CONTINUOUS
 10
-0.651807
 20
-1.442075
  0
VERTEX
  8
PLAN_1
 62
     2
  6
CONTINUOUS
 10
-0.650220
 20
-1.444189
  0
VERTEX
  8
PLAN_1
 62
     2
  6
CONTINUOUS
 10
-0.647579
 20
-1.448949
  0
VERTEX
  8
PLAN_1
 62
     2
  6
CONTINUOUS
 10
-0.645992
 20
-1.454236
  0
VERTEX
  8
PLAN_1
 62
     2
  6
CONTINUOUS
 10
-0.644933
 20
-1.460579
  0
VERTEX
  8
PLAN_1
 62
     2
  6
CONTINUOUS
 10
-0.644406
 20
-1.467453
  0
VERTEX
  8
PLAN_1
 62
     2
  6
CONTINUOUS
 10
-0.684063
 20
-1.467453
  0
VERTEX
  8
PLAN_1
 62
     2
  6
CONTINUOUS
 10
-0.684063
 20
-1.471154
  0
VERTEX
  8
PLAN_1
 62
     2
  6
CONTINUOUS
 10
-0.683004
 20
-1.474858
  0
VERTEX
  8
PLAN_1
 62
     2
  6
CONTINUOUS
 10
-0.681945
 20
-1.478028
  0
VERTEX
  8
PLAN_1
 62
     2
  6
CONTINUOUS
 10
-0.679831
 20
-1.480673
  0
VERTEX
  8
PLAN_1
 62
     2
  6
CONTINUOUS
 10
-0.677717
 20
-1.482260
  0
VERTEX
  8
PLAN_1
 62
     2
  6
CONTINUOUS
 10
-0.675071
 20
-1.483846
  0
VERTEX
  8
PLAN_1
 62
     2
  6
CONTINUOUS
 10
-0.671902
 20
-1.484902
  0
VERTEX
  8
PLAN_1
 62
     2
  6
CONTINUOUS
 10
-0.668197
 20
-1.484902
  0
VERTEX
  8
PLAN_1
 62
     2
  6
CONTINUOUS
 10
-0.665028
 20
-1.484902
  0
VERTEX
  8
PLAN_1
 62
     2
  6
CONTINUOUS
 10
-0.662382
 20
-1.483846
  0
VERTEX
  8
PLAN_1
 62
     2
  6
CONTINUOUS
 10
-0.660268
 20
-1.482787
  0
VERTEX
  8
PLAN_1
 62
     2
  6
CONTINUOUS
 10
-0.658154
 20
-1.481201
  0
VERTEX
  8
PLAN_1
 62
     2
  6
CONTINUOUS
 10
-0.656567
 20
-1.479614
  0
VERTEX
  8
PLAN_1
 62
     2
  6
CONTINUOUS
 10
-0.655508
 20
-1.478028
  0
VERTEX
  8
PLAN_1
 62
     2
  6
CONTINUOUS
 10
-0.654453
 20
-1.475913
  0
VERTEX
  8
PLAN_1
 62
     2
  6
CONTINUOUS
 10
-0.654453
 20
-1.474327
  0
VERTEX
  8
PLAN_1
 62
     2
  6
CONTINUOUS
 10
-0.644933
 20
-1.474327
  0
SEQEND
  8
0
  0
POLYLINE
  8
PLAN_1
 62
     2
  6
CONTINUOUS
 66
     1
 40
0.003000
 41
0.003000
  0
VERTEX
  8
PLAN_1
 62
     2
  6
CONTINUOUS
 10
-0.653921
 20
-1.460051
  0
VERTEX
  8
PLAN_1
 62
     2
  6
CONTINUOUS
 10
-0.653921
 20
-1.456878
  0
VERTEX
  8
PLAN_1
 62
     2
  6
CONTINUOUS
 10
-0.654980
 20
-1.453705
  0
VERTEX
  8
PLAN_1
 62
     2
  6
CONTINUOUS
 10
-0.656039
 20
-1.451063
  0
VERTEX
  8
PLAN_1
 62
     2
  6
CONTINUOUS
 10
-0.657622
 20
-1.448949
  0
VERTEX
  8
PLAN_1
 62
     2
  6
CONTINUOUS
 10
-0.659209
 20
-1.446835
  0
VERTEX
  8
PLAN_1
 62
     2
  6
CONTINUOUS
 10
-0.661854
 20
-1.445248
  0
VERTEX
  8
PLAN_1
 62
     2
  6
CONTINUOUS
 10
-0.665028
 20
-1.444189
  0
VERTEX
  8
PLAN_1
 62
     2
  6
CONTINUOUS
 10
-0.668728
 20
-1.443661
  0
VERTEX
  8
PLAN_1
 62
     2
  6
CONTINUOUS
 10
-0.671902
 20
-1.444189
  0
VERTEX
  8
PLAN_1
 62
     2
  6
CONTINUOUS
 10
-0.675071
 20
-1.445248
  0
VERTEX
  8
PLAN_1
 62
     2
  6
CONTINUOUS
 10
-0.677189
 20
-1.446835
  0
VERTEX
  8
PLAN_1
 62
     2
  6
CONTINUOUS
 10
-0.679831
 20
-1.448949
  0
VERTEX
  8
PLAN_1
 62
     2
  6
CONTINUOUS
 10
-0.681417
 20
-1.451063
  0
VERTEX
  8
PLAN_1
 62
     2
  6
CONTINUOUS
 10
-0.683004
 20
-1.453705
  0
VERTEX
  8
PLAN_1
 62
     2
  6
CONTINUOUS
 10
-0.683531
 20
-1.456878
  0
VERTEX
  8
PLAN_1
 62
     2
  6
CONTINUOUS
 10
-0.684063
 20
-1.460051
  0
VERTEX
  8
PLAN_1
 62
     2
  6
CONTINUOUS
 10
-0.653921
 20
-1.460051
  0
SEQEND
  8
0
  0
POLYLINE
  8
PLAN_1
 62
     2
  6
CONTINUOUS
 66
     1
 40
0.003000
 41
0.003000
  0
VERTEX
  8
PLAN_1
 62
     2
  6
CONTINUOUS
 10
-0.573551
 20
-1.491248
  0
VERTEX
  8
PLAN_1
 62
     2
  6
CONTINUOUS
 10
-0.583598
 20
-1.491248
  0
VERTEX
  8
PLAN_1
 62
     2
  6
CONTINUOUS
 10
-0.583598
 20
-1.439429
  0
VERTEX
  8
PLAN_1
 62
     2
  6
CONTINUOUS
 10
-0.600520
 20
-1.439429
  0
VERTEX
  8
PLAN_1
 62
     2
  6
CONTINUOUS
 10
-0.600520
 20
-1.432555
  0
VERTEX
  8
PLAN_1
 62
     2
  6
CONTINUOUS
 10
-0.596287
 20
-1.432028
  0
VERTEX
  8
PLAN_1
 62
     2
  6
CONTINUOUS
 10
-0.593118
 20
-1.431500
  0
VERTEX
  8
PLAN_1
 62
     2
  6
CONTINUOUS
 10
-0.589945
 20
-1.430441
  0
VERTEX
  8
PLAN_1
 62
     2
  6
CONTINUOUS
 10
-0.587299
 20
-1.429386
  0
VERTEX
  8
PLAN_1
 62
     2
  6
CONTINUOUS
 10
-0.585185
 20
-1.427799
  0
VERTEX
  8
PLAN_1
 62
     2
  6
CONTINUOUS
 10
-0.583598
 20
-1.425681
  0
VERTEX
  8
PLAN_1
 62
     2
  6
CONTINUOUS
 10
-0.582012
 20
-1.422512
  0
VERTEX
  8
PLAN_1
 62
     2
  6
CONTINUOUS
 10
-0.580957
 20
-1.418280
  0
VERTEX
  8
PLAN_1
 62
     2
  6
CONTINUOUS
 10
-0.573551
 20
-1.418280
  0
VERTEX
  8
PLAN_1
 62
     2
  6
CONTINUOUS
 10
-0.573551
 20
-1.491248
  0
SEQEND
  8
0
  0
SOLID
  8
PLAN_1
 62
     2
 10
-0.548173
 20
-1.493362
 11
-0.555047
 21
-1.493362
 12
-0.522791
 22
-1.414579
 13
-0.529665
 23
-1.414579
  0
POLYLINE
  8
PLAN_1
 62
     2
  6
CONTINUOUS
 66
     1
 40
0.003000
 41
0.003000
  0
VERTEX
  8
PLAN_1
 62
     2
  6
CONTINUOUS
 10
-0.548173
 20
-1.493362
  0
VERTEX
  8
PLAN_1
 62
     2
  6
CONTINUOUS
 10
-0.555047
 20
-1.493362
  0
VERTEX
  8
PLAN_1
 62
     2
  6
CONTINUOUS
 10
-0.529665
 20
-1.414579
  0
VERTEX
  8
PLAN_1
 62
     2
  6
CONTINUOUS
 10
-0.522791
 20
-1.414579
  0
VERTEX
  8
PLAN_1
 62
     2
  6
CONTINUOUS
 10
-0.548173
 20
-1.493362
  0
SEQEND
  8
0
  0
POLYLINE
  8
PLAN_1
 62
     2
  6
CONTINUOUS
 66
     1
 40
0.003000
 41
0.003000
  0
VERTEX
  8
PLAN_1
 62
     2
  6
CONTINUOUS
 10
-0.519618
 20
-1.444717
  0
VERTEX
  8
PLAN_1
 62
     2
  6
CONTINUOUS
 10
-0.519618
 20
-1.440488
  0
VERTEX
  8
PLAN_1
 62
     2
  6
CONTINUOUS
 10
-0.519091
 20
-1.436787
  0
VERTEX
  8
PLAN_1
 62
     2
  6
CONTINUOUS
 10
-0.518035
 20
-1.433087
  0
VERTEX
  8
PLAN_1
 62
     2
  6
CONTINUOUS
 10
-0.516976
 20
-1.430441
  0
VERTEX
  8
PLAN_1
 62
     2
  6
CONTINUOUS
 10
-0.515390
 20
-1.427799
  0
VERTEX
  8
PLAN_1
 62
     2
  6
CONTINUOUS
 10
-0.513803
 20
-1.425681
  0
VERTEX
  8
PLAN_1
 62
     2
  6
CONTINUOUS
 10
-0.512217
 20
-1.424098
  0
VERTEX
  8
PLAN_1
 62
     2
  6
CONTINUOUS
 10
-0.510102
 20
-1.422512
  0
VERTEX
  8
PLAN_1
 62
     2
  6
CONTINUOUS
 10
-0.505874
 20
-1.420394
  0
VERTEX
  8
PLAN_1
 62
     2
  6
CONTINUOUS
 10
-0.501642
 20
-1.419339
  0
VERTEX
  8
PLAN_1
 62
     2
  6
CONTINUOUS
 10
-0.497941
 20
-1.418280
  0
VERTEX
  8
PLAN_1
 62
     2
  6
CONTINUOUS
 10
-0.494240
 20
-1.418280
  0
VERTEX
  8
PLAN_1
 62
     2
  6
CONTINUOUS
 10
-0.490012
 20
-1.418807
  0
VERTEX
  8
PLAN_1
 62
     2
  6
CONTINUOUS
 10
-0.485780
 20
-1.419866
  0
VERTEX
  8
PLAN_1
 62
     2
  6
CONTINUOUS
 10
-0.481551
 20
-1.421453
  0
VERTEX
  8
PLAN_1
 62
     2
  6
CONTINUOUS
 10
-0.478378
 20
-1.424098
  0
VERTEX
  8
PLAN_1
 62
     2
  6
CONTINUOUS
 10
-0.475732
 20
-1.427268
  0
VERTEX
  8
PLAN_1
 62
     2
  6
CONTINUOUS
 10
-0.473618
 20
-1.430969
  0
VERTEX
  8
PLAN_1
 62
     2
  6
CONTINUOUS
 10
-0.472031
 20
-1.435201
  0
VERTEX
  8
PLAN_1
 62
     2
  6
CONTINUOUS
 10
-0.471504
 20
-1.439961
  0
VERTEX
  8
PLAN_1
 62
     2
  6
CONTINUOUS
 10
-0.472031
 20
-1.444717
  0
VERTEX
  8
PLAN_1
 62
     2
  6
CONTINUOUS
 10
-0.473091
 20
-1.448949
  0
VERTEX
  8
PLAN_1
 62
     2
  6
CONTINUOUS
 10
-0.474677
 20
-1.452122
  0
VERTEX
  8
PLAN_1
 62
     2
  6
CONTINUOUS
 10
-0.477319
 20
-1.455291
  0
VERTEX
  8
PLAN_1
 62
     2
  6
CONTINUOUS
 10
-0.479965
 20
-1.457937
  0
VERTEX
  8
PLAN_1
 62
     2
  6
CONTINUOUS
 10
-0.483665
 20
-1.460051
  0
VERTEX
  8
PLAN_1
 62
     2
  6
CONTINUOUS
 10
-0.487366
 20
-1.462697
  0
VERTEX
  8
PLAN_1
 62
     2
  6
CONTINUOUS
 10
-0.491067
 20
-1.464811
  0
VERTEX
  8
PLAN_1
 62
     2
  6
CONTINUOUS
 10
-0.499000
 20
-1.469039
  0
VERTEX
  8
PLAN_1
 62
     2
  6
CONTINUOUS
 10
-0.502169
 20
-1.471154
  0
VERTEX
  8
PLAN_1
 62
     2
  6
CONTINUOUS
 10
-0.504815
 20
-1.472740
  0
VERTEX
  8
PLAN_1
 62
     2
  6
CONTINUOUS
 10
-0.506929
 20
-1.474858
  0
VERTEX
  8
PLAN_1
 62
     2
  6
CONTINUOUS
 10
-0.508516
 20
-1.476972
  0
VERTEX
  8
PLAN_1
 62
     2
  6
CONTINUOUS
 10
-0.509575
 20
-1.478559
  0
VERTEX
  8
PLAN_1
 62
     2
  6
CONTINUOUS
 10
-0.510630
 20
-1.480146
  0
VERTEX
  8
PLAN_1
 62
     2
  6
CONTINUOUS
 10
-0.511161
 20
-1.481728
  0
VERTEX
  8
PLAN_1
 62
     2
  6
CONTINUOUS
 10
-0.511161
 20
-1.482787
  0
VERTEX
  8
PLAN_1
 62
     2
  6
CONTINUOUS
 10
-0.471504
 20
-1.482787
  0
VERTEX
  8
PLAN_1
 62
     2
  6
CONTINUOUS
 10
-0.471504
 20
-1.491248
  0
VERTEX
  8
PLAN_1
 62
     2
  6
CONTINUOUS
 10
-0.521736
 20
-1.491248
  0
VERTEX
  8
PLAN_1
 62
     2
  6
CONTINUOUS
 10
-0.521205
 20
-1.485961
  0
VERTEX
  8
PLAN_1
 62
     2
  6
CONTINUOUS
 10
-0.520150
 20
-1.481201
  0
VERTEX
  8
PLAN_1
 62
     2
  6
CONTINUOUS
 10
-0.518563
 20
-1.476972
  0
VERTEX
  8
PLAN_1
 62
     2
  6
CONTINUOUS
 10
-0.516449
 20
-1.473272
  0
VERTEX
  8
PLAN_1
 62
     2
  6
CONTINUOUS
 10
-0.513803
 20
-1.470098
  0
VERTEX
  8
PLAN_1
 62
     2
  6
CONTINUOUS
 10
-0.511161
 20
-1.467453
  0
VERTEX
  8
PLAN_1
 62
     2
  6
CONTINUOUS
 10
-0.507988
 20
-1.464811
  0
VERTEX
  8
PLAN_1
 62
     2
  6
CONTINUOUS
 10
-0.504287
 20
-1.462697
  0
VERTEX
  8
PLAN_1
 62
     2
  6
CONTINUOUS
 10
-0.494768
 20
-1.456878
  0
VERTEX
  8
PLAN_1
 62
     2
  6
CONTINUOUS
 10
-0.492126
 20
-1.455291
  0
VERTEX
  8
PLAN_1
 62
     2
  6
CONTINUOUS
 10
-0.489480
 20
-1.453705
  0
VERTEX
  8
PLAN_1
 62
     2
  6
CONTINUOUS
 10
-0.487366
 20
-1.452122
  0
VERTEX
  8
PLAN_1
 62
     2
  6
CONTINUOUS
 10
-0.485252
 20
-1.450004
  0
VERTEX
  8
PLAN_1
 62
     2
  6
CONTINUOUS
 10
-0.483665
 20
-1.448417
  0
VERTEX
  8
PLAN_1
 62
     2
  6
CONTINUOUS
 10
-0.482606
 20
-1.445776
  0
VERTEX
  8
PLAN_1
 62
     2
  6
CONTINUOUS
 10
-0.481551
 20
-1.443130
  0
VERTEX
  8
PLAN_1
 62
     2
  6
CONTINUOUS
 10
-0.481551
 20
-1.439961
  0
VERTEX
  8
PLAN_1
 62
     2
  6
CONTINUOUS
 10
-0.481551
 20
-1.437315
  0
VERTEX
  8
PLAN_1
 62
     2
  6
CONTINUOUS
 10
-0.482079
 20
-1.435201
  0
VERTEX
  8
PLAN_1
 62
     2
  6
CONTINUOUS
 10
-0.483138
 20
-1.433087
  0
VERTEX
  8
PLAN_1
 62
     2
  6
CONTINUOUS
 10
-0.484720
 20
-1.430969
  0
VERTEX
  8
PLAN_1
 62
     2
  6
CONTINUOUS
 10
-0.486307
 20
-1.429386
  0
VERTEX
  8
PLAN_1
 62
     2
  6
CONTINUOUS
 10
-0.488953
 20
-1.427799
  0
VERTEX
  8
PLAN_1
 62
     2
  6
CONTINUOUS
 10
-0.492126
 20
-1.426740
  0
VERTEX
  8
PLAN_1
 62
     2
  6
CONTINUOUS
 10
-0.495827
 20
-1.426740
  0
VERTEX
  8
PLAN_1
 62
     2
  6
CONTINUOUS
 10
-0.498469
 20
-1.426740
  0
VERTEX
  8
PLAN_1
 62
     2
  6
CONTINUOUS
 10
-0.500587
 20
-1.427268
  0
VERTEX
  8
PLAN_1
 62
     2
  6
CONTINUOUS
 10
-0.502169
 20
-1.427799
  0
VERTEX
  8
PLAN_1
 62
     2
  6
CONTINUOUS
 10
-0.503756
 20
-1.428854
  0
VERTEX
  8
PLAN_1
 62
     2
  6
CONTINUOUS
 10
-0.506402
 20
-1.430969
  0
VERTEX
  8
PLAN_1
 62
     2
  6
CONTINUOUS
 10
-0.508516
 20
-1.433614
  0
VERTEX
  8
PLAN_1
 62
     2
  6
CONTINUOUS
 10
-0.509575
 20
-1.436787
  0
VERTEX
  8
PLAN_1
 62
     2
  6
CONTINUOUS
 10
-0.510102
 20
-1.439429
  0
VERTEX
  8
PLAN_1
 62
     2
  6
CONTINUOUS
 10
-0.510630
 20
-1.442602
  0
VERTEX
  8
PLAN_1
 62
     2
  6
CONTINUOUS
 10
-0.510630
 20
-1.444717
  0
VERTEX
  8
PLAN_1
 62
     2
  6
CONTINUOUS
 10
-0.519618
 20
-1.444717
  0
SEQEND
  8
0
  0
SOLID
  8
PLAN_1
 62
     2
 10
-0.459343
 20
-1.416693
 11
-0.451409
 21
-1.416693
 12
-0.459343
 22
-1.443130
 13
-0.451409
 23
-1.443130
  0
POLYLINE
  8
PLAN_1
 62
     2
  6
CONTINUOUS
 66
     1
 40
0.003000
 41
0.003000
  0
VERTEX
  8
PLAN_1
 62
     2
  6
CONTINUOUS
 10
-0.459343
 20
-1.416693
  0
VERTEX
  8
PLAN_1
 62
     2
  6
CONTINUOUS
 10
-0.451409
 20
-1.416693
  0
VERTEX
  8
PLAN_1
 62
     2
  6
CONTINUOUS
 10
-0.451409
 20
-1.443130
  0
VERTEX
  8
PLAN_1
 62
     2
  6
CONTINUOUS
 10
-0.459343
 20
-1.443130
  0
VERTEX
  8
PLAN_1
 62
     2
  6
CONTINUOUS
 10
-0.459343
 20
-1.416693
  0
SEQEND
  8
0
  0
SOLID
  8
PLAN_1
 62
     2
 10
-0.444539
 20
-1.416693
 11
-0.436606
 21
-1.416693
 12
-0.444539
 22
-1.443130
 13
-0.436606
 23
-1.443130
  0
POLYLINE
  8
PLAN_1
 62
     2
  6
CONTINUOUS
 66
     1
 40
0.003000
 41
0.003000
  0
VERTEX
  8
PLAN_1
 62
     2
  6
CONTINUOUS
 10
-0.444539
 20
-1.416693
  0
VERTEX
  8
PLAN_1
 62
     2
  6
CONTINUOUS
 10
-0.436606
 20
-1.416693
  0
VERTEX
  8
PLAN_1
 62
     2
  6
CONTINUOUS
 10
-0.436606
 20
-1.443130
  0
VERTEX
  8
PLAN_1
 62
     2
  6
CONTINUOUS
 10
-0.444539
 20
-1.443130
  0
VERTEX
  8
PLAN_1
 62
     2
  6
CONTINUOUS
 10
-0.444539
 20
-1.416693
  0
SEQEND
  8
0
  0
POLYLINE
  8
PLAN_1
 62
     2
  6
CONTINUOUS
 66
     1
 40
0.003000
 41
0.003000
  0
VERTEX
  8
PLAN_1
 62
     2
  6
CONTINUOUS
 10
-0.343016
 20
-1.416693
  0
VERTEX
  8
PLAN_1
 62
     2
  6
CONTINUOUS
 10
-0.333500
 20
-1.416693
  0
VERTEX
  8
PLAN_1
 62
     2
  6
CONTINUOUS
 10
-0.333500
 20
-1.491248
  0
VERTEX
  8
PLAN_1
 62
     2
  6
CONTINUOUS
 10
-0.344602
 20
-1.491248
  0
VERTEX
  8
PLAN_1
 62
     2
  6
CONTINUOUS
 10
-0.382673
 20
-1.430969
  0
VERTEX
  8
PLAN_1
 62
     2
  6
CONTINUOUS
 10
-0.382673
 20
-1.491248
  0
VERTEX
  8
PLAN_1
 62
     2
  6
CONTINUOUS
 10
-0.392720
 20
-1.491248
  0
VERTEX
  8
PLAN_1
 62
     2
  6
CONTINUOUS
 10
-0.392720
 20
-1.416693
  0
VERTEX
  8
PLAN_1
 62
     2
  6
CONTINUOUS
 10
-0.380559
 20
-1.416693
  0
VERTEX
  8
PLAN_1
 62
     2
  6
CONTINUOUS
 10
-0.343547
 20
-1.476972
  0
VERTEX
  8
PLAN_1
 62
     2
  6
CONTINUOUS
 10
-0.343016
 20
-1.476972
  0
VERTEX
  8
PLAN_1
 62
     2
  6
CONTINUOUS
 10
-0.343016
 20
-1.416693
  0
SEQEND
  8
0
  0
POLYLINE
  8
PLAN_1
 62
     2
  6
CONTINUOUS
 66
     1
 40
0.003000
 41
0.003000
  0
VERTEX
  8
PLAN_1
 62
     2
  6
CONTINUOUS
 10
-0.306535
 20
-1.491248
  0
VERTEX
  8
PLAN_1
 62
     2
  6
CONTINUOUS
 10
-0.316579
 20
-1.491248
  0
VERTEX
  8
PLAN_1
 62
     2
  6
CONTINUOUS
 10
-0.316579
 20
-1.416693
  0
VERTEX
  8
PLAN_1
 62
     2
  6
CONTINUOUS
 10
-0.282740
 20
-1.416693
  0
VERTEX
  8
PLAN_1
 62
     2
  6
CONTINUOUS
 10
-0.277980
 20
-1.417224
  0
VERTEX
  8
PLAN_1
 62
     2
  6
CONTINUOUS
 10
-0.273752
 20
-1.418280
  0
VERTEX
  8
PLAN_1
 62
     2
  6
CONTINUOUS
 10
-0.269520
 20
-1.420394
  0
VERTEX
  8
PLAN_1
 62
     2
  6
CONTINUOUS
 10
-0.266350
 20
-1.423039
  0
VERTEX
  8
PLAN_1
 62
     2
  6
CONTINUOUS
 10
-0.264232
 20
-1.425681
  0
VERTEX
  8
PLAN_1
 62
     2
  6
CONTINUOUS
 10
-0.262118
 20
-1.429386
  0
VERTEX
  8
PLAN_1
 62
     2
  6
CONTINUOUS
 10
-0.261063
 20
-1.433614
  0
VERTEX
  8
PLAN_1
 62
     2
  6
CONTINUOUS
 10
-0.260531
 20
-1.437843
  0
VERTEX
  8
PLAN_1
 62
     2
  6
CONTINUOUS
 10
-0.261063
 20
-1.441543
  0
VERTEX
  8
PLAN_1
 62
     2
  6
CONTINUOUS
 10
-0.261591
 20
-1.445776
  0
VERTEX
  8
PLAN_1
 62
     2
  6
CONTINUOUS
 10
-0.263177
 20
-1.449476
  0
VERTEX
  8
PLAN_1
 62
     2
  6
CONTINUOUS
 10
-0.265819
 20
-1.452650
  0
VERTEX
  8
PLAN_1
 62
     2
  6
CONTINUOUS
 10
-0.268465
 20
-1.455823
  0
VERTEX
  8
PLAN_1
 62
     2
  6
CONTINUOUS
 10
-0.272693
 20
-1.457937
  0
VERTEX
  8
PLAN_1
 62
     2
  6
CONTINUOUS
 10
-0.274807
 20
-1.458992
  0
VERTEX
  8
PLAN_1
 62
     2
  6
CONTINUOUS
 10
-0.276925
 20
-1.459524
  0
VERTEX
  8
PLAN_1
 62
     2
  6
CONTINUOUS
 10
-0.280094
 20
-1.460051
  0
VERTEX
  8
PLAN_1
 62
     2
  6
CONTINUOUS
 10
-0.282740
 20
-1.460051
  0
VERTEX
  8
PLAN_1
 62
     2
  6
CONTINUOUS
 10
-0.306535
 20
-1.460051
  0
VERTEX
  8
PLAN_1
 62
     2
  6
CONTINUOUS
 10
-0.306535
 20
-1.491248
  0
SEQEND
  8
0
  0
POLYLINE
  8
PLAN_1
 62
     2
  6
CONTINUOUS
 66
     1
 40
0.003000
 41
0.003000
  0
VERTEX
  8
PLAN_1
 62
     2
  6
CONTINUOUS
 10
-0.306535
 20
-1.451591
  0
VERTEX
  8
PLAN_1
 62
     2
  6
CONTINUOUS
 10
-0.286441
 20
-1.451591
  0
VERTEX
  8
PLAN_1
 62
     2
  6
CONTINUOUS
 10
-0.282740
 20
-1.451063
  0
VERTEX
  8
PLAN_1
 62
     2
  6
CONTINUOUS
 10
-0.280094
 20
-1.450535
  0
VERTEX
  8
PLAN_1
 62
     2
  6
CONTINUOUS
 10
-0.277453
 20
-1.450004
  0
VERTEX
  8
PLAN_1
 62
     2
  6
CONTINUOUS
 10
-0.275339
 20
-1.448417
  0
VERTEX
  8
PLAN_1
 62
     2
  6
CONTINUOUS
 10
-0.273220
 20
-1.446835
  0
VERTEX
  8
PLAN_1
 62
     2
  6
CONTINUOUS
 10
-0.272165
 20
-1.444189
  0
VERTEX
  8
PLAN_1
 62
     2
  6
CONTINUOUS
 10
-0.271106
 20
-1.441543
  0
VERTEX
  8
PLAN_1
 62
     2
  6
CONTINUOUS
 10
-0.271106
 20
-1.437843
  0
VERTEX
  8
PLAN_1
 62
     2
  6
CONTINUOUS
 10
-0.271106
 20
-1.434673
  0
VERTEX
  8
PLAN_1
 62
     2
  6
CONTINUOUS
 10
-0.272165
 20
-1.432028
  0
VERTEX
  8
PLAN_1
 62
     2
  6
CONTINUOUS
 10
-0.273752
 20
-1.429913
  0
VERTEX
  8
PLAN_1
 62
     2
  6
CONTINUOUS
 10
-0.275339
 20
-1.428327
  0
VERTEX
  8
PLAN_1
 62
     2
  6
CONTINUOUS
 10
-0.277453
 20
-1.426740
  0
VERTEX
  8
PLAN_1
 62
     2
  6
CONTINUOUS
 10
-0.280094
 20
-1.426213
  0
VERTEX
  8
PLAN_1
 62
     2
  6
CONTINUOUS
 10
-0.282740
 20
-1.425681
  0
VERTEX
  8
PLAN_1
 62
     2
  6
CONTINUOUS
 10
-0.285913
 20
-1.425681
  0
VERTEX
  8
PLAN_1
 62
     2
  6
CONTINUOUS
 10
-0.306535
 20
-1.425681
  0
VERTEX
  8
PLAN_1
 62
     2
  6
CONTINUOUS
 10
-0.306535
 20
-1.451591
  0
SEQEND
  8
0
  0
POLYLINE
  8
PLAN_1
 62
     2
  6
CONTINUOUS
 66
     1
 40
0.003000
 41
0.003000
  0
VERTEX
  8
PLAN_1
 62
     2
  6
CONTINUOUS
 10
-0.254189
 20
-1.416693
  0
VERTEX
  8
PLAN_1
 62
     2
  6
CONTINUOUS
 10
-0.193909
 20
-1.416693
  0
VERTEX
  8
PLAN_1
 62
     2
  6
CONTINUOUS
 10
-0.193909
 20
-1.425681
  0
VERTEX
  8
PLAN_1
 62
     2
  6
CONTINUOUS
 10
-0.219291
 20
-1.425681
  0
VERTEX
  8
PLAN_1
 62
     2
  6
CONTINUOUS
 10
-0.219291
 20
-1.491248
  0
VERTEX
  8
PLAN_1
 62
     2
  6
CONTINUOUS
 10
-0.229335
 20
-1.491248
  0
VERTEX
  8
PLAN_1
 62
     2
  6
CONTINUOUS
 10
-0.229335
 20
-1.425681
  0
VERTEX
  8
PLAN_1
 62
     2
  6
CONTINUOUS
 10
-0.254189
 20
-1.425681
  0
VERTEX
  8
PLAN_1
 62
     2
  6
CONTINUOUS
 10
-0.254189
 20
-1.416693
  0
SEQEND
  8
0
  0
SOLID
  8
PLAN_1
 62
     2
 10
-0.155839
 20
-1.416693
 11
-0.148437
 21
-1.416693
 12
-0.155839
 22
-1.443130
 13
-0.148437
 23
-1.443130
  0
POLYLINE
  8
PLAN_1
 62
     2
  6
CONTINUOUS
 66
     1
 40
0.003000
 41
0.003000
  0
VERTEX
  8
PLAN_1
 62
     2
  6
CONTINUOUS
 10
-0.155839
 20
-1.416693
  0
VERTEX
  8
PLAN_1
 62
     2
  6
CONTINUOUS
 10
-0.148437
 20
-1.416693
  0
VERTEX
  8
PLAN_1
 62
     2
  6
CONTINUOUS
 10
-0.148437
 20
-1.443130
  0
VERTEX
  8
PLAN_1
 62
     2
  6
CONTINUOUS
 10
-0.155839
 20
-1.443130
  0
VERTEX
  8
PLAN_1
 62
     2
  6
CONTINUOUS
 10
-0.155839
 20
-1.416693
  0
SEQEND
  8
0
  0
SOLID
  8
PLAN_1
 62
     2
 10
-0.141035
 20
-1.416693
 11
-0.133634
 21
-1.416693
 12
-0.141035
 22
-1.443130
 13
-0.133634
 23
-1.443130
  0
POLYLINE
  8
PLAN_1
 62
     2
  6
CONTINUOUS
 66
     1
 40
0.003000
 41
0.003000
  0
VERTEX
  8
PLAN_1
 62
     2
  6
CONTINUOUS
 10
-0.141035
 20
-1.416693
  0
VERTEX
  8
PLAN_1
 62
     2
  6
CONTINUOUS
 10
-0.133634
 20
-1.416693
  0
VERTEX
  8
PLAN_1
 62
     2
  6
CONTINUOUS
 10
-0.133634
 20
-1.443130
  0
VERTEX
  8
PLAN_1
 62
     2
  6
CONTINUOUS
 10
-0.141035
 20
-1.443130
  0
VERTEX
  8
PLAN_1
 62
     2
  6
CONTINUOUS
 10
-0.141035
 20
-1.416693
  0
SEQEND
  8
0
  0
ENDSEC
  0
EOF
