  0
SECTION
  2
HEADER
  9
$ACADVER
  1
AC1014
  9
$ACADMAINTVER
 70
     0
  9
$DWGCODEPAGE
  3
ANSI_1252
  9
$INSBASE
 10
0.0
 20
0.0
 30
0.0
  9
$EXTMIN
 10
-0.019685
 20
-0.818292
 30
0.0
  9
$EXTMAX
 10
2.168504
 20
0.818292
 30
0.0
  9
$LIMMIN
 10
0.0
 20
0.0
  9
$LIMMAX
 10
0.0
 20
0.0
  9
$ORTHOMODE
 70
     0
  9
$REGENMODE
 70
     1
  9
$FILLMODE
 70
     1
  9
$QTEXTMODE
 70
     0
  9
$MIRRTEXT
 70
     1
  9
$DRAGMODE
 70
     2
  9
$LTSCALE
 40
1.0
  9
$OSMODE
 70
     0
  9
$ATTMODE
 70
     1
  9
$TEXTSIZE
 40
0.2
  9
$TRACEWID
 40
0.05
  9
$TEXTSTYLE
  7
STANDARD
  9
$CLAYER
  8
0
  9
$CELTYPE
  6
CONTINUOUS
  9
$CECOLOR
 62
   256
  9
$CELTSCALE
 40
1.0
  9
$DELOBJ
 70
     1
  9
$DISPSILH
 70
     0
  9
$DIMSCALE
 40
1.0
  9
$DIMASZ
 40
0.18
  9
$DIMEXO
 40
0.0625
  9
$DIMDLI
 40
0.38
  9
$DIMRND
 40
0.0
  9
$DIMDLE
 40
0.0
  9
$DIMEXE
 40
0.18
  9
$DIMTP
 40
0.0
  9
$DIMTM
 40
0.0
  9
$DIMTXT
 40
0.18
  9
$DIMCEN
 40
0.09
  9
$DIMTSZ
 40
0.0
  9
$DIMTOL
 70
     0
  9
$DIMLIM
 70
     0
  9
$DIMTIH
 70
     1
  9
$DIMTOH
 70
     1
  9
$DIMSE1
 70
     0
  9
$DIMSE2
 70
     0
  9
$DIMTAD
 70
     0
  9
$DIMZIN
 70
     0
  9
$DIMBLK
  1

  9
$DIMASO
 70
     1
  9
$DIMSHO
 70
     1
  9
$DIMPOST
  1

  9
$DIMAPOST
  1

  9
$DIMALT
 70
     0
  9
$DIMALTD
 70
     2
  9
$DIMALTF
 40
25.4
  9
$DIMLFAC
 40
1.0
  9
$DIMTOFL
 70
     0
  9
$DIMTVP
 40
0.0
  9
$DIMTIX
 70
     0
  9
$DIMSOXD
 70
     0
  9
$DIMSAH
 70
     0
  9
$DIMBLK1
  1

  9
$DIMBLK2
  1

  9
$DIMSTYLE
  2
STANDARD
  9
$DIMCLRD
 70
     0
  9
$DIMCLRE
 70
     0
  9
$DIMCLRT
 70
     0
  9
$DIMTFAC
 40
1.0
  9
$DIMGAP
 40
0.09
  9
$DIMJUST
 70
     0
  9
$DIMSD1
 70
     0
  9
$DIMSD2
 70
     0
  9
$DIMTOLJ
 70
     1
  9
$DIMTZIN
 70
     0
  9
$DIMALTZ
 70
     0
  9
$DIMALTTZ
 70
     0
  9
$DIMFIT
 70
     3
  9
$DIMUPT
 70
     0
  9
$DIMUNIT
 70
     2
  9
$DIMDEC
 70
     4
  9
$DIMTDEC
 70
     4
  9
$DIMALTU
 70
     2
  9
$DIMALTTD
 70
     2
  9
$DIMTXSTY
  7
STANDARD
  9
$DIMAUNIT
 70
     0
  9
$LUNITS
 70
     2
  9
$LUPREC
 70
     4
  9
$SKETCHINC
 40
0.1
  9
$FILLETRAD
 40
0.0
  9
$AUNITS
 70
     0
  9
$AUPREC
 70
     0
  9
$MENU
  1
acad
  9
$ELEVATION
 40
0.0
  9
$PELEVATION
 40
0.0
  9
$THICKNESS
 40
0.0
  9
$LIMCHECK
 70
     0
  9
$BLIPMODE
 70
     1
  9
$CHAMFERA
 40
0.0
  9
$CHAMFERB
 40
0.0
  9
$CHAMFERC
 40
0.0
  9
$CHAMFERD
 40
0.0
  9
$SKPOLY
 70
     0
  9
$TDCREATE
 40
0.000000000
  9
$TDUPDATE
 40
0.000000000
  9
$TDINDWG
 40
0.0000000000
  9
$TDUSRTIMER
 40
0.0000000000
  9
$USRTIMER
 70
     1
  9
$ANGBASE
 50
0.0
  9
$ANGDIR
 70
     0
  9
$PDMODE
 70
     0
  9
$PDSIZE
 40
0.0
  9
$PLINEWID
 40
0.0
  9
$COORDS
 70
     0
  9
$SPLFRAME
 70
     0
  9
$SPLINETYPE
 70
     6
  9
$SPLINESEGS
 70
     8
  9
$ATTDIA
 70
     0
  9
$ATTREQ
 70
     1
  9
$HANDLING
 70
     1
  9
$HANDSEED
  5
794
  9
$SURFTAB1
 70
     6
  9
$SURFTAB2
 70
     6
  9
$SURFTYPE
 70
     6
  9
$SURFU
 70
     6
  9
$SURFV
 70
     6
  9
$UCSNAME
  2

  9
$UCSORG
 10
0.0
 20
0.0
 30
0.0
  9
$UCSXDIR
 10
1.0
 20
0.0
 30
0.0
  9
$UCSYDIR
 10
0.0
 20
1.0
 30
0.0
  9
$PUCSNAME
  2

  9
$PUCSORG
 10
0.0
 20
0.0
 30
0.0
  9
$PUCSXDIR
 10
1.0
 20
0.0
 30
0.0
  9
$PUCSYDIR
 10
0.0
 20
1.0
 30
0.0
  9
$USERI1
 70
     0
  9
$USERI2
 70
     0
  9
$USERI3
 70
     0
  9
$USERI4
 70
     0
  9
$USERI5
 70
     0
  9
$USERR1
 40
0.0
  9
$USERR2
 40
0.0
  9
$USERR3
 40
0.0
  9
$USERR4
 40
0.0
  9
$USERR5
 40
0.0
  9
$WORLDVIEW
 70
     1
  9
$SHADEDGE
 70
     3
  9
$SHADEDIF
 70
    70
  9
$TILEMODE
 70
     1
  9
$MAXACTVP
 70
    16
  9
$PINSBASE
 10
0.0
 20
0.0
 30
0.0
  9
$PLIMCHECK
 70
     0
  9
$PEXTMIN
 10
1.000000E+20
 20
1.000000E+20
 30
1.000000E+20
  9
$PEXTMAX
 10
-1.000000E+20
 20
-1.000000E+20
 30
-1.000000E+20
  9
$PLIMMIN
 10
0.0
 20
0.0
  9
$PLIMMAX
 10
12.0
 20
9.0
  9
$UNITMODE
 70
     0
  9
$VISRETAIN
 70
     0
  9
$PLINEGEN
 70
     1
  9
$PSLTSCALE
 70
     0
  9
$TREEDEPTH
 70
  3020
  9
$PICKSTYLE
 70
     1
  9
$CMLSTYLE
  2
STANDARD
  9
$CMLJUST
 70
     0
  9
$CMLSCALE
 40
1.0
  9
$PROXYGRAPHICS
 70
     0
  9
$MEASUREMENT
 70
     0
  0
ENDSEC
  0
SECTION
  2
CLASSES
  0
CLASS
  1
LWPOLYLINE
  2
AcDbPolyline
  3
"AutoCAD"
 90
        0
280
     0
281
     1
  0
CLASS
  1
IMAGE
  2
AcDbRasterImage
  3
ISM
 90
      127
280
     0
281
     1
  0
CLASS
  1
OLE2FRAME
  2
AcDbOle2Frame
  3
""
 90
        0
280
     0
281
     1
  0
CLASS
  1
HATCH
  2
AcDbHatch
  3
"ACAD_SEDONA"
 90
        0
280
     0
281
     1
  0
CLASS
  1
DICTIONARYVAR
  2
AcDbDictionaryVar
  3
"AutoCAD"
 90
        0
280
     0
281
     0
  0
CLASS
  1
RASTERVARIABLES
  2
AcDbRasterVariables
  3
ISM
 90
        0
280
     0
281
     0
  0
CLASS
  1
IMAGEDEF
  2
AcDbRasterImageDef
  3
ISM
 90
        0
280
     0
281
     0
  0
CLASS
  1
IMAGEDEF_REACTOR
  2
AcDbRasterImageDefReactor
  3
ISM
 90
        1
280
     0
281
     0
  0
CLASS
  1
IDBUFFER
  2
AcDbIdBuffer
  3
"Acad"
 90
        0
280
     0
281
     0
  0
CLASS
  1
SPATIAL_FILTER
  2
AcDbSpatialFilter
  3
"Acad"
 90
        0
280
     0
281
     0
  0
CLASS
  1
XRECORD
  2
AcDbXrecord
  3
"<Built In>"
 90
        0
280
     0
281
     0
  0
CLASS
  1
SORTENTSTABLE
  2
AcDbSortentsTable
  3
"AutoCAD"
 90
        0
280
     0
281
     0
  0
CLASS
  1
LAYER_INDEX
  2
AcDbLayerIndex
  3
"Acad"
 90
        0
280
     0
281
     0
  0
CLASS
  1
SPATIAL_INDEX
  2
AcDbSpatialIndex
  3
"Acad"
 90
        0
280
     0
281
     0
  0
CLASS
  1
OBJECT_PTR
  2
CAseDLPNTableRecord
  3
"ASE-LPNTableRecord"
 90
        1
280
     0
281
     0
  0
CLASS
  1
LAYOUT
  2
AcDbLayout
  3
"AutoCAD 2000"
 90
        0
280
     0
281
     0
  0
CLASS
  1
PLOTSETTINGS
  2
AcDbPlotSettings
  3
"AutoCAD 2000"
 90
        0
280
     0
281
     0
  0
CLASS
  1
ACDBDICTIONARYWDFLT
  2
AcDbDictionaryWithDefault
  3
"AutoCAD 2000"
 90
        0
280
     0
281
     0
  0
CLASS
  1
ACDBPLACEHOLDER
  2
AcDbPlaceHolder
  3
"AutoCAD 2000"
 90
        0
280
     0
281
     0
  0
CLASS
  1
VBA_PROJECT
  2
AcDbVbaProject
  3
"acadvba"
 90
        0
280
     0
281
     0
  0
CLASS
  1
WIPEOUT
  2
AcDbWipeout
  3
WipeOut|AutoCAD Express Tool|expresstools@autodesk.com
 90
      127
280
     0
281
     1
  0
CLASS
  1
WIPEOUTVARIABLES
  2
AcDbWipeoutVariables
  3
WipeOut|AutoCAD Express Tool|expresstools@autodesk.com
 90
        0
280
     0
281
     0
  0
CLASS
  1
RTEXT
  2
RText
  3
RText|AutoCAD Express Tool|expresstools@autodesk.com
 90
        0
280
     0
281
     1
  0
CLASS
  1
ARCALIGNEDTEXT
  2
AcDbArcAlignedText
  3
ATEXT|AutoCAD Express Tool|expresstools@autodesk.com
 90
        0
280
     0
281
     1
  0
ENDSEC
  0
SECTION
  2
TABLES
  0
TABLE
  2
VPORT
  5
7
100
AcDbSymbolTable
 70
     1
  0
VPORT
  5
15
100
AcDbSymbolTableRecord
100
AcDbViewportTableRecord
  2
*ACTIVE
 70
     0
 10
0.0
 20
0.0
 11
1.0
 21
1.0
 12
6.591288
 22
4.579184
 13
0.0
 23
0.0
 14
1.0
 24
1.0
 15
0.0
 25
0.0
 16
0.0
 26
0.0
 36
1.0
 17
0.0
 27
0.0
 37
0.0
 40
9.158369
 41
0.688564
 42
50.0
 43
0.0
 44
0.0
 50
0.0
 51
0.0
 71
     0
 72
   100
 73
     1
 74
     1
 75
     0
 76
     0
 77
     0
 78
     0
  0
ENDTAB
  0
TABLE
  2
LTYPE
  5
4
100
AcDbSymbolTable
 70
     7
  0
LTYPE
  5
11
100
AcDbSymbolTableRecord
100
AcDbLinetypeTableRecord
  2
BYBLOCK
 70
    64
  3

 72
    65
 73
     0
 40
0.0
  0
LTYPE
  5
12
100
AcDbSymbolTableRecord
100
AcDbLinetypeTableRecord
  2
BYLAYER
 70
    64
  3

 72
    65
 73
     0
 40
0.0
  0
LTYPE
  5
13
100
AcDbSymbolTableRecord
100
AcDbLinetypeTableRecord
  2
CONTINUOUS
 70
    64
  3
Solid line
 72
    65
 73
     0
 40
0.0
  0
LTYPE
  5
1F
100
AcDbSymbolTableRecord
100
AcDbLinetypeTableRecord
  2
CENTER
 70
    64
  3
Center ____ _ ____ _ ____ _ ____ _ ____ _ ____
 72
    65
 73
     4
 40
50.8
 49
31.75
 74
     0
 49
-6.35
 74
     0
 49
6.35
 74
     0
 49
-6.35
 74
     0
  0
LTYPE
  5
20
100
AcDbSymbolTableRecord
100
AcDbLinetypeTableRecord
  2
HIDDEN
 70
    64
  3
Hidden __ __ __ __ __ __ __ __ __ __ __ __ __ __
 72
    65
 73
     2
 40
9.525
 49
6.35
 74
     0
 49
-3.175
 74
     0
  0
LTYPE
  5
21
100
AcDbSymbolTableRecord
100
AcDbLinetypeTableRecord
  2
CENTER2
 70
    64
  3
Center (.5x) ___ _ ___ _ ___ _ ___ _ ___ _ ___
 72
    65
 73
     4
 40
28.575
 49
19.05
 74
     0
 49
-3.175
 74
     0
 49
3.175
 74
     0
 49
-3.175
 74
     0
  0
LTYPE
  5
22
100
AcDbSymbolTableRecord
100
AcDbLinetypeTableRecord
  2
HIDDEN2
 70
    64
  3
Hidden (.5x) _ _ _ _ _ _ _ _ _ _ _ _ _ _ _ _ _
 72
    65
 73
     2
 40
4.7625
 49
3.175
 74
     0
 49
-1.5875
 74
     0
  0
ENDTAB
  0
TABLE
  2
LAYER
  5
2
100
AcDbSymbolTable
 70
     7
  0
LAYER
  5
14
100
AcDbSymbolTableRecord
100
AcDbLayerTableRecord
  2
0
 70
     0
 62
     7
  6
CONTINUOUS
  0
LAYER
  5
23
100
AcDbSymbolTableRecord
100
AcDbLayerTableRecord
  2
TRMODEL1
 70
     0
 62
     7
  6
CONTINUOUS
  0
LAYER
  5
24
100
AcDbSymbolTableRecord
100
AcDbLayerTableRecord
  2
TRMODEL3
 70
     0
 62
     7
  6
CONTINUOUS
  0
LAYER
  5
25
100
AcDbSymbolTableRecord
100
AcDbLayerTableRecord
  2
TRDETAIL2
 70
     0
 62
     7
  6
CONTINUOUS
  0
LAYER
  5
26
100
AcDbSymbolTableRecord
100
AcDbLayerTableRecord
  2
TRDETAIL3
 70
     0
 62
     7
  6
CONTINUOUS
  0
LAYER
  5
27
100
AcDbSymbolTableRecord
100
AcDbLayerTableRecord
  2
TRDETAIL4
 70
     0
 62
     7
  6
CONTINUOUS
  0
LAYER
  5
28
100
AcDbSymbolTableRecord
100
AcDbLayerTableRecord
  2
TRDETAIL5
 70
     0
 62
     7
  6
CONTINUOUS
  0
ENDTAB
  0
TABLE
  2
STYLE
  5
3
100
AcDbSymbolTable
 70
     1
  0
STYLE
  5
17
100
AcDbSymbolTableRecord
100
AcDbTextStyleTableRecord
  2
STANDARD
 70
     0
 40
0.0
 41
1.0
 50
0.0
 71
     0
 42
0.0
  3
txt
  4

  0
ENDTAB
  0
TABLE
  2
VIEW
  5
5
100
AcDbSymbolTable
 70
     0
  0
ENDTAB
  0
TABLE
  2
UCS
  5
6
100
AcDbSymbolTable
 70
     0
  0
ENDTAB
  0
TABLE
  2
APPID
  5
8
100
AcDbSymbolTable
 70
     1
  0
APPID
  5
16
100
AcDbSymbolTableRecord
100
AcDbRegAppTableRecord
  2
ACAD
 70
     0
  0
ENDTAB
  0
TABLE
  2
DIMSTYLE
  5
9
100
AcDbSymbolTable
 70
     1
  0
DIMSTYLE
105
18
100
AcDbSymbolTableRecord
100
AcDbDimStyleTableRecord
  2
STANDARD
 70
     0
  3

  4

  5

  6

  7

 40
1.0
 41
0.18
 42
0.0625
 43
0.38
 44
0.18
 45
0.0
 46
0.0
 47
0.0
 48
0.0
 71
     0
 72
     0
 73
     1
 74
     1
 75
     0
 76
     0
 77
     0
 78
     0
140
0.18
141
0.09
142
0.0
143
25.4
144
1.0
145
0.0
146
1.0
147
0.09
170
     0
171
     2
172
     0
173
     0
174
     0
175
     0
176
     0
177
     0
178
     0
270
     2
271
     4
272
     4
273
     2
274
     2
275
     0
280
     0
281
     0
282
     0
283
     1
284
     0
285
     0
286
     0
287
     3
288
     0
340
17
  0
ENDTAB
  0
TABLE
  2
BLOCK_RECORD
  5
1
100
AcDbSymbolTable
 70
     0
  0
BLOCK_RECORD
  5
A
100
AcDbSymbolTableRecord
100
AcDbBlockTableRecord
  2
*MODEL_SPACE
  0
BLOCK_RECORD
  5
B
100
AcDbSymbolTableRecord
100
AcDbBlockTableRecord
  2
*PAPER_SPACE
  0
ENDTAB
  0
ENDSEC
  0
SECTION
  2
BLOCKS
  0
BLOCK
  5
D
100
AcDbEntity
  8
0
100
AcDbBlockBegin
  2
*MODEL_SPACE
 70
     0
 10
0.0
 20
0.0
 30
0.0
  3
*MODEL_SPACE
  1

  0
ENDBLK
  5
E
100
AcDbEntity
  8
0
100
AcDbBlockEnd
  0
BLOCK
  5
F
100
AcDbEntity
 67
     1
  8
0
100
AcDbBlockBegin
  2
*PAPER_SPACE
 70
     0
 10
0.0
 20
0.0
 30
0.0
  3
*PAPER_SPACE
  1

  0
ENDBLK
  5
10
100
AcDbEntity
 67
     1
  8
0
100
AcDbBlockEnd
  0
ENDSEC
  0
SECTION
  2
ENTITIES
  0
LINE
  5
40E
100
AcDbEntity
  8
TRMODEL1
  6
CONTINUOUS
 62
     7
100
AcDbLine
 10
0.233071
 20
0.590551
 30
0.0
 11
0.233071
 21
-0.590551
 31
0.0
  0
LINE
  5
40F
100
AcDbEntity
  8
TRMODEL1
  6
CONTINUOUS
 62
     7
100
AcDbLine
 10
1.814173
 20
-0.590551
 30
0.0
 11
1.814173
 21
0.590551
 31
0.0
  0
LINE
  5
410
100
AcDbEntity
  8
TRMODEL1
  6
CONTINUOUS
 62
     7
100
AcDbLine
 10
2.168504
 20
-0.198425
 30
0.0
 11
2.168504
 21
-0.355906
 31
0.0
  0
LINE
  5
411
100
AcDbEntity
  8
TRMODEL1
  6
CONTINUOUS
 62
     7
100
AcDbLine
 10
1.968504
 20
-0.554331
 30
0.0
 11
1.968504
 21
0.554331
 31
0.0
  0
LINE
  5
412
100
AcDbEntity
  8
TRMODEL1
  6
CONTINUOUS
 62
     7
100
AcDbLine
 10
1.850394
 20
-0.554331
 30
0.0
 11
1.850394
 21
0.554331
 31
0.0
  0
LINE
  5
413
100
AcDbEntity
  8
TRMODEL1
  6
CONTINUOUS
 62
     7
100
AcDbLine
 10
0.19685
 20
0.554331
 30
0.0
 11
0.19685
 21
-0.554331
 31
0.0
  0
LINE
  5
414
100
AcDbEntity
  8
TRMODEL1
  6
CONTINUOUS
 62
     7
100
AcDbLine
 10
0.0
 20
0.554331
 30
0.0
 11
0.0
 21
-0.554331
 31
0.0
  0
LINE
  5
415
100
AcDbEntity
  8
TRMODEL1
  6
CONTINUOUS
 62
     7
100
AcDbLine
 10
0.496063
 20
-0.613719
 30
0.0
 11
0.496115
 21
-0.619344
 31
0.0
  0
LINE
  5
416
100
AcDbEntity
  8
TRMODEL1
  6
CONTINUOUS
 62
     7
100
AcDbLine
 10
0.496115
 20
-0.619344
 30
0.0
 11
0.496269
 21
-0.62496
 31
0.0
  0
LINE
  5
417
100
AcDbEntity
  8
TRMODEL1
  6
CONTINUOUS
 62
     7
100
AcDbLine
 10
0.496269
 20
-0.62496
 30
0.0
 11
0.496525
 21
-0.630567
 31
0.0
  0
LINE
  5
418
100
AcDbEntity
  8
TRMODEL1
  6
CONTINUOUS
 62
     7
100
AcDbLine
 10
0.496525
 20
-0.630567
 30
0.0
 11
0.496883
 21
-0.636169
 31
0.0
  0
LINE
  5
419
100
AcDbEntity
  8
TRMODEL1
  6
CONTINUOUS
 62
     7
100
AcDbLine
 10
0.496883
 20
-0.636169
 30
0.0
 11
0.497343
 21
-0.641767
 31
0.0
  0
LINE
  5
41A
100
AcDbEntity
  8
TRMODEL1
  6
CONTINUOUS
 62
     7
100
AcDbLine
 10
0.497343
 20
-0.641767
 30
0.0
 11
0.497903
 21
-0.647363
 31
0.0
  0
LINE
  5
41B
100
AcDbEntity
  8
TRMODEL1
  6
CONTINUOUS
 62
     7
100
AcDbLine
 10
0.497903
 20
-0.647363
 30
0.0
 11
0.498564
 21
-0.65296
 31
0.0
  0
LINE
  5
41C
100
AcDbEntity
  8
TRMODEL1
  6
CONTINUOUS
 62
     7
100
AcDbLine
 10
0.498564
 20
-0.65296
 30
0.0
 11
0.499326
 21
-0.658559
 31
0.0
  0
LINE
  5
41D
100
AcDbEntity
  8
TRMODEL1
  6
CONTINUOUS
 62
     7
100
AcDbLine
 10
0.499326
 20
-0.658559
 30
0.0
 11
0.500188
 21
-0.664163
 31
0.0
  0
LINE
  5
41E
100
AcDbEntity
  8
TRMODEL1
  6
CONTINUOUS
 62
     7
100
AcDbLine
 10
0.500188
 20
-0.664163
 30
0.0
 11
0.501151
 21
-0.669773
 31
0.0
  0
LINE
  5
41F
100
AcDbEntity
  8
TRMODEL1
  6
CONTINUOUS
 62
     7
100
AcDbLine
 10
0.501151
 20
-0.669773
 30
0.0
 11
0.502214
 21
-0.675392
 31
0.0
  0
LINE
  5
420
100
AcDbEntity
  8
TRMODEL1
  6
CONTINUOUS
 62
     7
100
AcDbLine
 10
0.502214
 20
-0.675392
 30
0.0
 11
0.503378
 21
-0.681022
 31
0.0
  0
LINE
  5
421
100
AcDbEntity
  8
TRMODEL1
  6
CONTINUOUS
 62
     7
100
AcDbLine
 10
0.503378
 20
-0.681022
 30
0.0
 11
0.504643
 21
-0.686664
 31
0.0
  0
LINE
  5
422
100
AcDbEntity
  8
TRMODEL1
  6
CONTINUOUS
 62
     7
100
AcDbLine
 10
0.504643
 20
-0.686664
 30
0.0
 11
0.506009
 21
-0.692321
 31
0.0
  0
LINE
  5
423
100
AcDbEntity
  8
TRMODEL1
  6
CONTINUOUS
 62
     7
100
AcDbLine
 10
0.506009
 20
-0.692321
 30
0.0
 11
0.507476
 21
-0.697994
 31
0.0
  0
LINE
  5
424
100
AcDbEntity
  8
TRMODEL1
  6
CONTINUOUS
 62
     7
100
AcDbLine
 10
0.507476
 20
-0.697994
 30
0.0
 11
0.509046
 21
-0.703687
 31
0.0
  0
LINE
  5
425
100
AcDbEntity
  8
TRMODEL1
  6
CONTINUOUS
 62
     7
100
AcDbLine
 10
0.509046
 20
-0.703687
 30
0.0
 11
0.510718
 21
-0.7094
 31
0.0
  0
LINE
  5
426
100
AcDbEntity
  8
TRMODEL1
  6
CONTINUOUS
 62
     7
100
AcDbLine
 10
0.510718
 20
-0.7094
 30
0.0
 11
0.512492
 21
-0.715136
 31
0.0
  0
LINE
  5
427
100
AcDbEntity
  8
TRMODEL1
  6
CONTINUOUS
 62
     7
100
AcDbLine
 10
0.512492
 20
-0.715136
 30
0.0
 11
0.514371
 21
-0.720897
 31
0.0
  0
LINE
  5
428
100
AcDbEntity
  8
TRMODEL1
  6
CONTINUOUS
 62
     7
100
AcDbLine
 10
0.514371
 20
-0.720897
 30
0.0
 11
0.516354
 21
-0.726686
 31
0.0
  0
LINE
  5
429
100
AcDbEntity
  8
TRMODEL1
  6
CONTINUOUS
 62
     7
100
AcDbLine
 10
0.516354
 20
-0.726686
 30
0.0
 11
0.518442
 21
-0.732503
 31
0.0
  0
LINE
  5
42A
100
AcDbEntity
  8
TRMODEL1
  6
CONTINUOUS
 62
     7
100
AcDbLine
 10
0.518442
 20
-0.732503
 30
0.0
 11
0.520636
 21
-0.738352
 31
0.0
  0
LINE
  5
42B
100
AcDbEntity
  8
TRMODEL1
  6
CONTINUOUS
 62
     7
100
AcDbLine
 10
0.520636
 20
-0.738352
 30
0.0
 11
0.522937
 21
-0.744235
 31
0.0
  0
LINE
  5
42C
100
AcDbEntity
  8
TRMODEL1
  6
CONTINUOUS
 62
     7
100
AcDbLine
 10
0.522937
 20
-0.744235
 30
0.0
 11
0.525346
 21
-0.750153
 31
0.0
  0
LINE
  5
42D
100
AcDbEntity
  8
TRMODEL1
  6
CONTINUOUS
 62
     7
100
AcDbLine
 10
0.525346
 20
-0.750153
 30
0.0
 11
0.527864
 21
-0.75611
 31
0.0
  0
LINE
  5
42E
100
AcDbEntity
  8
TRMODEL1
  6
CONTINUOUS
 62
     7
100
AcDbLine
 10
0.527864
 20
-0.75611
 30
0.0
 11
0.530492
 21
-0.762107
 31
0.0
  0
LINE
  5
42F
100
AcDbEntity
  8
TRMODEL1
  6
CONTINUOUS
 62
     7
100
AcDbLine
 10
0.530492
 20
-0.762107
 30
0.0
 11
0.533233
 21
-0.768146
 31
0.0
  0
LINE
  5
430
100
AcDbEntity
  8
TRMODEL1
  6
CONTINUOUS
 62
     7
100
AcDbLine
 10
0.533233
 20
-0.768146
 30
0.0
 11
0.536086
 21
-0.774231
 31
0.0
  0
LINE
  5
431
100
AcDbEntity
  8
TRMODEL1
  6
CONTINUOUS
 62
     7
100
AcDbLine
 10
0.536086
 20
-0.774231
 30
0.0
 11
0.539053
 21
-0.780363
 31
0.0
  0
LINE
  5
432
100
AcDbEntity
  8
TRMODEL1
  6
CONTINUOUS
 62
     7
100
AcDbLine
 10
0.539053
 20
-0.780363
 30
0.0
 11
0.542137
 21
-0.786545
 31
0.0
  0
LINE
  5
433
100
AcDbEntity
  8
TRMODEL1
  6
CONTINUOUS
 62
     7
100
AcDbLine
 10
0.542137
 20
-0.786545
 30
0.0
 11
0.545339
 21
-0.792779
 31
0.0
  0
LINE
  5
434
100
AcDbEntity
  8
TRMODEL1
  6
CONTINUOUS
 62
     7
100
AcDbLine
 10
0.545339
 20
-0.792779
 30
0.0
 11
0.54866
 21
-0.799068
 31
0.0
  0
LINE
  5
435
100
AcDbEntity
  8
TRMODEL1
  6
CONTINUOUS
 62
     7
100
AcDbLine
 10
0.54866
 20
-0.799068
 30
0.0
 11
0.552102
 21
-0.805415
 31
0.0
  0
LINE
  5
436
100
AcDbEntity
  8
TRMODEL1
  6
CONTINUOUS
 62
     7
100
AcDbLine
 10
0.552102
 20
-0.805415
 30
0.0
 11
0.555667
 21
-0.811822
 31
0.0
  0
LINE
  5
437
100
AcDbEntity
  8
TRMODEL1
  6
CONTINUOUS
 62
     7
100
AcDbLine
 10
0.555667
 20
-0.811822
 30
0.0
 11
0.559358
 21
-0.818292
 31
0.0
  0
LINE
  5
438
100
AcDbEntity
  8
TRMODEL1
  6
CONTINUOUS
 62
     7
100
AcDbLine
 10
0.496063
 20
-0.708661
 30
0.0
 11
0.496063
 21
-0.613719
 31
0.0
  0
LINE
  5
439
100
AcDbEntity
  8
TRMODEL1
  6
CONTINUOUS
 62
     7
100
AcDbLine
 10
0.559358
 20
0.818292
 30
0.0
 11
0.555667
 21
0.811822
 31
0.0
  0
LINE
  5
43A
100
AcDbEntity
  8
TRMODEL1
  6
CONTINUOUS
 62
     7
100
AcDbLine
 10
0.555667
 20
0.811822
 30
0.0
 11
0.552102
 21
0.805415
 31
0.0
  0
LINE
  5
43B
100
AcDbEntity
  8
TRMODEL1
  6
CONTINUOUS
 62
     7
100
AcDbLine
 10
0.552102
 20
0.805415
 30
0.0
 11
0.54866
 21
0.799068
 31
0.0
  0
LINE
  5
43C
100
AcDbEntity
  8
TRMODEL1
  6
CONTINUOUS
 62
     7
100
AcDbLine
 10
0.54866
 20
0.799068
 30
0.0
 11
0.545339
 21
0.792779
 31
0.0
  0
LINE
  5
43D
100
AcDbEntity
  8
TRMODEL1
  6
CONTINUOUS
 62
     7
100
AcDbLine
 10
0.545339
 20
0.792779
 30
0.0
 11
0.542137
 21
0.786545
 31
0.0
  0
LINE
  5
43E
100
AcDbEntity
  8
TRMODEL1
  6
CONTINUOUS
 62
     7
100
AcDbLine
 10
0.542137
 20
0.786545
 30
0.0
 11
0.539053
 21
0.780363
 31
0.0
  0
LINE
  5
43F
100
AcDbEntity
  8
TRMODEL1
  6
CONTINUOUS
 62
     7
100
AcDbLine
 10
0.539053
 20
0.780363
 30
0.0
 11
0.536086
 21
0.774231
 31
0.0
  0
LINE
  5
440
100
AcDbEntity
  8
TRMODEL1
  6
CONTINUOUS
 62
     7
100
AcDbLine
 10
0.536086
 20
0.774231
 30
0.0
 11
0.533233
 21
0.768146
 31
0.0
  0
LINE
  5
441
100
AcDbEntity
  8
TRMODEL1
  6
CONTINUOUS
 62
     7
100
AcDbLine
 10
0.533233
 20
0.768146
 30
0.0
 11
0.530492
 21
0.762107
 31
0.0
  0
LINE
  5
442
100
AcDbEntity
  8
TRMODEL1
  6
CONTINUOUS
 62
     7
100
AcDbLine
 10
0.530492
 20
0.762107
 30
0.0
 11
0.527864
 21
0.75611
 31
0.0
  0
LINE
  5
443
100
AcDbEntity
  8
TRMODEL1
  6
CONTINUOUS
 62
     7
100
AcDbLine
 10
0.527864
 20
0.75611
 30
0.0
 11
0.525346
 21
0.750153
 31
0.0
  0
LINE
  5
444
100
AcDbEntity
  8
TRMODEL1
  6
CONTINUOUS
 62
     7
100
AcDbLine
 10
0.525346
 20
0.750153
 30
0.0
 11
0.522937
 21
0.744235
 31
0.0
  0
LINE
  5
445
100
AcDbEntity
  8
TRMODEL1
  6
CONTINUOUS
 62
     7
100
AcDbLine
 10
0.522937
 20
0.744235
 30
0.0
 11
0.520636
 21
0.738352
 31
0.0
  0
LINE
  5
446
100
AcDbEntity
  8
TRMODEL1
  6
CONTINUOUS
 62
     7
100
AcDbLine
 10
0.520636
 20
0.738352
 30
0.0
 11
0.518442
 21
0.732503
 31
0.0
  0
LINE
  5
447
100
AcDbEntity
  8
TRMODEL1
  6
CONTINUOUS
 62
     7
100
AcDbLine
 10
0.518442
 20
0.732503
 30
0.0
 11
0.516354
 21
0.726686
 31
0.0
  0
LINE
  5
448
100
AcDbEntity
  8
TRMODEL1
  6
CONTINUOUS
 62
     7
100
AcDbLine
 10
0.516354
 20
0.726686
 30
0.0
 11
0.514371
 21
0.720897
 31
0.0
  0
LINE
  5
449
100
AcDbEntity
  8
TRMODEL1
  6
CONTINUOUS
 62
     7
100
AcDbLine
 10
0.514371
 20
0.720897
 30
0.0
 11
0.512492
 21
0.715136
 31
0.0
  0
LINE
  5
44A
100
AcDbEntity
  8
TRMODEL1
  6
CONTINUOUS
 62
     7
100
AcDbLine
 10
0.512492
 20
0.715136
 30
0.0
 11
0.510718
 21
0.7094
 31
0.0
  0
LINE
  5
44B
100
AcDbEntity
  8
TRMODEL1
  6
CONTINUOUS
 62
     7
100
AcDbLine
 10
0.510718
 20
0.7094
 30
0.0
 11
0.509046
 21
0.703687
 31
0.0
  0
LINE
  5
44C
100
AcDbEntity
  8
TRMODEL1
  6
CONTINUOUS
 62
     7
100
AcDbLine
 10
0.509046
 20
0.703687
 30
0.0
 11
0.507476
 21
0.697994
 31
0.0
  0
LINE
  5
44D
100
AcDbEntity
  8
TRMODEL1
  6
CONTINUOUS
 62
     7
100
AcDbLine
 10
0.507476
 20
0.697994
 30
0.0
 11
0.506009
 21
0.692321
 31
0.0
  0
LINE
  5
44E
100
AcDbEntity
  8
TRMODEL1
  6
CONTINUOUS
 62
     7
100
AcDbLine
 10
0.506009
 20
0.692321
 30
0.0
 11
0.504643
 21
0.686664
 31
0.0
  0
LINE
  5
44F
100
AcDbEntity
  8
TRMODEL1
  6
CONTINUOUS
 62
     7
100
AcDbLine
 10
0.504643
 20
0.686664
 30
0.0
 11
0.503378
 21
0.681022
 31
0.0
  0
LINE
  5
450
100
AcDbEntity
  8
TRMODEL1
  6
CONTINUOUS
 62
     7
100
AcDbLine
 10
0.503378
 20
0.681022
 30
0.0
 11
0.502214
 21
0.675392
 31
0.0
  0
LINE
  5
451
100
AcDbEntity
  8
TRMODEL1
  6
CONTINUOUS
 62
     7
100
AcDbLine
 10
0.502214
 20
0.675392
 30
0.0
 11
0.501151
 21
0.669773
 31
0.0
  0
LINE
  5
452
100
AcDbEntity
  8
TRMODEL1
  6
CONTINUOUS
 62
     7
100
AcDbLine
 10
0.501151
 20
0.669773
 30
0.0
 11
0.500188
 21
0.664163
 31
0.0
  0
LINE
  5
453
100
AcDbEntity
  8
TRMODEL1
  6
CONTINUOUS
 62
     7
100
AcDbLine
 10
0.500188
 20
0.664163
 30
0.0
 11
0.499326
 21
0.658559
 31
0.0
  0
LINE
  5
454
100
AcDbEntity
  8
TRMODEL1
  6
CONTINUOUS
 62
     7
100
AcDbLine
 10
0.499326
 20
0.658559
 30
0.0
 11
0.498564
 21
0.65296
 31
0.0
  0
LINE
  5
455
100
AcDbEntity
  8
TRMODEL1
  6
CONTINUOUS
 62
     7
100
AcDbLine
 10
0.498564
 20
0.65296
 30
0.0
 11
0.497903
 21
0.647363
 31
0.0
  0
LINE
  5
456
100
AcDbEntity
  8
TRMODEL1
  6
CONTINUOUS
 62
     7
100
AcDbLine
 10
0.497903
 20
0.647363
 30
0.0
 11
0.497343
 21
0.641767
 31
0.0
  0
LINE
  5
457
100
AcDbEntity
  8
TRMODEL1
  6
CONTINUOUS
 62
     7
100
AcDbLine
 10
0.497343
 20
0.641767
 30
0.0
 11
0.496883
 21
0.636169
 31
0.0
  0
LINE
  5
458
100
AcDbEntity
  8
TRMODEL1
  6
CONTINUOUS
 62
     7
100
AcDbLine
 10
0.496883
 20
0.636169
 30
0.0
 11
0.496525
 21
0.630567
 31
0.0
  0
LINE
  5
459
100
AcDbEntity
  8
TRMODEL1
  6
CONTINUOUS
 62
     7
100
AcDbLine
 10
0.496525
 20
0.630567
 30
0.0
 11
0.496269
 21
0.62496
 31
0.0
  0
LINE
  5
45A
100
AcDbEntity
  8
TRMODEL1
  6
CONTINUOUS
 62
     7
100
AcDbLine
 10
0.496269
 20
0.62496
 30
0.0
 11
0.496115
 21
0.619344
 31
0.0
  0
LINE
  5
45B
100
AcDbEntity
  8
TRMODEL1
  6
CONTINUOUS
 62
     7
100
AcDbLine
 10
0.496115
 20
0.619344
 30
0.0
 11
0.496063
 21
0.613719
 31
0.0
  0
LINE
  5
45C
100
AcDbEntity
  8
TRMODEL1
  6
CONTINUOUS
 62
     7
100
AcDbLine
 10
0.496063
 20
0.613719
 30
0.0
 11
0.496063
 21
0.708661
 31
0.0
  0
LINE
  5
45D
100
AcDbEntity
  8
TRMODEL1
  6
CONTINUOUS
 62
     7
100
AcDbLine
 10
0.496063
 20
0.0
 30
0.0
 11
0.496115
 21
-0.011251
 31
0.0
  0
LINE
  5
45E
100
AcDbEntity
  8
TRMODEL1
  6
CONTINUOUS
 62
     7
100
AcDbLine
 10
0.496115
 20
-0.011251
 30
0.0
 11
0.496269
 21
-0.022482
 31
0.0
  0
LINE
  5
45F
100
AcDbEntity
  8
TRMODEL1
  6
CONTINUOUS
 62
     7
100
AcDbLine
 10
0.496269
 20
-0.022482
 30
0.0
 11
0.496525
 21
-0.033697
 31
0.0
  0
LINE
  5
460
100
AcDbEntity
  8
TRMODEL1
  6
CONTINUOUS
 62
     7
100
AcDbLine
 10
0.496525
 20
-0.033697
 30
0.0
 11
0.496883
 21
-0.0449
 31
0.0
  0
LINE
  5
461
100
AcDbEntity
  8
TRMODEL1
  6
CONTINUOUS
 62
     7
100
AcDbLine
 10
0.496883
 20
-0.0449
 30
0.0
 11
0.497343
 21
-0.056096
 31
0.0
  0
LINE
  5
462
100
AcDbEntity
  8
TRMODEL1
  6
CONTINUOUS
 62
     7
100
AcDbLine
 10
0.497343
 20
-0.056096
 30
0.0
 11
0.497903
 21
-0.067289
 31
0.0
  0
LINE
  5
463
100
AcDbEntity
  8
TRMODEL1
  6
CONTINUOUS
 62
     7
100
AcDbLine
 10
0.497903
 20
-0.067289
 30
0.0
 11
0.498564
 21
-0.078482
 31
0.0
  0
LINE
  5
464
100
AcDbEntity
  8
TRMODEL1
  6
CONTINUOUS
 62
     7
100
AcDbLine
 10
0.498564
 20
-0.078482
 30
0.0
 11
0.499326
 21
-0.089681
 31
0.0
  0
LINE
  5
465
100
AcDbEntity
  8
TRMODEL1
  6
CONTINUOUS
 62
     7
100
AcDbLine
 10
0.499326
 20
-0.089681
 30
0.0
 11
0.500188
 21
-0.100888
 31
0.0
  0
LINE
  5
466
100
AcDbEntity
  8
TRMODEL1
  6
CONTINUOUS
 62
     7
100
AcDbLine
 10
0.500188
 20
-0.100888
 30
0.0
 11
0.501151
 21
-0.112109
 31
0.0
  0
LINE
  5
467
100
AcDbEntity
  8
TRMODEL1
  6
CONTINUOUS
 62
     7
100
AcDbLine
 10
0.501151
 20
-0.112109
 30
0.0
 11
0.502214
 21
-0.123347
 31
0.0
  0
LINE
  5
468
100
AcDbEntity
  8
TRMODEL1
  6
CONTINUOUS
 62
     7
100
AcDbLine
 10
0.502214
 20
-0.123347
 30
0.0
 11
0.503378
 21
-0.134606
 31
0.0
  0
LINE
  5
469
100
AcDbEntity
  8
TRMODEL1
  6
CONTINUOUS
 62
     7
100
AcDbLine
 10
0.503378
 20
-0.134606
 30
0.0
 11
0.504643
 21
-0.14589
 31
0.0
  0
LINE
  5
46A
100
AcDbEntity
  8
TRMODEL1
  6
CONTINUOUS
 62
     7
100
AcDbLine
 10
0.504643
 20
-0.14589
 30
0.0
 11
0.506009
 21
-0.157204
 31
0.0
  0
LINE
  5
46B
100
AcDbEntity
  8
TRMODEL1
  6
CONTINUOUS
 62
     7
100
AcDbLine
 10
0.506009
 20
-0.157204
 30
0.0
 11
0.507476
 21
-0.168551
 31
0.0
  0
LINE
  5
46C
100
AcDbEntity
  8
TRMODEL1
  6
CONTINUOUS
 62
     7
100
AcDbLine
 10
0.507476
 20
-0.168551
 30
0.0
 11
0.509046
 21
-0.179936
 31
0.0
  0
LINE
  5
46D
100
AcDbEntity
  8
TRMODEL1
  6
CONTINUOUS
 62
     7
100
AcDbLine
 10
0.509046
 20
-0.179936
 30
0.0
 11
0.510718
 21
-0.191362
 31
0.0
  0
LINE
  5
46E
100
AcDbEntity
  8
TRMODEL1
  6
CONTINUOUS
 62
     7
100
AcDbLine
 10
0.510718
 20
-0.191362
 30
0.0
 11
0.512492
 21
-0.202834
 31
0.0
  0
LINE
  5
46F
100
AcDbEntity
  8
TRMODEL1
  6
CONTINUOUS
 62
     7
100
AcDbLine
 10
0.512492
 20
-0.202834
 30
0.0
 11
0.514371
 21
-0.214357
 31
0.0
  0
LINE
  5
470
100
AcDbEntity
  8
TRMODEL1
  6
CONTINUOUS
 62
     7
100
AcDbLine
 10
0.514371
 20
-0.214357
 30
0.0
 11
0.516354
 21
-0.225934
 31
0.0
  0
LINE
  5
471
100
AcDbEntity
  8
TRMODEL1
  6
CONTINUOUS
 62
     7
100
AcDbLine
 10
0.516354
 20
-0.225934
 30
0.0
 11
0.518442
 21
-0.237569
 31
0.0
  0
LINE
  5
472
100
AcDbEntity
  8
TRMODEL1
  6
CONTINUOUS
 62
     7
100
AcDbLine
 10
0.518442
 20
-0.237569
 30
0.0
 11
0.520636
 21
-0.249267
 31
0.0
  0
LINE
  5
473
100
AcDbEntity
  8
TRMODEL1
  6
CONTINUOUS
 62
     7
100
AcDbLine
 10
0.520636
 20
-0.249267
 30
0.0
 11
0.522937
 21
-0.261032
 31
0.0
  0
LINE
  5
474
100
AcDbEntity
  8
TRMODEL1
  6
CONTINUOUS
 62
     7
100
AcDbLine
 10
0.522937
 20
-0.261032
 30
0.0
 11
0.525346
 21
-0.272869
 31
0.0
  0
LINE
  5
475
100
AcDbEntity
  8
TRMODEL1
  6
CONTINUOUS
 62
     7
100
AcDbLine
 10
0.525346
 20
-0.272869
 30
0.0
 11
0.527864
 21
-0.284782
 31
0.0
  0
LINE
  5
476
100
AcDbEntity
  8
TRMODEL1
  6
CONTINUOUS
 62
     7
100
AcDbLine
 10
0.527864
 20
-0.284782
 30
0.0
 11
0.530492
 21
-0.296776
 31
0.0
  0
LINE
  5
477
100
AcDbEntity
  8
TRMODEL1
  6
CONTINUOUS
 62
     7
100
AcDbLine
 10
0.530492
 20
-0.296776
 30
0.0
 11
0.533233
 21
-0.308855
 31
0.0
  0
LINE
  5
478
100
AcDbEntity
  8
TRMODEL1
  6
CONTINUOUS
 62
     7
100
AcDbLine
 10
0.533233
 20
-0.308855
 30
0.0
 11
0.536086
 21
-0.321024
 31
0.0
  0
LINE
  5
479
100
AcDbEntity
  8
TRMODEL1
  6
CONTINUOUS
 62
     7
100
AcDbLine
 10
0.536086
 20
-0.321024
 30
0.0
 11
0.539053
 21
-0.333288
 31
0.0
  0
LINE
  5
47A
100
AcDbEntity
  8
TRMODEL1
  6
CONTINUOUS
 62
     7
100
AcDbLine
 10
0.539053
 20
-0.333288
 30
0.0
 11
0.542137
 21
-0.345652
 31
0.0
  0
LINE
  5
47B
100
AcDbEntity
  8
TRMODEL1
  6
CONTINUOUS
 62
     7
100
AcDbLine
 10
0.542137
 20
-0.345652
 30
0.0
 11
0.545339
 21
-0.35812
 31
0.0
  0
LINE
  5
47C
100
AcDbEntity
  8
TRMODEL1
  6
CONTINUOUS
 62
     7
100
AcDbLine
 10
0.545339
 20
-0.35812
 30
0.0
 11
0.54866
 21
-0.370699
 31
0.0
  0
LINE
  5
47D
100
AcDbEntity
  8
TRMODEL1
  6
CONTINUOUS
 62
     7
100
AcDbLine
 10
0.54866
 20
-0.370699
 30
0.0
 11
0.552102
 21
-0.383392
 31
0.0
  0
LINE
  5
47E
100
AcDbEntity
  8
TRMODEL1
  6
CONTINUOUS
 62
     7
100
AcDbLine
 10
0.552102
 20
-0.383392
 30
0.0
 11
0.555667
 21
-0.396206
 31
0.0
  0
LINE
  5
47F
100
AcDbEntity
  8
TRMODEL1
  6
CONTINUOUS
 62
     7
100
AcDbLine
 10
0.555667
 20
-0.396206
 30
0.0
 11
0.559358
 21
-0.409146
 31
0.0
  0
LINE
  5
480
100
AcDbEntity
  8
TRMODEL1
  6
CONTINUOUS
 62
     7
100
AcDbLine
 10
0.496063
 20
-0.613719
 30
0.0
 11
0.496063
 21
0.0
 31
0.0
  0
LINE
  5
481
100
AcDbEntity
  8
TRMODEL1
  6
CONTINUOUS
 62
     7
100
AcDbLine
 10
0.559358
 20
-0.409146
 30
0.0
 11
0.555667
 21
-0.415616
 31
0.0
  0
LINE
  5
482
100
AcDbEntity
  8
TRMODEL1
  6
CONTINUOUS
 62
     7
100
AcDbLine
 10
0.555667
 20
-0.415616
 30
0.0
 11
0.552102
 21
-0.422023
 31
0.0
  0
LINE
  5
483
100
AcDbEntity
  8
TRMODEL1
  6
CONTINUOUS
 62
     7
100
AcDbLine
 10
0.552102
 20
-0.422023
 30
0.0
 11
0.54866
 21
-0.42837
 31
0.0
  0
LINE
  5
484
100
AcDbEntity
  8
TRMODEL1
  6
CONTINUOUS
 62
     7
100
AcDbLine
 10
0.54866
 20
-0.42837
 30
0.0
 11
0.545339
 21
-0.434659
 31
0.0
  0
LINE
  5
485
100
AcDbEntity
  8
TRMODEL1
  6
CONTINUOUS
 62
     7
100
AcDbLine
 10
0.545339
 20
-0.434659
 30
0.0
 11
0.542137
 21
-0.440893
 31
0.0
  0
LINE
  5
486
100
AcDbEntity
  8
TRMODEL1
  6
CONTINUOUS
 62
     7
100
AcDbLine
 10
0.542137
 20
-0.440893
 30
0.0
 11
0.539053
 21
-0.447075
 31
0.0
  0
LINE
  5
487
100
AcDbEntity
  8
TRMODEL1
  6
CONTINUOUS
 62
     7
100
AcDbLine
 10
0.539053
 20
-0.447075
 30
0.0
 11
0.536086
 21
-0.453207
 31
0.0
  0
LINE
  5
488
100
AcDbEntity
  8
TRMODEL1
  6
CONTINUOUS
 62
     7
100
AcDbLine
 10
0.536086
 20
-0.453207
 30
0.0
 11
0.533233
 21
-0.459291
 31
0.0
  0
LINE
  5
489
100
AcDbEntity
  8
TRMODEL1
  6
CONTINUOUS
 62
     7
100
AcDbLine
 10
0.533233
 20
-0.459291
 30
0.0
 11
0.530492
 21
-0.465331
 31
0.0
  0
LINE
  5
48A
100
AcDbEntity
  8
TRMODEL1
  6
CONTINUOUS
 62
     7
100
AcDbLine
 10
0.530492
 20
-0.465331
 30
0.0
 11
0.527864
 21
-0.471328
 31
0.0
  0
LINE
  5
48B
100
AcDbEntity
  8
TRMODEL1
  6
CONTINUOUS
 62
     7
100
AcDbLine
 10
0.527864
 20
-0.471328
 30
0.0
 11
0.525346
 21
-0.477284
 31
0.0
  0
LINE
  5
48C
100
AcDbEntity
  8
TRMODEL1
  6
CONTINUOUS
 62
     7
100
AcDbLine
 10
0.525346
 20
-0.477284
 30
0.0
 11
0.522937
 21
-0.483203
 31
0.0
  0
LINE
  5
48D
100
AcDbEntity
  8
TRMODEL1
  6
CONTINUOUS
 62
     7
100
AcDbLine
 10
0.522937
 20
-0.483203
 30
0.0
 11
0.520636
 21
-0.489085
 31
0.0
  0
LINE
  5
48E
100
AcDbEntity
  8
TRMODEL1
  6
CONTINUOUS
 62
     7
100
AcDbLine
 10
0.520636
 20
-0.489085
 30
0.0
 11
0.518442
 21
-0.494934
 31
0.0
  0
LINE
  5
48F
100
AcDbEntity
  8
TRMODEL1
  6
CONTINUOUS
 62
     7
100
AcDbLine
 10
0.518442
 20
-0.494934
 30
0.0
 11
0.516354
 21
-0.500752
 31
0.0
  0
LINE
  5
490
100
AcDbEntity
  8
TRMODEL1
  6
CONTINUOUS
 62
     7
100
AcDbLine
 10
0.516354
 20
-0.500752
 30
0.0
 11
0.514371
 21
-0.50654
 31
0.0
  0
LINE
  5
491
100
AcDbEntity
  8
TRMODEL1
  6
CONTINUOUS
 62
     7
100
AcDbLine
 10
0.514371
 20
-0.50654
 30
0.0
 11
0.512492
 21
-0.512302
 31
0.0
  0
LINE
  5
492
100
AcDbEntity
  8
TRMODEL1
  6
CONTINUOUS
 62
     7
100
AcDbLine
 10
0.512492
 20
-0.512302
 30
0.0
 11
0.510718
 21
-0.518038
 31
0.0
  0
LINE
  5
493
100
AcDbEntity
  8
TRMODEL1
  6
CONTINUOUS
 62
     7
100
AcDbLine
 10
0.510718
 20
-0.518038
 30
0.0
 11
0.509046
 21
-0.523751
 31
0.0
  0
LINE
  5
494
100
AcDbEntity
  8
TRMODEL1
  6
CONTINUOUS
 62
     7
100
AcDbLine
 10
0.509046
 20
-0.523751
 30
0.0
 11
0.507476
 21
-0.529443
 31
0.0
  0
LINE
  5
495
100
AcDbEntity
  8
TRMODEL1
  6
CONTINUOUS
 62
     7
100
AcDbLine
 10
0.507476
 20
-0.529443
 30
0.0
 11
0.506009
 21
-0.535117
 31
0.0
  0
LINE
  5
496
100
AcDbEntity
  8
TRMODEL1
  6
CONTINUOUS
 62
     7
100
AcDbLine
 10
0.506009
 20
-0.535117
 30
0.0
 11
0.504643
 21
-0.540774
 31
0.0
  0
LINE
  5
497
100
AcDbEntity
  8
TRMODEL1
  6
CONTINUOUS
 62
     7
100
AcDbLine
 10
0.504643
 20
-0.540774
 30
0.0
 11
0.503378
 21
-0.546416
 31
0.0
  0
LINE
  5
498
100
AcDbEntity
  8
TRMODEL1
  6
CONTINUOUS
 62
     7
100
AcDbLine
 10
0.503378
 20
-0.546416
 30
0.0
 11
0.502214
 21
-0.552046
 31
0.0
  0
LINE
  5
499
100
AcDbEntity
  8
TRMODEL1
  6
CONTINUOUS
 62
     7
100
AcDbLine
 10
0.502214
 20
-0.552046
 30
0.0
 11
0.501151
 21
-0.557664
 31
0.0
  0
LINE
  5
49A
100
AcDbEntity
  8
TRMODEL1
  6
CONTINUOUS
 62
     7
100
AcDbLine
 10
0.501151
 20
-0.557664
 30
0.0
 11
0.500188
 21
-0.563275
 31
0.0
  0
LINE
  5
49B
100
AcDbEntity
  8
TRMODEL1
  6
CONTINUOUS
 62
     7
100
AcDbLine
 10
0.500188
 20
-0.563275
 30
0.0
 11
0.499326
 21
-0.568878
 31
0.0
  0
LINE
  5
49C
100
AcDbEntity
  8
TRMODEL1
  6
CONTINUOUS
 62
     7
100
AcDbLine
 10
0.499326
 20
-0.568878
 30
0.0
 11
0.498564
 21
-0.574478
 31
0.0
  0
LINE
  5
49D
100
AcDbEntity
  8
TRMODEL1
  6
CONTINUOUS
 62
     7
100
AcDbLine
 10
0.498564
 20
-0.574478
 30
0.0
 11
0.497903
 21
-0.580074
 31
0.0
  0
LINE
  5
49E
100
AcDbEntity
  8
TRMODEL1
  6
CONTINUOUS
 62
     7
100
AcDbLine
 10
0.497903
 20
-0.580074
 30
0.0
 11
0.497343
 21
-0.585671
 31
0.0
  0
LINE
  5
49F
100
AcDbEntity
  8
TRMODEL1
  6
CONTINUOUS
 62
     7
100
AcDbLine
 10
0.497343
 20
-0.585671
 30
0.0
 11
0.496883
 21
-0.591269
 31
0.0
  0
LINE
  5
4A0
100
AcDbEntity
  8
TRMODEL1
  6
CONTINUOUS
 62
     7
100
AcDbLine
 10
0.496883
 20
-0.591269
 30
0.0
 11
0.496525
 21
-0.59687
 31
0.0
  0
LINE
  5
4A1
100
AcDbEntity
  8
TRMODEL1
  6
CONTINUOUS
 62
     7
100
AcDbLine
 10
0.496525
 20
-0.59687
 30
0.0
 11
0.496269
 21
-0.602478
 31
0.0
  0
LINE
  5
4A2
100
AcDbEntity
  8
TRMODEL1
  6
CONTINUOUS
 62
     7
100
AcDbLine
 10
0.496269
 20
-0.602478
 30
0.0
 11
0.496115
 21
-0.608093
 31
0.0
  0
LINE
  5
4A3
100
AcDbEntity
  8
TRMODEL1
  6
CONTINUOUS
 62
     7
100
AcDbLine
 10
0.496115
 20
-0.608093
 30
0.0
 11
0.496063
 21
-0.613719
 31
0.0
  0
LINE
  5
4A4
100
AcDbEntity
  8
TRMODEL1
  6
CONTINUOUS
 62
     7
100
AcDbLine
 10
0.559358
 20
0.409146
 30
0.0
 11
0.555667
 21
0.396206
 31
0.0
  0
LINE
  5
4A5
100
AcDbEntity
  8
TRMODEL1
  6
CONTINUOUS
 62
     7
100
AcDbLine
 10
0.555667
 20
0.396206
 30
0.0
 11
0.552102
 21
0.383392
 31
0.0
  0
LINE
  5
4A6
100
AcDbEntity
  8
TRMODEL1
  6
CONTINUOUS
 62
     7
100
AcDbLine
 10
0.552102
 20
0.383392
 30
0.0
 11
0.54866
 21
0.370699
 31
0.0
  0
LINE
  5
4A7
100
AcDbEntity
  8
TRMODEL1
  6
CONTINUOUS
 62
     7
100
AcDbLine
 10
0.54866
 20
0.370699
 30
0.0
 11
0.545339
 21
0.35812
 31
0.0
  0
LINE
  5
4A8
100
AcDbEntity
  8
TRMODEL1
  6
CONTINUOUS
 62
     7
100
AcDbLine
 10
0.545339
 20
0.35812
 30
0.0
 11
0.542137
 21
0.345652
 31
0.0
  0
LINE
  5
4A9
100
AcDbEntity
  8
TRMODEL1
  6
CONTINUOUS
 62
     7
100
AcDbLine
 10
0.542137
 20
0.345652
 30
0.0
 11
0.539053
 21
0.333288
 31
0.0
  0
LINE
  5
4AA
100
AcDbEntity
  8
TRMODEL1
  6
CONTINUOUS
 62
     7
100
AcDbLine
 10
0.539053
 20
0.333288
 30
0.0
 11
0.536086
 21
0.321024
 31
0.0
  0
LINE
  5
4AB
100
AcDbEntity
  8
TRMODEL1
  6
CONTINUOUS
 62
     7
100
AcDbLine
 10
0.536086
 20
0.321024
 30
0.0
 11
0.533233
 21
0.308855
 31
0.0
  0
LINE
  5
4AC
100
AcDbEntity
  8
TRMODEL1
  6
CONTINUOUS
 62
     7
100
AcDbLine
 10
0.533233
 20
0.308855
 30
0.0
 11
0.530492
 21
0.296776
 31
0.0
  0
LINE
  5
4AD
100
AcDbEntity
  8
TRMODEL1
  6
CONTINUOUS
 62
     7
100
AcDbLine
 10
0.530492
 20
0.296776
 30
0.0
 11
0.527864
 21
0.284782
 31
0.0
  0
LINE
  5
4AE
100
AcDbEntity
  8
TRMODEL1
  6
CONTINUOUS
 62
     7
100
AcDbLine
 10
0.527864
 20
0.284782
 30
0.0
 11
0.525346
 21
0.272869
 31
0.0
  0
LINE
  5
4AF
100
AcDbEntity
  8
TRMODEL1
  6
CONTINUOUS
 62
     7
100
AcDbLine
 10
0.525346
 20
0.272869
 30
0.0
 11
0.522937
 21
0.261032
 31
0.0
  0
LINE
  5
4B0
100
AcDbEntity
  8
TRMODEL1
  6
CONTINUOUS
 62
     7
100
AcDbLine
 10
0.522937
 20
0.261032
 30
0.0
 11
0.520636
 21
0.249267
 31
0.0
  0
LINE
  5
4B1
100
AcDbEntity
  8
TRMODEL1
  6
CONTINUOUS
 62
     7
100
AcDbLine
 10
0.520636
 20
0.249267
 30
0.0
 11
0.518442
 21
0.237569
 31
0.0
  0
LINE
  5
4B2
100
AcDbEntity
  8
TRMODEL1
  6
CONTINUOUS
 62
     7
100
AcDbLine
 10
0.518442
 20
0.237569
 30
0.0
 11
0.516354
 21
0.225934
 31
0.0
  0
LINE
  5
4B3
100
AcDbEntity
  8
TRMODEL1
  6
CONTINUOUS
 62
     7
100
AcDbLine
 10
0.516354
 20
0.225934
 30
0.0
 11
0.514371
 21
0.214357
 31
0.0
  0
LINE
  5
4B4
100
AcDbEntity
  8
TRMODEL1
  6
CONTINUOUS
 62
     7
100
AcDbLine
 10
0.514371
 20
0.214357
 30
0.0
 11
0.512492
 21
0.202834
 31
0.0
  0
LINE
  5
4B5
100
AcDbEntity
  8
TRMODEL1
  6
CONTINUOUS
 62
     7
100
AcDbLine
 10
0.512492
 20
0.202834
 30
0.0
 11
0.510718
 21
0.191362
 31
0.0
  0
LINE
  5
4B6
100
AcDbEntity
  8
TRMODEL1
  6
CONTINUOUS
 62
     7
100
AcDbLine
 10
0.510718
 20
0.191362
 30
0.0
 11
0.509046
 21
0.179936
 31
0.0
  0
LINE
  5
4B7
100
AcDbEntity
  8
TRMODEL1
  6
CONTINUOUS
 62
     7
100
AcDbLine
 10
0.509046
 20
0.179936
 30
0.0
 11
0.507476
 21
0.168551
 31
0.0
  0
LINE
  5
4B8
100
AcDbEntity
  8
TRMODEL1
  6
CONTINUOUS
 62
     7
100
AcDbLine
 10
0.507476
 20
0.168551
 30
0.0
 11
0.506009
 21
0.157204
 31
0.0
  0
LINE
  5
4B9
100
AcDbEntity
  8
TRMODEL1
  6
CONTINUOUS
 62
     7
100
AcDbLine
 10
0.506009
 20
0.157204
 30
0.0
 11
0.504643
 21
0.14589
 31
0.0
  0
LINE
  5
4BA
100
AcDbEntity
  8
TRMODEL1
  6
CONTINUOUS
 62
     7
100
AcDbLine
 10
0.504643
 20
0.14589
 30
0.0
 11
0.503378
 21
0.134606
 31
0.0
  0
LINE
  5
4BB
100
AcDbEntity
  8
TRMODEL1
  6
CONTINUOUS
 62
     7
100
AcDbLine
 10
0.503378
 20
0.134606
 30
0.0
 11
0.502214
 21
0.123347
 31
0.0
  0
LINE
  5
4BC
100
AcDbEntity
  8
TRMODEL1
  6
CONTINUOUS
 62
     7
100
AcDbLine
 10
0.502214
 20
0.123347
 30
0.0
 11
0.501151
 21
0.112109
 31
0.0
  0
LINE
  5
4BD
100
AcDbEntity
  8
TRMODEL1
  6
CONTINUOUS
 62
     7
100
AcDbLine
 10
0.501151
 20
0.112109
 30
0.0
 11
0.500188
 21
0.100888
 31
0.0
  0
LINE
  5
4BE
100
AcDbEntity
  8
TRMODEL1
  6
CONTINUOUS
 62
     7
100
AcDbLine
 10
0.500188
 20
0.100888
 30
0.0
 11
0.499326
 21
0.089681
 31
0.0
  0
LINE
  5
4BF
100
AcDbEntity
  8
TRMODEL1
  6
CONTINUOUS
 62
     7
100
AcDbLine
 10
0.499326
 20
0.089681
 30
0.0
 11
0.498564
 21
0.078482
 31
0.0
  0
LINE
  5
4C0
100
AcDbEntity
  8
TRMODEL1
  6
CONTINUOUS
 62
     7
100
AcDbLine
 10
0.498564
 20
0.078482
 30
0.0
 11
0.497903
 21
0.067289
 31
0.0
  0
LINE
  5
4C1
100
AcDbEntity
  8
TRMODEL1
  6
CONTINUOUS
 62
     7
100
AcDbLine
 10
0.497903
 20
0.067289
 30
0.0
 11
0.497343
 21
0.056096
 31
0.0
  0
LINE
  5
4C2
100
AcDbEntity
  8
TRMODEL1
  6
CONTINUOUS
 62
     7
100
AcDbLine
 10
0.497343
 20
0.056096
 30
0.0
 11
0.496883
 21
0.0449
 31
0.0
  0
LINE
  5
4C3
100
AcDbEntity
  8
TRMODEL1
  6
CONTINUOUS
 62
     7
100
AcDbLine
 10
0.496883
 20
0.0449
 30
0.0
 11
0.496525
 21
0.033697
 31
0.0
  0
LINE
  5
4C4
100
AcDbEntity
  8
TRMODEL1
  6
CONTINUOUS
 62
     7
100
AcDbLine
 10
0.496525
 20
0.033697
 30
0.0
 11
0.496269
 21
0.022482
 31
0.0
  0
LINE
  5
4C5
100
AcDbEntity
  8
TRMODEL1
  6
CONTINUOUS
 62
     7
100
AcDbLine
 10
0.496269
 20
0.022482
 30
0.0
 11
0.496115
 21
0.011251
 31
0.0
  0
LINE
  5
4C6
100
AcDbEntity
  8
TRMODEL1
  6
CONTINUOUS
 62
     7
100
AcDbLine
 10
0.496115
 20
0.011251
 30
0.0
 11
0.496063
 21
0.0
 31
0.0
  0
LINE
  5
4C7
100
AcDbEntity
  8
TRMODEL1
  6
CONTINUOUS
 62
     7
100
AcDbLine
 10
0.496063
 20
0.613719
 30
0.0
 11
0.496115
 21
0.608093
 31
0.0
  0
LINE
  5
4C8
100
AcDbEntity
  8
TRMODEL1
  6
CONTINUOUS
 62
     7
100
AcDbLine
 10
0.496115
 20
0.608093
 30
0.0
 11
0.496269
 21
0.602478
 31
0.0
  0
LINE
  5
4C9
100
AcDbEntity
  8
TRMODEL1
  6
CONTINUOUS
 62
     7
100
AcDbLine
 10
0.496269
 20
0.602478
 30
0.0
 11
0.496525
 21
0.59687
 31
0.0
  0
LINE
  5
4CA
100
AcDbEntity
  8
TRMODEL1
  6
CONTINUOUS
 62
     7
100
AcDbLine
 10
0.496525
 20
0.59687
 30
0.0
 11
0.496883
 21
0.591269
 31
0.0
  0
LINE
  5
4CB
100
AcDbEntity
  8
TRMODEL1
  6
CONTINUOUS
 62
     7
100
AcDbLine
 10
0.496883
 20
0.591269
 30
0.0
 11
0.497343
 21
0.585671
 31
0.0
  0
LINE
  5
4CC
100
AcDbEntity
  8
TRMODEL1
  6
CONTINUOUS
 62
     7
100
AcDbLine
 10
0.497343
 20
0.585671
 30
0.0
 11
0.497903
 21
0.580074
 31
0.0
  0
LINE
  5
4CD
100
AcDbEntity
  8
TRMODEL1
  6
CONTINUOUS
 62
     7
100
AcDbLine
 10
0.497903
 20
0.580074
 30
0.0
 11
0.498564
 21
0.574478
 31
0.0
  0
LINE
  5
4CE
100
AcDbEntity
  8
TRMODEL1
  6
CONTINUOUS
 62
     7
100
AcDbLine
 10
0.498564
 20
0.574478
 30
0.0
 11
0.499326
 21
0.568878
 31
0.0
  0
LINE
  5
4CF
100
AcDbEntity
  8
TRMODEL1
  6
CONTINUOUS
 62
     7
100
AcDbLine
 10
0.499326
 20
0.568878
 30
0.0
 11
0.500188
 21
0.563275
 31
0.0
  0
LINE
  5
4D0
100
AcDbEntity
  8
TRMODEL1
  6
CONTINUOUS
 62
     7
100
AcDbLine
 10
0.500188
 20
0.563275
 30
0.0
 11
0.501151
 21
0.557664
 31
0.0
  0
LINE
  5
4D1
100
AcDbEntity
  8
TRMODEL1
  6
CONTINUOUS
 62
     7
100
AcDbLine
 10
0.501151
 20
0.557664
 30
0.0
 11
0.502214
 21
0.552046
 31
0.0
  0
LINE
  5
4D2
100
AcDbEntity
  8
TRMODEL1
  6
CONTINUOUS
 62
     7
100
AcDbLine
 10
0.502214
 20
0.552046
 30
0.0
 11
0.503378
 21
0.546416
 31
0.0
  0
LINE
  5
4D3
100
AcDbEntity
  8
TRMODEL1
  6
CONTINUOUS
 62
     7
100
AcDbLine
 10
0.503378
 20
0.546416
 30
0.0
 11
0.504643
 21
0.540774
 31
0.0
  0
LINE
  5
4D4
100
AcDbEntity
  8
TRMODEL1
  6
CONTINUOUS
 62
     7
100
AcDbLine
 10
0.504643
 20
0.540774
 30
0.0
 11
0.506009
 21
0.535117
 31
0.0
  0
LINE
  5
4D5
100
AcDbEntity
  8
TRMODEL1
  6
CONTINUOUS
 62
     7
100
AcDbLine
 10
0.506009
 20
0.535117
 30
0.0
 11
0.507476
 21
0.529443
 31
0.0
  0
LINE
  5
4D6
100
AcDbEntity
  8
TRMODEL1
  6
CONTINUOUS
 62
     7
100
AcDbLine
 10
0.507476
 20
0.529443
 30
0.0
 11
0.509046
 21
0.523751
 31
0.0
  0
LINE
  5
4D7
100
AcDbEntity
  8
TRMODEL1
  6
CONTINUOUS
 62
     7
100
AcDbLine
 10
0.509046
 20
0.523751
 30
0.0
 11
0.510718
 21
0.518038
 31
0.0
  0
LINE
  5
4D8
100
AcDbEntity
  8
TRMODEL1
  6
CONTINUOUS
 62
     7
100
AcDbLine
 10
0.510718
 20
0.518038
 30
0.0
 11
0.512492
 21
0.512302
 31
0.0
  0
LINE
  5
4D9
100
AcDbEntity
  8
TRMODEL1
  6
CONTINUOUS
 62
     7
100
AcDbLine
 10
0.512492
 20
0.512302
 30
0.0
 11
0.514371
 21
0.50654
 31
0.0
  0
LINE
  5
4DA
100
AcDbEntity
  8
TRMODEL1
  6
CONTINUOUS
 62
     7
100
AcDbLine
 10
0.514371
 20
0.50654
 30
0.0
 11
0.516354
 21
0.500752
 31
0.0
  0
LINE
  5
4DB
100
AcDbEntity
  8
TRMODEL1
  6
CONTINUOUS
 62
     7
100
AcDbLine
 10
0.516354
 20
0.500752
 30
0.0
 11
0.518442
 21
0.494934
 31
0.0
  0
LINE
  5
4DC
100
AcDbEntity
  8
TRMODEL1
  6
CONTINUOUS
 62
     7
100
AcDbLine
 10
0.518442
 20
0.494934
 30
0.0
 11
0.520636
 21
0.489085
 31
0.0
  0
LINE
  5
4DD
100
AcDbEntity
  8
TRMODEL1
  6
CONTINUOUS
 62
     7
100
AcDbLine
 10
0.520636
 20
0.489085
 30
0.0
 11
0.522937
 21
0.483203
 31
0.0
  0
LINE
  5
4DE
100
AcDbEntity
  8
TRMODEL1
  6
CONTINUOUS
 62
     7
100
AcDbLine
 10
0.522937
 20
0.483203
 30
0.0
 11
0.525346
 21
0.477284
 31
0.0
  0
LINE
  5
4DF
100
AcDbEntity
  8
TRMODEL1
  6
CONTINUOUS
 62
     7
100
AcDbLine
 10
0.525346
 20
0.477284
 30
0.0
 11
0.527864
 21
0.471328
 31
0.0
  0
LINE
  5
4E0
100
AcDbEntity
  8
TRMODEL1
  6
CONTINUOUS
 62
     7
100
AcDbLine
 10
0.527864
 20
0.471328
 30
0.0
 11
0.530492
 21
0.465331
 31
0.0
  0
LINE
  5
4E1
100
AcDbEntity
  8
TRMODEL1
  6
CONTINUOUS
 62
     7
100
AcDbLine
 10
0.530492
 20
0.465331
 30
0.0
 11
0.533233
 21
0.459291
 31
0.0
  0
LINE
  5
4E2
100
AcDbEntity
  8
TRMODEL1
  6
CONTINUOUS
 62
     7
100
AcDbLine
 10
0.533233
 20
0.459291
 30
0.0
 11
0.536086
 21
0.453207
 31
0.0
  0
LINE
  5
4E3
100
AcDbEntity
  8
TRMODEL1
  6
CONTINUOUS
 62
     7
100
AcDbLine
 10
0.536086
 20
0.453207
 30
0.0
 11
0.539053
 21
0.447075
 31
0.0
  0
LINE
  5
4E4
100
AcDbEntity
  8
TRMODEL1
  6
CONTINUOUS
 62
     7
100
AcDbLine
 10
0.539053
 20
0.447075
 30
0.0
 11
0.542137
 21
0.440893
 31
0.0
  0
LINE
  5
4E5
100
AcDbEntity
  8
TRMODEL1
  6
CONTINUOUS
 62
     7
100
AcDbLine
 10
0.542137
 20
0.440893
 30
0.0
 11
0.545339
 21
0.434659
 31
0.0
  0
LINE
  5
4E6
100
AcDbEntity
  8
TRMODEL1
  6
CONTINUOUS
 62
     7
100
AcDbLine
 10
0.545339
 20
0.434659
 30
0.0
 11
0.54866
 21
0.42837
 31
0.0
  0
LINE
  5
4E7
100
AcDbEntity
  8
TRMODEL1
  6
CONTINUOUS
 62
     7
100
AcDbLine
 10
0.54866
 20
0.42837
 30
0.0
 11
0.552102
 21
0.422023
 31
0.0
  0
LINE
  5
4E8
100
AcDbEntity
  8
TRMODEL1
  6
CONTINUOUS
 62
     7
100
AcDbLine
 10
0.552102
 20
0.422023
 30
0.0
 11
0.555667
 21
0.415616
 31
0.0
  0
LINE
  5
4E9
100
AcDbEntity
  8
TRMODEL1
  6
CONTINUOUS
 62
     7
100
AcDbLine
 10
0.555667
 20
0.415616
 30
0.0
 11
0.559358
 21
0.409146
 31
0.0
  0
LINE
  5
4EA
100
AcDbEntity
  8
TRMODEL1
  6
CONTINUOUS
 62
     7
100
AcDbLine
 10
0.496063
 20
0.0
 30
0.0
 11
0.496063
 21
0.613719
 31
0.0
  0
LINE
  5
4EB
100
AcDbEntity
  8
TRMODEL1
  6
CONTINUOUS
 62
     7
100
AcDbLine
 10
0.559358
 20
-0.409146
 30
0.0
 11
0.629618
 21
-0.409146
 31
0.0
  0
LINE
  5
4EC
100
AcDbEntity
  8
TRMODEL1
  6
CONTINUOUS
 62
     7
100
AcDbLine
 10
0.629618
 20
-0.409146
 30
0.0
 11
0.633309
 21
-0.396206
 31
0.0
  0
LINE
  5
4ED
100
AcDbEntity
  8
TRMODEL1
  6
CONTINUOUS
 62
     7
100
AcDbLine
 10
0.633309
 20
-0.396206
 30
0.0
 11
0.636875
 21
-0.383392
 31
0.0
  0
LINE
  5
4EE
100
AcDbEntity
  8
TRMODEL1
  6
CONTINUOUS
 62
     7
100
AcDbLine
 10
0.636875
 20
-0.383392
 30
0.0
 11
0.640317
 21
-0.370699
 31
0.0
  0
LINE
  5
4EF
100
AcDbEntity
  8
TRMODEL1
  6
CONTINUOUS
 62
     7
100
AcDbLine
 10
0.640317
 20
-0.370699
 30
0.0
 11
0.643638
 21
-0.35812
 31
0.0
  0
LINE
  5
4F0
100
AcDbEntity
  8
TRMODEL1
  6
CONTINUOUS
 62
     7
100
AcDbLine
 10
0.643638
 20
-0.35812
 30
0.0
 11
0.646839
 21
-0.345652
 31
0.0
  0
LINE
  5
4F1
100
AcDbEntity
  8
TRMODEL1
  6
CONTINUOUS
 62
     7
100
AcDbLine
 10
0.646839
 20
-0.345652
 30
0.0
 11
0.649923
 21
-0.333288
 31
0.0
  0
LINE
  5
4F2
100
AcDbEntity
  8
TRMODEL1
  6
CONTINUOUS
 62
     7
100
AcDbLine
 10
0.649923
 20
-0.333288
 30
0.0
 11
0.652891
 21
-0.321024
 31
0.0
  0
LINE
  5
4F3
100
AcDbEntity
  8
TRMODEL1
  6
CONTINUOUS
 62
     7
100
AcDbLine
 10
0.652891
 20
-0.321024
 30
0.0
 11
0.655744
 21
-0.308855
 31
0.0
  0
LINE
  5
4F4
100
AcDbEntity
  8
TRMODEL1
  6
CONTINUOUS
 62
     7
100
AcDbLine
 10
0.655744
 20
-0.308855
 30
0.0
 11
0.658484
 21
-0.296776
 31
0.0
  0
LINE
  5
4F5
100
AcDbEntity
  8
TRMODEL1
  6
CONTINUOUS
 62
     7
100
AcDbLine
 10
0.658484
 20
-0.296776
 30
0.0
 11
0.661113
 21
-0.284782
 31
0.0
  0
LINE
  5
4F6
100
AcDbEntity
  8
TRMODEL1
  6
CONTINUOUS
 62
     7
100
AcDbLine
 10
0.661113
 20
-0.284782
 30
0.0
 11
0.663631
 21
-0.272869
 31
0.0
  0
LINE
  5
4F7
100
AcDbEntity
  8
TRMODEL1
  6
CONTINUOUS
 62
     7
100
AcDbLine
 10
0.663631
 20
-0.272869
 30
0.0
 11
0.66604
 21
-0.261032
 31
0.0
  0
LINE
  5
4F8
100
AcDbEntity
  8
TRMODEL1
  6
CONTINUOUS
 62
     7
100
AcDbLine
 10
0.66604
 20
-0.261032
 30
0.0
 11
0.668341
 21
-0.249267
 31
0.0
  0
LINE
  5
4F9
100
AcDbEntity
  8
TRMODEL1
  6
CONTINUOUS
 62
     7
100
AcDbLine
 10
0.668341
 20
-0.249267
 30
0.0
 11
0.670535
 21
-0.237569
 31
0.0
  0
LINE
  5
4FA
100
AcDbEntity
  8
TRMODEL1
  6
CONTINUOUS
 62
     7
100
AcDbLine
 10
0.670535
 20
-0.237569
 30
0.0
 11
0.672623
 21
-0.225934
 31
0.0
  0
LINE
  5
4FB
100
AcDbEntity
  8
TRMODEL1
  6
CONTINUOUS
 62
     7
100
AcDbLine
 10
0.672623
 20
-0.225934
 30
0.0
 11
0.674606
 21
-0.214357
 31
0.0
  0
LINE
  5
4FC
100
AcDbEntity
  8
TRMODEL1
  6
CONTINUOUS
 62
     7
100
AcDbLine
 10
0.674606
 20
-0.214357
 30
0.0
 11
0.676484
 21
-0.202834
 31
0.0
  0
LINE
  5
4FD
100
AcDbEntity
  8
TRMODEL1
  6
CONTINUOUS
 62
     7
100
AcDbLine
 10
0.676484
 20
-0.202834
 30
0.0
 11
0.678259
 21
-0.191362
 31
0.0
  0
LINE
  5
4FE
100
AcDbEntity
  8
TRMODEL1
  6
CONTINUOUS
 62
     7
100
AcDbLine
 10
0.678259
 20
-0.191362
 30
0.0
 11
0.679931
 21
-0.179936
 31
0.0
  0
LINE
  5
4FF
100
AcDbEntity
  8
TRMODEL1
  6
CONTINUOUS
 62
     7
100
AcDbLine
 10
0.679931
 20
-0.179936
 30
0.0
 11
0.6815
 21
-0.168551
 31
0.0
  0
LINE
  5
500
100
AcDbEntity
  8
TRMODEL1
  6
CONTINUOUS
 62
     7
100
AcDbLine
 10
0.6815
 20
-0.168551
 30
0.0
 11
0.682967
 21
-0.157204
 31
0.0
  0
LINE
  5
501
100
AcDbEntity
  8
TRMODEL1
  6
CONTINUOUS
 62
     7
100
AcDbLine
 10
0.682967
 20
-0.157204
 30
0.0
 11
0.684333
 21
-0.14589
 31
0.0
  0
LINE
  5
502
100
AcDbEntity
  8
TRMODEL1
  6
CONTINUOUS
 62
     7
100
AcDbLine
 10
0.684333
 20
-0.14589
 30
0.0
 11
0.685598
 21
-0.134606
 31
0.0
  0
LINE
  5
503
100
AcDbEntity
  8
TRMODEL1
  6
CONTINUOUS
 62
     7
100
AcDbLine
 10
0.685598
 20
-0.134606
 30
0.0
 11
0.686762
 21
-0.123347
 31
0.0
  0
LINE
  5
504
100
AcDbEntity
  8
TRMODEL1
  6
CONTINUOUS
 62
     7
100
AcDbLine
 10
0.686762
 20
-0.123347
 30
0.0
 11
0.687825
 21
-0.112109
 31
0.0
  0
LINE
  5
505
100
AcDbEntity
  8
TRMODEL1
  6
CONTINUOUS
 62
     7
100
AcDbLine
 10
0.687825
 20
-0.112109
 30
0.0
 11
0.688788
 21
-0.100888
 31
0.0
  0
LINE
  5
506
100
AcDbEntity
  8
TRMODEL1
  6
CONTINUOUS
 62
     7
100
AcDbLine
 10
0.688788
 20
-0.100888
 30
0.0
 11
0.68965
 21
-0.089681
 31
0.0
  0
LINE
  5
507
100
AcDbEntity
  8
TRMODEL1
  6
CONTINUOUS
 62
     7
100
AcDbLine
 10
0.68965
 20
-0.089681
 30
0.0
 11
0.690412
 21
-0.078482
 31
0.0
  0
LINE
  5
508
100
AcDbEntity
  8
TRMODEL1
  6
CONTINUOUS
 62
     7
100
AcDbLine
 10
0.690412
 20
-0.078482
 30
0.0
 11
0.691073
 21
-0.067289
 31
0.0
  0
LINE
  5
509
100
AcDbEntity
  8
TRMODEL1
  6
CONTINUOUS
 62
     7
100
AcDbLine
 10
0.691073
 20
-0.067289
 30
0.0
 11
0.691634
 21
-0.056096
 31
0.0
  0
LINE
  5
50A
100
AcDbEntity
  8
TRMODEL1
  6
CONTINUOUS
 62
     7
100
AcDbLine
 10
0.691634
 20
-0.056096
 30
0.0
 11
0.692093
 21
-0.0449
 31
0.0
  0
LINE
  5
50B
100
AcDbEntity
  8
TRMODEL1
  6
CONTINUOUS
 62
     7
100
AcDbLine
 10
0.692093
 20
-0.0449
 30
0.0
 11
0.692451
 21
-0.033697
 31
0.0
  0
LINE
  5
50C
100
AcDbEntity
  8
TRMODEL1
  6
CONTINUOUS
 62
     7
100
AcDbLine
 10
0.692451
 20
-0.033697
 30
0.0
 11
0.692708
 21
-0.022482
 31
0.0
  0
LINE
  5
50D
100
AcDbEntity
  8
TRMODEL1
  6
CONTINUOUS
 62
     7
100
AcDbLine
 10
0.692708
 20
-0.022482
 30
0.0
 11
0.692862
 21
-0.011251
 31
0.0
  0
LINE
  5
50E
100
AcDbEntity
  8
TRMODEL1
  6
CONTINUOUS
 62
     7
100
AcDbLine
 10
0.692862
 20
-0.011251
 30
0.0
 11
0.692913
 21
0.0
 31
0.0
  0
LINE
  5
50F
100
AcDbEntity
  8
TRMODEL1
  6
CONTINUOUS
 62
     7
100
AcDbLine
 10
0.692913
 20
0.0
 30
0.0
 11
0.692862
 21
0.011251
 31
0.0
  0
LINE
  5
510
100
AcDbEntity
  8
TRMODEL1
  6
CONTINUOUS
 62
     7
100
AcDbLine
 10
0.692862
 20
0.011251
 30
0.0
 11
0.692708
 21
0.022482
 31
0.0
  0
LINE
  5
511
100
AcDbEntity
  8
TRMODEL1
  6
CONTINUOUS
 62
     7
100
AcDbLine
 10
0.692708
 20
0.022482
 30
0.0
 11
0.692451
 21
0.033697
 31
0.0
  0
LINE
  5
512
100
AcDbEntity
  8
TRMODEL1
  6
CONTINUOUS
 62
     7
100
AcDbLine
 10
0.692451
 20
0.033697
 30
0.0
 11
0.692093
 21
0.0449
 31
0.0
  0
LINE
  5
513
100
AcDbEntity
  8
TRMODEL1
  6
CONTINUOUS
 62
     7
100
AcDbLine
 10
0.692093
 20
0.0449
 30
0.0
 11
0.691634
 21
0.056096
 31
0.0
  0
LINE
  5
514
100
AcDbEntity
  8
TRMODEL1
  6
CONTINUOUS
 62
     7
100
AcDbLine
 10
0.691634
 20
0.056096
 30
0.0
 11
0.691073
 21
0.067289
 31
0.0
  0
LINE
  5
515
100
AcDbEntity
  8
TRMODEL1
  6
CONTINUOUS
 62
     7
100
AcDbLine
 10
0.691073
 20
0.067289
 30
0.0
 11
0.690412
 21
0.078482
 31
0.0
  0
LINE
  5
516
100
AcDbEntity
  8
TRMODEL1
  6
CONTINUOUS
 62
     7
100
AcDbLine
 10
0.690412
 20
0.078482
 30
0.0
 11
0.68965
 21
0.089681
 31
0.0
  0
LINE
  5
517
100
AcDbEntity
  8
TRMODEL1
  6
CONTINUOUS
 62
     7
100
AcDbLine
 10
0.68965
 20
0.089681
 30
0.0
 11
0.688788
 21
0.100888
 31
0.0
  0
LINE
  5
518
100
AcDbEntity
  8
TRMODEL1
  6
CONTINUOUS
 62
     7
100
AcDbLine
 10
0.688788
 20
0.100888
 30
0.0
 11
0.687825
 21
0.112109
 31
0.0
  0
LINE
  5
519
100
AcDbEntity
  8
TRMODEL1
  6
CONTINUOUS
 62
     7
100
AcDbLine
 10
0.687825
 20
0.112109
 30
0.0
 11
0.686762
 21
0.123347
 31
0.0
  0
LINE
  5
51A
100
AcDbEntity
  8
TRMODEL1
  6
CONTINUOUS
 62
     7
100
AcDbLine
 10
0.686762
 20
0.123347
 30
0.0
 11
0.685598
 21
0.134606
 31
0.0
  0
LINE
  5
51B
100
AcDbEntity
  8
TRMODEL1
  6
CONTINUOUS
 62
     7
100
AcDbLine
 10
0.685598
 20
0.134606
 30
0.0
 11
0.684333
 21
0.14589
 31
0.0
  0
LINE
  5
51C
100
AcDbEntity
  8
TRMODEL1
  6
CONTINUOUS
 62
     7
100
AcDbLine
 10
0.684333
 20
0.14589
 30
0.0
 11
0.682967
 21
0.157204
 31
0.0
  0
LINE
  5
51D
100
AcDbEntity
  8
TRMODEL1
  6
CONTINUOUS
 62
     7
100
AcDbLine
 10
0.682967
 20
0.157204
 30
0.0
 11
0.6815
 21
0.168551
 31
0.0
  0
LINE
  5
51E
100
AcDbEntity
  8
TRMODEL1
  6
CONTINUOUS
 62
     7
100
AcDbLine
 10
0.6815
 20
0.168551
 30
0.0
 11
0.679931
 21
0.179936
 31
0.0
  0
LINE
  5
51F
100
AcDbEntity
  8
TRMODEL1
  6
CONTINUOUS
 62
     7
100
AcDbLine
 10
0.679931
 20
0.179936
 30
0.0
 11
0.678259
 21
0.191362
 31
0.0
  0
LINE
  5
520
100
AcDbEntity
  8
TRMODEL1
  6
CONTINUOUS
 62
     7
100
AcDbLine
 10
0.678259
 20
0.191362
 30
0.0
 11
0.676484
 21
0.202834
 31
0.0
  0
LINE
  5
521
100
AcDbEntity
  8
TRMODEL1
  6
CONTINUOUS
 62
     7
100
AcDbLine
 10
0.676484
 20
0.202834
 30
0.0
 11
0.674606
 21
0.214357
 31
0.0
  0
LINE
  5
522
100
AcDbEntity
  8
TRMODEL1
  6
CONTINUOUS
 62
     7
100
AcDbLine
 10
0.674606
 20
0.214357
 30
0.0
 11
0.672623
 21
0.225934
 31
0.0
  0
LINE
  5
523
100
AcDbEntity
  8
TRMODEL1
  6
CONTINUOUS
 62
     7
100
AcDbLine
 10
0.672623
 20
0.225934
 30
0.0
 11
0.670535
 21
0.237569
 31
0.0
  0
LINE
  5
524
100
AcDbEntity
  8
TRMODEL1
  6
CONTINUOUS
 62
     7
100
AcDbLine
 10
0.670535
 20
0.237569
 30
0.0
 11
0.668341
 21
0.249267
 31
0.0
  0
LINE
  5
525
100
AcDbEntity
  8
TRMODEL1
  6
CONTINUOUS
 62
     7
100
AcDbLine
 10
0.668341
 20
0.249267
 30
0.0
 11
0.66604
 21
0.261032
 31
0.0
  0
LINE
  5
526
100
AcDbEntity
  8
TRMODEL1
  6
CONTINUOUS
 62
     7
100
AcDbLine
 10
0.66604
 20
0.261032
 30
0.0
 11
0.663631
 21
0.272869
 31
0.0
  0
LINE
  5
527
100
AcDbEntity
  8
TRMODEL1
  6
CONTINUOUS
 62
     7
100
AcDbLine
 10
0.663631
 20
0.272869
 30
0.0
 11
0.661113
 21
0.284782
 31
0.0
  0
LINE
  5
528
100
AcDbEntity
  8
TRMODEL1
  6
CONTINUOUS
 62
     7
100
AcDbLine
 10
0.661113
 20
0.284782
 30
0.0
 11
0.658484
 21
0.296776
 31
0.0
  0
LINE
  5
529
100
AcDbEntity
  8
TRMODEL1
  6
CONTINUOUS
 62
     7
100
AcDbLine
 10
0.658484
 20
0.296776
 30
0.0
 11
0.655744
 21
0.308855
 31
0.0
  0
LINE
  5
52A
100
AcDbEntity
  8
TRMODEL1
  6
CONTINUOUS
 62
     7
100
AcDbLine
 10
0.655744
 20
0.308855
 30
0.0
 11
0.652891
 21
0.321024
 31
0.0
  0
LINE
  5
52B
100
AcDbEntity
  8
TRMODEL1
  6
CONTINUOUS
 62
     7
100
AcDbLine
 10
0.652891
 20
0.321024
 30
0.0
 11
0.649923
 21
0.333288
 31
0.0
  0
LINE
  5
52C
100
AcDbEntity
  8
TRMODEL1
  6
CONTINUOUS
 62
     7
100
AcDbLine
 10
0.649923
 20
0.333288
 30
0.0
 11
0.646839
 21
0.345652
 31
0.0
  0
LINE
  5
52D
100
AcDbEntity
  8
TRMODEL1
  6
CONTINUOUS
 62
     7
100
AcDbLine
 10
0.646839
 20
0.345652
 30
0.0
 11
0.643638
 21
0.35812
 31
0.0
  0
LINE
  5
52E
100
AcDbEntity
  8
TRMODEL1
  6
CONTINUOUS
 62
     7
100
AcDbLine
 10
0.643638
 20
0.35812
 30
0.0
 11
0.640317
 21
0.370699
 31
0.0
  0
LINE
  5
52F
100
AcDbEntity
  8
TRMODEL1
  6
CONTINUOUS
 62
     7
100
AcDbLine
 10
0.640317
 20
0.370699
 30
0.0
 11
0.636875
 21
0.383392
 31
0.0
  0
LINE
  5
530
100
AcDbEntity
  8
TRMODEL1
  6
CONTINUOUS
 62
     7
100
AcDbLine
 10
0.636875
 20
0.383392
 30
0.0
 11
0.633309
 21
0.396206
 31
0.0
  0
LINE
  5
531
100
AcDbEntity
  8
TRMODEL1
  6
CONTINUOUS
 62
     7
100
AcDbLine
 10
0.633309
 20
0.396206
 30
0.0
 11
0.629618
 21
0.409146
 31
0.0
  0
LINE
  5
532
100
AcDbEntity
  8
TRMODEL1
  6
CONTINUOUS
 62
     7
100
AcDbLine
 10
0.559358
 20
0.409146
 30
0.0
 11
0.629618
 21
0.409146
 31
0.0
  0
LINE
  5
533
100
AcDbEntity
  8
TRMODEL1
  6
CONTINUOUS
 62
     7
100
AcDbLine
 10
0.559358
 20
-0.818292
 30
0.0
 11
0.629618
 21
-0.818292
 31
0.0
  0
LINE
  5
534
100
AcDbEntity
  8
TRMODEL1
  6
CONTINUOUS
 62
     7
100
AcDbLine
 10
0.629618
 20
-0.818292
 30
0.0
 11
0.633309
 21
-0.811822
 31
0.0
  0
LINE
  5
535
100
AcDbEntity
  8
TRMODEL1
  6
CONTINUOUS
 62
     7
100
AcDbLine
 10
0.633309
 20
-0.811822
 30
0.0
 11
0.636875
 21
-0.805415
 31
0.0
  0
LINE
  5
536
100
AcDbEntity
  8
TRMODEL1
  6
CONTINUOUS
 62
     7
100
AcDbLine
 10
0.636875
 20
-0.805415
 30
0.0
 11
0.640317
 21
-0.799068
 31
0.0
  0
LINE
  5
537
100
AcDbEntity
  8
TRMODEL1
  6
CONTINUOUS
 62
     7
100
AcDbLine
 10
0.640317
 20
-0.799068
 30
0.0
 11
0.643638
 21
-0.792779
 31
0.0
  0
LINE
  5
538
100
AcDbEntity
  8
TRMODEL1
  6
CONTINUOUS
 62
     7
100
AcDbLine
 10
0.643638
 20
-0.792779
 30
0.0
 11
0.646839
 21
-0.786545
 31
0.0
  0
LINE
  5
539
100
AcDbEntity
  8
TRMODEL1
  6
CONTINUOUS
 62
     7
100
AcDbLine
 10
0.646839
 20
-0.786545
 30
0.0
 11
0.649923
 21
-0.780363
 31
0.0
  0
LINE
  5
53A
100
AcDbEntity
  8
TRMODEL1
  6
CONTINUOUS
 62
     7
100
AcDbLine
 10
0.649923
 20
-0.780363
 30
0.0
 11
0.652891
 21
-0.774231
 31
0.0
  0
LINE
  5
53B
100
AcDbEntity
  8
TRMODEL1
  6
CONTINUOUS
 62
     7
100
AcDbLine
 10
0.652891
 20
-0.774231
 30
0.0
 11
0.655744
 21
-0.768146
 31
0.0
  0
LINE
  5
53C
100
AcDbEntity
  8
TRMODEL1
  6
CONTINUOUS
 62
     7
100
AcDbLine
 10
0.655744
 20
-0.768146
 30
0.0
 11
0.658484
 21
-0.762107
 31
0.0
  0
LINE
  5
53D
100
AcDbEntity
  8
TRMODEL1
  6
CONTINUOUS
 62
     7
100
AcDbLine
 10
0.658484
 20
-0.762107
 30
0.0
 11
0.661113
 21
-0.75611
 31
0.0
  0
LINE
  5
53E
100
AcDbEntity
  8
TRMODEL1
  6
CONTINUOUS
 62
     7
100
AcDbLine
 10
0.661113
 20
-0.75611
 30
0.0
 11
0.663631
 21
-0.750153
 31
0.0
  0
LINE
  5
53F
100
AcDbEntity
  8
TRMODEL1
  6
CONTINUOUS
 62
     7
100
AcDbLine
 10
0.663631
 20
-0.750153
 30
0.0
 11
0.66604
 21
-0.744235
 31
0.0
  0
LINE
  5
540
100
AcDbEntity
  8
TRMODEL1
  6
CONTINUOUS
 62
     7
100
AcDbLine
 10
0.66604
 20
-0.744235
 30
0.0
 11
0.668341
 21
-0.738352
 31
0.0
  0
LINE
  5
541
100
AcDbEntity
  8
TRMODEL1
  6
CONTINUOUS
 62
     7
100
AcDbLine
 10
0.668341
 20
-0.738352
 30
0.0
 11
0.670535
 21
-0.732503
 31
0.0
  0
LINE
  5
542
100
AcDbEntity
  8
TRMODEL1
  6
CONTINUOUS
 62
     7
100
AcDbLine
 10
0.670535
 20
-0.732503
 30
0.0
 11
0.672623
 21
-0.726686
 31
0.0
  0
LINE
  5
543
100
AcDbEntity
  8
TRMODEL1
  6
CONTINUOUS
 62
     7
100
AcDbLine
 10
0.672623
 20
-0.726686
 30
0.0
 11
0.674606
 21
-0.720897
 31
0.0
  0
LINE
  5
544
100
AcDbEntity
  8
TRMODEL1
  6
CONTINUOUS
 62
     7
100
AcDbLine
 10
0.674606
 20
-0.720897
 30
0.0
 11
0.676484
 21
-0.715136
 31
0.0
  0
LINE
  5
545
100
AcDbEntity
  8
TRMODEL1
  6
CONTINUOUS
 62
     7
100
AcDbLine
 10
0.676484
 20
-0.715136
 30
0.0
 11
0.678259
 21
-0.7094
 31
0.0
  0
LINE
  5
546
100
AcDbEntity
  8
TRMODEL1
  6
CONTINUOUS
 62
     7
100
AcDbLine
 10
0.678259
 20
-0.7094
 30
0.0
 11
0.679931
 21
-0.703687
 31
0.0
  0
LINE
  5
547
100
AcDbEntity
  8
TRMODEL1
  6
CONTINUOUS
 62
     7
100
AcDbLine
 10
0.679931
 20
-0.703687
 30
0.0
 11
0.6815
 21
-0.697994
 31
0.0
  0
LINE
  5
548
100
AcDbEntity
  8
TRMODEL1
  6
CONTINUOUS
 62
     7
100
AcDbLine
 10
0.6815
 20
-0.697994
 30
0.0
 11
0.682967
 21
-0.692321
 31
0.0
  0
LINE
  5
549
100
AcDbEntity
  8
TRMODEL1
  6
CONTINUOUS
 62
     7
100
AcDbLine
 10
0.682967
 20
-0.692321
 30
0.0
 11
0.684333
 21
-0.686664
 31
0.0
  0
LINE
  5
54A
100
AcDbEntity
  8
TRMODEL1
  6
CONTINUOUS
 62
     7
100
AcDbLine
 10
0.684333
 20
-0.686664
 30
0.0
 11
0.685598
 21
-0.681022
 31
0.0
  0
LINE
  5
54B
100
AcDbEntity
  8
TRMODEL1
  6
CONTINUOUS
 62
     7
100
AcDbLine
 10
0.685598
 20
-0.681022
 30
0.0
 11
0.686762
 21
-0.675392
 31
0.0
  0
LINE
  5
54C
100
AcDbEntity
  8
TRMODEL1
  6
CONTINUOUS
 62
     7
100
AcDbLine
 10
0.686762
 20
-0.675392
 30
0.0
 11
0.687825
 21
-0.669773
 31
0.0
  0
LINE
  5
54D
100
AcDbEntity
  8
TRMODEL1
  6
CONTINUOUS
 62
     7
100
AcDbLine
 10
0.687825
 20
-0.669773
 30
0.0
 11
0.688788
 21
-0.664163
 31
0.0
  0
LINE
  5
54E
100
AcDbEntity
  8
TRMODEL1
  6
CONTINUOUS
 62
     7
100
AcDbLine
 10
0.688788
 20
-0.664163
 30
0.0
 11
0.68965
 21
-0.658559
 31
0.0
  0
LINE
  5
54F
100
AcDbEntity
  8
TRMODEL1
  6
CONTINUOUS
 62
     7
100
AcDbLine
 10
0.68965
 20
-0.658559
 30
0.0
 11
0.690412
 21
-0.65296
 31
0.0
  0
LINE
  5
550
100
AcDbEntity
  8
TRMODEL1
  6
CONTINUOUS
 62
     7
100
AcDbLine
 10
0.690412
 20
-0.65296
 30
0.0
 11
0.691073
 21
-0.647363
 31
0.0
  0
LINE
  5
551
100
AcDbEntity
  8
TRMODEL1
  6
CONTINUOUS
 62
     7
100
AcDbLine
 10
0.691073
 20
-0.647363
 30
0.0
 11
0.691634
 21
-0.641767
 31
0.0
  0
LINE
  5
552
100
AcDbEntity
  8
TRMODEL1
  6
CONTINUOUS
 62
     7
100
AcDbLine
 10
0.691634
 20
-0.641767
 30
0.0
 11
0.692093
 21
-0.636169
 31
0.0
  0
LINE
  5
553
100
AcDbEntity
  8
TRMODEL1
  6
CONTINUOUS
 62
     7
100
AcDbLine
 10
0.692093
 20
-0.636169
 30
0.0
 11
0.692451
 21
-0.630567
 31
0.0
  0
LINE
  5
554
100
AcDbEntity
  8
TRMODEL1
  6
CONTINUOUS
 62
     7
100
AcDbLine
 10
0.692451
 20
-0.630567
 30
0.0
 11
0.692708
 21
-0.62496
 31
0.0
  0
LINE
  5
555
100
AcDbEntity
  8
TRMODEL1
  6
CONTINUOUS
 62
     7
100
AcDbLine
 10
0.692708
 20
-0.62496
 30
0.0
 11
0.692862
 21
-0.619344
 31
0.0
  0
LINE
  5
556
100
AcDbEntity
  8
TRMODEL1
  6
CONTINUOUS
 62
     7
100
AcDbLine
 10
0.692862
 20
-0.619344
 30
0.0
 11
0.692913
 21
-0.613719
 31
0.0
  0
LINE
  5
557
100
AcDbEntity
  8
TRMODEL1
  6
CONTINUOUS
 62
     7
100
AcDbLine
 10
0.692913
 20
-0.613719
 30
0.0
 11
0.692862
 21
-0.608093
 31
0.0
  0
LINE
  5
558
100
AcDbEntity
  8
TRMODEL1
  6
CONTINUOUS
 62
     7
100
AcDbLine
 10
0.692862
 20
-0.608093
 30
0.0
 11
0.692708
 21
-0.602478
 31
0.0
  0
LINE
  5
559
100
AcDbEntity
  8
TRMODEL1
  6
CONTINUOUS
 62
     7
100
AcDbLine
 10
0.692708
 20
-0.602478
 30
0.0
 11
0.692451
 21
-0.59687
 31
0.0
  0
LINE
  5
55A
100
AcDbEntity
  8
TRMODEL1
  6
CONTINUOUS
 62
     7
100
AcDbLine
 10
0.692451
 20
-0.59687
 30
0.0
 11
0.692093
 21
-0.591269
 31
0.0
  0
LINE
  5
55B
100
AcDbEntity
  8
TRMODEL1
  6
CONTINUOUS
 62
     7
100
AcDbLine
 10
0.692093
 20
-0.591269
 30
0.0
 11
0.691634
 21
-0.585671
 31
0.0
  0
LINE
  5
55C
100
AcDbEntity
  8
TRMODEL1
  6
CONTINUOUS
 62
     7
100
AcDbLine
 10
0.691634
 20
-0.585671
 30
0.0
 11
0.691073
 21
-0.580074
 31
0.0
  0
LINE
  5
55D
100
AcDbEntity
  8
TRMODEL1
  6
CONTINUOUS
 62
     7
100
AcDbLine
 10
0.691073
 20
-0.580074
 30
0.0
 11
0.690412
 21
-0.574478
 31
0.0
  0
LINE
  5
55E
100
AcDbEntity
  8
TRMODEL1
  6
CONTINUOUS
 62
     7
100
AcDbLine
 10
0.690412
 20
-0.574478
 30
0.0
 11
0.68965
 21
-0.568878
 31
0.0
  0
LINE
  5
55F
100
AcDbEntity
  8
TRMODEL1
  6
CONTINUOUS
 62
     7
100
AcDbLine
 10
0.68965
 20
-0.568878
 30
0.0
 11
0.688788
 21
-0.563275
 31
0.0
  0
LINE
  5
560
100
AcDbEntity
  8
TRMODEL1
  6
CONTINUOUS
 62
     7
100
AcDbLine
 10
0.688788
 20
-0.563275
 30
0.0
 11
0.687825
 21
-0.557664
 31
0.0
  0
LINE
  5
561
100
AcDbEntity
  8
TRMODEL1
  6
CONTINUOUS
 62
     7
100
AcDbLine
 10
0.687825
 20
-0.557664
 30
0.0
 11
0.686762
 21
-0.552046
 31
0.0
  0
LINE
  5
562
100
AcDbEntity
  8
TRMODEL1
  6
CONTINUOUS
 62
     7
100
AcDbLine
 10
0.686762
 20
-0.552046
 30
0.0
 11
0.685598
 21
-0.546416
 31
0.0
  0
LINE
  5
563
100
AcDbEntity
  8
TRMODEL1
  6
CONTINUOUS
 62
     7
100
AcDbLine
 10
0.685598
 20
-0.546416
 30
0.0
 11
0.684333
 21
-0.540774
 31
0.0
  0
LINE
  5
564
100
AcDbEntity
  8
TRMODEL1
  6
CONTINUOUS
 62
     7
100
AcDbLine
 10
0.684333
 20
-0.540774
 30
0.0
 11
0.682967
 21
-0.535117
 31
0.0
  0
LINE
  5
565
100
AcDbEntity
  8
TRMODEL1
  6
CONTINUOUS
 62
     7
100
AcDbLine
 10
0.682967
 20
-0.535117
 30
0.0
 11
0.6815
 21
-0.529443
 31
0.0
  0
LINE
  5
566
100
AcDbEntity
  8
TRMODEL1
  6
CONTINUOUS
 62
     7
100
AcDbLine
 10
0.6815
 20
-0.529443
 30
0.0
 11
0.679931
 21
-0.523751
 31
0.0
  0
LINE
  5
567
100
AcDbEntity
  8
TRMODEL1
  6
CONTINUOUS
 62
     7
100
AcDbLine
 10
0.679931
 20
-0.523751
 30
0.0
 11
0.678259
 21
-0.518038
 31
0.0
  0
LINE
  5
568
100
AcDbEntity
  8
TRMODEL1
  6
CONTINUOUS
 62
     7
100
AcDbLine
 10
0.678259
 20
-0.518038
 30
0.0
 11
0.676484
 21
-0.512302
 31
0.0
  0
LINE
  5
569
100
AcDbEntity
  8
TRMODEL1
  6
CONTINUOUS
 62
     7
100
AcDbLine
 10
0.676484
 20
-0.512302
 30
0.0
 11
0.674606
 21
-0.50654
 31
0.0
  0
LINE
  5
56A
100
AcDbEntity
  8
TRMODEL1
  6
CONTINUOUS
 62
     7
100
AcDbLine
 10
0.674606
 20
-0.50654
 30
0.0
 11
0.672623
 21
-0.500752
 31
0.0
  0
LINE
  5
56B
100
AcDbEntity
  8
TRMODEL1
  6
CONTINUOUS
 62
     7
100
AcDbLine
 10
0.672623
 20
-0.500752
 30
0.0
 11
0.670535
 21
-0.494934
 31
0.0
  0
LINE
  5
56C
100
AcDbEntity
  8
TRMODEL1
  6
CONTINUOUS
 62
     7
100
AcDbLine
 10
0.670535
 20
-0.494934
 30
0.0
 11
0.668341
 21
-0.489085
 31
0.0
  0
LINE
  5
56D
100
AcDbEntity
  8
TRMODEL1
  6
CONTINUOUS
 62
     7
100
AcDbLine
 10
0.668341
 20
-0.489085
 30
0.0
 11
0.66604
 21
-0.483203
 31
0.0
  0
LINE
  5
56E
100
AcDbEntity
  8
TRMODEL1
  6
CONTINUOUS
 62
     7
100
AcDbLine
 10
0.66604
 20
-0.483203
 30
0.0
 11
0.663631
 21
-0.477284
 31
0.0
  0
LINE
  5
56F
100
AcDbEntity
  8
TRMODEL1
  6
CONTINUOUS
 62
     7
100
AcDbLine
 10
0.663631
 20
-0.477284
 30
0.0
 11
0.661113
 21
-0.471328
 31
0.0
  0
LINE
  5
570
100
AcDbEntity
  8
TRMODEL1
  6
CONTINUOUS
 62
     7
100
AcDbLine
 10
0.661113
 20
-0.471328
 30
0.0
 11
0.658484
 21
-0.465331
 31
0.0
  0
LINE
  5
571
100
AcDbEntity
  8
TRMODEL1
  6
CONTINUOUS
 62
     7
100
AcDbLine
 10
0.658484
 20
-0.465331
 30
0.0
 11
0.655744
 21
-0.459291
 31
0.0
  0
LINE
  5
572
100
AcDbEntity
  8
TRMODEL1
  6
CONTINUOUS
 62
     7
100
AcDbLine
 10
0.655744
 20
-0.459291
 30
0.0
 11
0.652891
 21
-0.453207
 31
0.0
  0
LINE
  5
573
100
AcDbEntity
  8
TRMODEL1
  6
CONTINUOUS
 62
     7
100
AcDbLine
 10
0.652891
 20
-0.453207
 30
0.0
 11
0.649923
 21
-0.447075
 31
0.0
  0
LINE
  5
574
100
AcDbEntity
  8
TRMODEL1
  6
CONTINUOUS
 62
     7
100
AcDbLine
 10
0.649923
 20
-0.447075
 30
0.0
 11
0.646839
 21
-0.440893
 31
0.0
  0
LINE
  5
575
100
AcDbEntity
  8
TRMODEL1
  6
CONTINUOUS
 62
     7
100
AcDbLine
 10
0.646839
 20
-0.440893
 30
0.0
 11
0.643638
 21
-0.434659
 31
0.0
  0
LINE
  5
576
100
AcDbEntity
  8
TRMODEL1
  6
CONTINUOUS
 62
     7
100
AcDbLine
 10
0.643638
 20
-0.434659
 30
0.0
 11
0.640317
 21
-0.42837
 31
0.0
  0
LINE
  5
577
100
AcDbEntity
  8
TRMODEL1
  6
CONTINUOUS
 62
     7
100
AcDbLine
 10
0.640317
 20
-0.42837
 30
0.0
 11
0.636875
 21
-0.422023
 31
0.0
  0
LINE
  5
578
100
AcDbEntity
  8
TRMODEL1
  6
CONTINUOUS
 62
     7
100
AcDbLine
 10
0.636875
 20
-0.422023
 30
0.0
 11
0.633309
 21
-0.415616
 31
0.0
  0
LINE
  5
579
100
AcDbEntity
  8
TRMODEL1
  6
CONTINUOUS
 62
     7
100
AcDbLine
 10
0.633309
 20
-0.415616
 30
0.0
 11
0.629618
 21
-0.409146
 31
0.0
  0
LINE
  5
57A
100
AcDbEntity
  8
TRMODEL1
  6
CONTINUOUS
 62
     7
100
AcDbLine
 10
0.692913
 20
-0.613719
 30
0.0
 11
0.692913
 21
-0.708661
 31
0.0
  0
LINE
  5
57B
100
AcDbEntity
  8
TRMODEL1
  6
CONTINUOUS
 62
     7
100
AcDbLine
 10
0.692913
 20
0.0
 30
0.0
 11
0.692913
 21
-0.613719
 31
0.0
  0
LINE
  5
57C
100
AcDbEntity
  8
TRMODEL1
  6
CONTINUOUS
 62
     7
100
AcDbLine
 10
0.692913
 20
0.613719
 30
0.0
 11
0.692862
 21
0.619344
 31
0.0
  0
LINE
  5
57D
100
AcDbEntity
  8
TRMODEL1
  6
CONTINUOUS
 62
     7
100
AcDbLine
 10
0.692862
 20
0.619344
 30
0.0
 11
0.692708
 21
0.62496
 31
0.0
  0
LINE
  5
57E
100
AcDbEntity
  8
TRMODEL1
  6
CONTINUOUS
 62
     7
100
AcDbLine
 10
0.692708
 20
0.62496
 30
0.0
 11
0.692451
 21
0.630567
 31
0.0
  0
LINE
  5
57F
100
AcDbEntity
  8
TRMODEL1
  6
CONTINUOUS
 62
     7
100
AcDbLine
 10
0.692451
 20
0.630567
 30
0.0
 11
0.692093
 21
0.636169
 31
0.0
  0
LINE
  5
580
100
AcDbEntity
  8
TRMODEL1
  6
CONTINUOUS
 62
     7
100
AcDbLine
 10
0.692093
 20
0.636169
 30
0.0
 11
0.691634
 21
0.641767
 31
0.0
  0
LINE
  5
581
100
AcDbEntity
  8
TRMODEL1
  6
CONTINUOUS
 62
     7
100
AcDbLine
 10
0.691634
 20
0.641767
 30
0.0
 11
0.691073
 21
0.647363
 31
0.0
  0
LINE
  5
582
100
AcDbEntity
  8
TRMODEL1
  6
CONTINUOUS
 62
     7
100
AcDbLine
 10
0.691073
 20
0.647363
 30
0.0
 11
0.690412
 21
0.65296
 31
0.0
  0
LINE
  5
583
100
AcDbEntity
  8
TRMODEL1
  6
CONTINUOUS
 62
     7
100
AcDbLine
 10
0.690412
 20
0.65296
 30
0.0
 11
0.68965
 21
0.658559
 31
0.0
  0
LINE
  5
584
100
AcDbEntity
  8
TRMODEL1
  6
CONTINUOUS
 62
     7
100
AcDbLine
 10
0.68965
 20
0.658559
 30
0.0
 11
0.688788
 21
0.664163
 31
0.0
  0
LINE
  5
585
100
AcDbEntity
  8
TRMODEL1
  6
CONTINUOUS
 62
     7
100
AcDbLine
 10
0.688788
 20
0.664163
 30
0.0
 11
0.687825
 21
0.669773
 31
0.0
  0
LINE
  5
586
100
AcDbEntity
  8
TRMODEL1
  6
CONTINUOUS
 62
     7
100
AcDbLine
 10
0.687825
 20
0.669773
 30
0.0
 11
0.686762
 21
0.675392
 31
0.0
  0
LINE
  5
587
100
AcDbEntity
  8
TRMODEL1
  6
CONTINUOUS
 62
     7
100
AcDbLine
 10
0.686762
 20
0.675392
 30
0.0
 11
0.685598
 21
0.681022
 31
0.0
  0
LINE
  5
588
100
AcDbEntity
  8
TRMODEL1
  6
CONTINUOUS
 62
     7
100
AcDbLine
 10
0.685598
 20
0.681022
 30
0.0
 11
0.684333
 21
0.686664
 31
0.0
  0
LINE
  5
589
100
AcDbEntity
  8
TRMODEL1
  6
CONTINUOUS
 62
     7
100
AcDbLine
 10
0.684333
 20
0.686664
 30
0.0
 11
0.682967
 21
0.692321
 31
0.0
  0
LINE
  5
58A
100
AcDbEntity
  8
TRMODEL1
  6
CONTINUOUS
 62
     7
100
AcDbLine
 10
0.682967
 20
0.692321
 30
0.0
 11
0.6815
 21
0.697994
 31
0.0
  0
LINE
  5
58B
100
AcDbEntity
  8
TRMODEL1
  6
CONTINUOUS
 62
     7
100
AcDbLine
 10
0.6815
 20
0.697994
 30
0.0
 11
0.679931
 21
0.703687
 31
0.0
  0
LINE
  5
58C
100
AcDbEntity
  8
TRMODEL1
  6
CONTINUOUS
 62
     7
100
AcDbLine
 10
0.679931
 20
0.703687
 30
0.0
 11
0.678259
 21
0.7094
 31
0.0
  0
LINE
  5
58D
100
AcDbEntity
  8
TRMODEL1
  6
CONTINUOUS
 62
     7
100
AcDbLine
 10
0.678259
 20
0.7094
 30
0.0
 11
0.676484
 21
0.715136
 31
0.0
  0
LINE
  5
58E
100
AcDbEntity
  8
TRMODEL1
  6
CONTINUOUS
 62
     7
100
AcDbLine
 10
0.676484
 20
0.715136
 30
0.0
 11
0.674606
 21
0.720897
 31
0.0
  0
LINE
  5
58F
100
AcDbEntity
  8
TRMODEL1
  6
CONTINUOUS
 62
     7
100
AcDbLine
 10
0.674606
 20
0.720897
 30
0.0
 11
0.672623
 21
0.726686
 31
0.0
  0
LINE
  5
590
100
AcDbEntity
  8
TRMODEL1
  6
CONTINUOUS
 62
     7
100
AcDbLine
 10
0.672623
 20
0.726686
 30
0.0
 11
0.670535
 21
0.732503
 31
0.0
  0
LINE
  5
591
100
AcDbEntity
  8
TRMODEL1
  6
CONTINUOUS
 62
     7
100
AcDbLine
 10
0.670535
 20
0.732503
 30
0.0
 11
0.668341
 21
0.738352
 31
0.0
  0
LINE
  5
592
100
AcDbEntity
  8
TRMODEL1
  6
CONTINUOUS
 62
     7
100
AcDbLine
 10
0.668341
 20
0.738352
 30
0.0
 11
0.66604
 21
0.744235
 31
0.0
  0
LINE
  5
593
100
AcDbEntity
  8
TRMODEL1
  6
CONTINUOUS
 62
     7
100
AcDbLine
 10
0.66604
 20
0.744235
 30
0.0
 11
0.663631
 21
0.750153
 31
0.0
  0
LINE
  5
594
100
AcDbEntity
  8
TRMODEL1
  6
CONTINUOUS
 62
     7
100
AcDbLine
 10
0.663631
 20
0.750153
 30
0.0
 11
0.661113
 21
0.75611
 31
0.0
  0
LINE
  5
595
100
AcDbEntity
  8
TRMODEL1
  6
CONTINUOUS
 62
     7
100
AcDbLine
 10
0.661113
 20
0.75611
 30
0.0
 11
0.658484
 21
0.762107
 31
0.0
  0
LINE
  5
596
100
AcDbEntity
  8
TRMODEL1
  6
CONTINUOUS
 62
     7
100
AcDbLine
 10
0.658484
 20
0.762107
 30
0.0
 11
0.655744
 21
0.768146
 31
0.0
  0
LINE
  5
597
100
AcDbEntity
  8
TRMODEL1
  6
CONTINUOUS
 62
     7
100
AcDbLine
 10
0.655744
 20
0.768146
 30
0.0
 11
0.652891
 21
0.774231
 31
0.0
  0
LINE
  5
598
100
AcDbEntity
  8
TRMODEL1
  6
CONTINUOUS
 62
     7
100
AcDbLine
 10
0.652891
 20
0.774231
 30
0.0
 11
0.649923
 21
0.780363
 31
0.0
  0
LINE
  5
599
100
AcDbEntity
  8
TRMODEL1
  6
CONTINUOUS
 62
     7
100
AcDbLine
 10
0.649923
 20
0.780363
 30
0.0
 11
0.646839
 21
0.786545
 31
0.0
  0
LINE
  5
59A
100
AcDbEntity
  8
TRMODEL1
  6
CONTINUOUS
 62
     7
100
AcDbLine
 10
0.646839
 20
0.786545
 30
0.0
 11
0.643638
 21
0.792779
 31
0.0
  0
LINE
  5
59B
100
AcDbEntity
  8
TRMODEL1
  6
CONTINUOUS
 62
     7
100
AcDbLine
 10
0.643638
 20
0.792779
 30
0.0
 11
0.640317
 21
0.799068
 31
0.0
  0
LINE
  5
59C
100
AcDbEntity
  8
TRMODEL1
  6
CONTINUOUS
 62
     7
100
AcDbLine
 10
0.640317
 20
0.799068
 30
0.0
 11
0.636875
 21
0.805415
 31
0.0
  0
LINE
  5
59D
100
AcDbEntity
  8
TRMODEL1
  6
CONTINUOUS
 62
     7
100
AcDbLine
 10
0.636875
 20
0.805415
 30
0.0
 11
0.633309
 21
0.811822
 31
0.0
  0
LINE
  5
59E
100
AcDbEntity
  8
TRMODEL1
  6
CONTINUOUS
 62
     7
100
AcDbLine
 10
0.633309
 20
0.811822
 30
0.0
 11
0.629618
 21
0.818292
 31
0.0
  0
LINE
  5
59F
100
AcDbEntity
  8
TRMODEL1
  6
CONTINUOUS
 62
     7
100
AcDbLine
 10
0.692913
 20
0.708661
 30
0.0
 11
0.692913
 21
0.613719
 31
0.0
  0
LINE
  5
5A0
100
AcDbEntity
  8
TRMODEL1
  6
CONTINUOUS
 62
     7
100
AcDbLine
 10
0.629618
 20
0.409146
 30
0.0
 11
0.633309
 21
0.415616
 31
0.0
  0
LINE
  5
5A1
100
AcDbEntity
  8
TRMODEL1
  6
CONTINUOUS
 62
     7
100
AcDbLine
 10
0.633309
 20
0.415616
 30
0.0
 11
0.636875
 21
0.422023
 31
0.0
  0
LINE
  5
5A2
100
AcDbEntity
  8
TRMODEL1
  6
CONTINUOUS
 62
     7
100
AcDbLine
 10
0.636875
 20
0.422023
 30
0.0
 11
0.640317
 21
0.42837
 31
0.0
  0
LINE
  5
5A3
100
AcDbEntity
  8
TRMODEL1
  6
CONTINUOUS
 62
     7
100
AcDbLine
 10
0.640317
 20
0.42837
 30
0.0
 11
0.643638
 21
0.434659
 31
0.0
  0
LINE
  5
5A4
100
AcDbEntity
  8
TRMODEL1
  6
CONTINUOUS
 62
     7
100
AcDbLine
 10
0.643638
 20
0.434659
 30
0.0
 11
0.646839
 21
0.440893
 31
0.0
  0
LINE
  5
5A5
100
AcDbEntity
  8
TRMODEL1
  6
CONTINUOUS
 62
     7
100
AcDbLine
 10
0.646839
 20
0.440893
 30
0.0
 11
0.649923
 21
0.447075
 31
0.0
  0
LINE
  5
5A6
100
AcDbEntity
  8
TRMODEL1
  6
CONTINUOUS
 62
     7
100
AcDbLine
 10
0.649923
 20
0.447075
 30
0.0
 11
0.652891
 21
0.453207
 31
0.0
  0
LINE
  5
5A7
100
AcDbEntity
  8
TRMODEL1
  6
CONTINUOUS
 62
     7
100
AcDbLine
 10
0.652891
 20
0.453207
 30
0.0
 11
0.655744
 21
0.459291
 31
0.0
  0
LINE
  5
5A8
100
AcDbEntity
  8
TRMODEL1
  6
CONTINUOUS
 62
     7
100
AcDbLine
 10
0.655744
 20
0.459291
 30
0.0
 11
0.658484
 21
0.465331
 31
0.0
  0
LINE
  5
5A9
100
AcDbEntity
  8
TRMODEL1
  6
CONTINUOUS
 62
     7
100
AcDbLine
 10
0.658484
 20
0.465331
 30
0.0
 11
0.661113
 21
0.471328
 31
0.0
  0
LINE
  5
5AA
100
AcDbEntity
  8
TRMODEL1
  6
CONTINUOUS
 62
     7
100
AcDbLine
 10
0.661113
 20
0.471328
 30
0.0
 11
0.663631
 21
0.477284
 31
0.0
  0
LINE
  5
5AB
100
AcDbEntity
  8
TRMODEL1
  6
CONTINUOUS
 62
     7
100
AcDbLine
 10
0.663631
 20
0.477284
 30
0.0
 11
0.66604
 21
0.483203
 31
0.0
  0
LINE
  5
5AC
100
AcDbEntity
  8
TRMODEL1
  6
CONTINUOUS
 62
     7
100
AcDbLine
 10
0.66604
 20
0.483203
 30
0.0
 11
0.668341
 21
0.489085
 31
0.0
  0
LINE
  5
5AD
100
AcDbEntity
  8
TRMODEL1
  6
CONTINUOUS
 62
     7
100
AcDbLine
 10
0.668341
 20
0.489085
 30
0.0
 11
0.670535
 21
0.494934
 31
0.0
  0
LINE
  5
5AE
100
AcDbEntity
  8
TRMODEL1
  6
CONTINUOUS
 62
     7
100
AcDbLine
 10
0.670535
 20
0.494934
 30
0.0
 11
0.672623
 21
0.500752
 31
0.0
  0
LINE
  5
5AF
100
AcDbEntity
  8
TRMODEL1
  6
CONTINUOUS
 62
     7
100
AcDbLine
 10
0.672623
 20
0.500752
 30
0.0
 11
0.674606
 21
0.50654
 31
0.0
  0
LINE
  5
5B0
100
AcDbEntity
  8
TRMODEL1
  6
CONTINUOUS
 62
     7
100
AcDbLine
 10
0.674606
 20
0.50654
 30
0.0
 11
0.676484
 21
0.512302
 31
0.0
  0
LINE
  5
5B1
100
AcDbEntity
  8
TRMODEL1
  6
CONTINUOUS
 62
     7
100
AcDbLine
 10
0.676484
 20
0.512302
 30
0.0
 11
0.678259
 21
0.518038
 31
0.0
  0
LINE
  5
5B2
100
AcDbEntity
  8
TRMODEL1
  6
CONTINUOUS
 62
     7
100
AcDbLine
 10
0.678259
 20
0.518038
 30
0.0
 11
0.679931
 21
0.523751
 31
0.0
  0
LINE
  5
5B3
100
AcDbEntity
  8
TRMODEL1
  6
CONTINUOUS
 62
     7
100
AcDbLine
 10
0.679931
 20
0.523751
 30
0.0
 11
0.6815
 21
0.529443
 31
0.0
  0
LINE
  5
5B4
100
AcDbEntity
  8
TRMODEL1
  6
CONTINUOUS
 62
     7
100
AcDbLine
 10
0.6815
 20
0.529443
 30
0.0
 11
0.682967
 21
0.535117
 31
0.0
  0
LINE
  5
5B5
100
AcDbEntity
  8
TRMODEL1
  6
CONTINUOUS
 62
     7
100
AcDbLine
 10
0.682967
 20
0.535117
 30
0.0
 11
0.684333
 21
0.540774
 31
0.0
  0
LINE
  5
5B6
100
AcDbEntity
  8
TRMODEL1
  6
CONTINUOUS
 62
     7
100
AcDbLine
 10
0.684333
 20
0.540774
 30
0.0
 11
0.685598
 21
0.546416
 31
0.0
  0
LINE
  5
5B7
100
AcDbEntity
  8
TRMODEL1
  6
CONTINUOUS
 62
     7
100
AcDbLine
 10
0.685598
 20
0.546416
 30
0.0
 11
0.686762
 21
0.552046
 31
0.0
  0
LINE
  5
5B8
100
AcDbEntity
  8
TRMODEL1
  6
CONTINUOUS
 62
     7
100
AcDbLine
 10
0.686762
 20
0.552046
 30
0.0
 11
0.687825
 21
0.557664
 31
0.0
  0
LINE
  5
5B9
100
AcDbEntity
  8
TRMODEL1
  6
CONTINUOUS
 62
     7
100
AcDbLine
 10
0.687825
 20
0.557664
 30
0.0
 11
0.688788
 21
0.563275
 31
0.0
  0
LINE
  5
5BA
100
AcDbEntity
  8
TRMODEL1
  6
CONTINUOUS
 62
     7
100
AcDbLine
 10
0.688788
 20
0.563275
 30
0.0
 11
0.68965
 21
0.568878
 31
0.0
  0
LINE
  5
5BB
100
AcDbEntity
  8
TRMODEL1
  6
CONTINUOUS
 62
     7
100
AcDbLine
 10
0.68965
 20
0.568878
 30
0.0
 11
0.690412
 21
0.574478
 31
0.0
  0
LINE
  5
5BC
100
AcDbEntity
  8
TRMODEL1
  6
CONTINUOUS
 62
     7
100
AcDbLine
 10
0.690412
 20
0.574478
 30
0.0
 11
0.691073
 21
0.580074
 31
0.0
  0
LINE
  5
5BD
100
AcDbEntity
  8
TRMODEL1
  6
CONTINUOUS
 62
     7
100
AcDbLine
 10
0.691073
 20
0.580074
 30
0.0
 11
0.691634
 21
0.585671
 31
0.0
  0
LINE
  5
5BE
100
AcDbEntity
  8
TRMODEL1
  6
CONTINUOUS
 62
     7
100
AcDbLine
 10
0.691634
 20
0.585671
 30
0.0
 11
0.692093
 21
0.591269
 31
0.0
  0
LINE
  5
5BF
100
AcDbEntity
  8
TRMODEL1
  6
CONTINUOUS
 62
     7
100
AcDbLine
 10
0.692093
 20
0.591269
 30
0.0
 11
0.692451
 21
0.59687
 31
0.0
  0
LINE
  5
5C0
100
AcDbEntity
  8
TRMODEL1
  6
CONTINUOUS
 62
     7
100
AcDbLine
 10
0.692451
 20
0.59687
 30
0.0
 11
0.692708
 21
0.602478
 31
0.0
  0
LINE
  5
5C1
100
AcDbEntity
  8
TRMODEL1
  6
CONTINUOUS
 62
     7
100
AcDbLine
 10
0.692708
 20
0.602478
 30
0.0
 11
0.692862
 21
0.608093
 31
0.0
  0
LINE
  5
5C2
100
AcDbEntity
  8
TRMODEL1
  6
CONTINUOUS
 62
     7
100
AcDbLine
 10
0.692862
 20
0.608093
 30
0.0
 11
0.692913
 21
0.613719
 31
0.0
  0
LINE
  5
5C3
100
AcDbEntity
  8
TRMODEL1
  6
CONTINUOUS
 62
     7
100
AcDbLine
 10
0.692913
 20
0.613719
 30
0.0
 11
0.692913
 21
0.0
 31
0.0
  0
LINE
  5
5C4
100
AcDbEntity
  8
TRMODEL1
  6
CONTINUOUS
 62
     7
100
AcDbLine
 10
0.559358
 20
0.818292
 30
0.0
 11
0.629618
 21
0.818292
 31
0.0
  0
LINE
  5
5C5
100
AcDbEntity
  8
TRMODEL1
  6
CONTINUOUS
 62
     7
100
AcDbLine
 10
1.086614
 20
0.613719
 30
0.0
 11
1.086563
 21
0.619344
 31
0.0
  0
LINE
  5
5C6
100
AcDbEntity
  8
TRMODEL1
  6
CONTINUOUS
 62
     7
100
AcDbLine
 10
1.086563
 20
0.619344
 30
0.0
 11
1.086408
 21
0.62496
 31
0.0
  0
LINE
  5
5C7
100
AcDbEntity
  8
TRMODEL1
  6
CONTINUOUS
 62
     7
100
AcDbLine
 10
1.086408
 20
0.62496
 30
0.0
 11
1.086152
 21
0.630567
 31
0.0
  0
LINE
  5
5C8
100
AcDbEntity
  8
TRMODEL1
  6
CONTINUOUS
 62
     7
100
AcDbLine
 10
1.086152
 20
0.630567
 30
0.0
 11
1.085794
 21
0.636169
 31
0.0
  0
LINE
  5
5C9
100
AcDbEntity
  8
TRMODEL1
  6
CONTINUOUS
 62
     7
100
AcDbLine
 10
1.085794
 20
0.636169
 30
0.0
 11
1.085334
 21
0.641767
 31
0.0
  0
LINE
  5
5CA
100
AcDbEntity
  8
TRMODEL1
  6
CONTINUOUS
 62
     7
100
AcDbLine
 10
1.085334
 20
0.641767
 30
0.0
 11
1.084774
 21
0.647363
 31
0.0
  0
LINE
  5
5CB
100
AcDbEntity
  8
TRMODEL1
  6
CONTINUOUS
 62
     7
100
AcDbLine
 10
1.084774
 20
0.647363
 30
0.0
 11
1.084113
 21
0.65296
 31
0.0
  0
LINE
  5
5CC
100
AcDbEntity
  8
TRMODEL1
  6
CONTINUOUS
 62
     7
100
AcDbLine
 10
1.084113
 20
0.65296
 30
0.0
 11
1.083351
 21
0.658559
 31
0.0
  0
LINE
  5
5CD
100
AcDbEntity
  8
TRMODEL1
  6
CONTINUOUS
 62
     7
100
AcDbLine
 10
1.083351
 20
0.658559
 30
0.0
 11
1.082489
 21
0.664163
 31
0.0
  0
LINE
  5
5CE
100
AcDbEntity
  8
TRMODEL1
  6
CONTINUOUS
 62
     7
100
AcDbLine
 10
1.082489
 20
0.664163
 30
0.0
 11
1.081526
 21
0.669773
 31
0.0
  0
LINE
  5
5CF
100
AcDbEntity
  8
TRMODEL1
  6
CONTINUOUS
 62
     7
100
AcDbLine
 10
1.081526
 20
0.669773
 30
0.0
 11
1.080463
 21
0.675392
 31
0.0
  0
LINE
  5
5D0
100
AcDbEntity
  8
TRMODEL1
  6
CONTINUOUS
 62
     7
100
AcDbLine
 10
1.080463
 20
0.675392
 30
0.0
 11
1.079299
 21
0.681022
 31
0.0
  0
LINE
  5
5D1
100
AcDbEntity
  8
TRMODEL1
  6
CONTINUOUS
 62
     7
100
AcDbLine
 10
1.079299
 20
0.681022
 30
0.0
 11
1.078034
 21
0.686664
 31
0.0
  0
LINE
  5
5D2
100
AcDbEntity
  8
TRMODEL1
  6
CONTINUOUS
 62
     7
100
AcDbLine
 10
1.078034
 20
0.686664
 30
0.0
 11
1.076668
 21
0.692321
 31
0.0
  0
LINE
  5
5D3
100
AcDbEntity
  8
TRMODEL1
  6
CONTINUOUS
 62
     7
100
AcDbLine
 10
1.076668
 20
0.692321
 30
0.0
 11
1.075201
 21
0.697994
 31
0.0
  0
LINE
  5
5D4
100
AcDbEntity
  8
TRMODEL1
  6
CONTINUOUS
 62
     7
100
AcDbLine
 10
1.075201
 20
0.697994
 30
0.0
 11
1.073631
 21
0.703687
 31
0.0
  0
LINE
  5
5D5
100
AcDbEntity
  8
TRMODEL1
  6
CONTINUOUS
 62
     7
100
AcDbLine
 10
1.073631
 20
0.703687
 30
0.0
 11
1.07196
 21
0.7094
 31
0.0
  0
LINE
  5
5D6
100
AcDbEntity
  8
TRMODEL1
  6
CONTINUOUS
 62
     7
100
AcDbLine
 10
1.07196
 20
0.7094
 30
0.0
 11
1.070185
 21
0.715136
 31
0.0
  0
LINE
  5
5D7
100
AcDbEntity
  8
TRMODEL1
  6
CONTINUOUS
 62
     7
100
AcDbLine
 10
1.070185
 20
0.715136
 30
0.0
 11
1.068306
 21
0.720897
 31
0.0
  0
LINE
  5
5D8
100
AcDbEntity
  8
TRMODEL1
  6
CONTINUOUS
 62
     7
100
AcDbLine
 10
1.068306
 20
0.720897
 30
0.0
 11
1.066324
 21
0.726686
 31
0.0
  0
LINE
  5
5D9
100
AcDbEntity
  8
TRMODEL1
  6
CONTINUOUS
 62
     7
100
AcDbLine
 10
1.066324
 20
0.726686
 30
0.0
 11
1.064236
 21
0.732503
 31
0.0
  0
LINE
  5
5DA
100
AcDbEntity
  8
TRMODEL1
  6
CONTINUOUS
 62
     7
100
AcDbLine
 10
1.064236
 20
0.732503
 30
0.0
 11
1.062042
 21
0.738352
 31
0.0
  0
LINE
  5
5DB
100
AcDbEntity
  8
TRMODEL1
  6
CONTINUOUS
 62
     7
100
AcDbLine
 10
1.062042
 20
0.738352
 30
0.0
 11
1.059741
 21
0.744235
 31
0.0
  0
LINE
  5
5DC
100
AcDbEntity
  8
TRMODEL1
  6
CONTINUOUS
 62
     7
100
AcDbLine
 10
1.059741
 20
0.744235
 30
0.0
 11
1.057332
 21
0.750153
 31
0.0
  0
LINE
  5
5DD
100
AcDbEntity
  8
TRMODEL1
  6
CONTINUOUS
 62
     7
100
AcDbLine
 10
1.057332
 20
0.750153
 30
0.0
 11
1.054813
 21
0.75611
 31
0.0
  0
LINE
  5
5DE
100
AcDbEntity
  8
TRMODEL1
  6
CONTINUOUS
 62
     7
100
AcDbLine
 10
1.054813
 20
0.75611
 30
0.0
 11
1.052185
 21
0.762107
 31
0.0
  0
LINE
  5
5DF
100
AcDbEntity
  8
TRMODEL1
  6
CONTINUOUS
 62
     7
100
AcDbLine
 10
1.052185
 20
0.762107
 30
0.0
 11
1.049445
 21
0.768146
 31
0.0
  0
LINE
  5
5E0
100
AcDbEntity
  8
TRMODEL1
  6
CONTINUOUS
 62
     7
100
AcDbLine
 10
1.049445
 20
0.768146
 30
0.0
 11
1.046591
 21
0.774231
 31
0.0
  0
LINE
  5
5E1
100
AcDbEntity
  8
TRMODEL1
  6
CONTINUOUS
 62
     7
100
AcDbLine
 10
1.046591
 20
0.774231
 30
0.0
 11
1.043624
 21
0.780363
 31
0.0
  0
LINE
  5
5E2
100
AcDbEntity
  8
TRMODEL1
  6
CONTINUOUS
 62
     7
100
AcDbLine
 10
1.043624
 20
0.780363
 30
0.0
 11
1.04054
 21
0.786545
 31
0.0
  0
LINE
  5
5E3
100
AcDbEntity
  8
TRMODEL1
  6
CONTINUOUS
 62
     7
100
AcDbLine
 10
1.04054
 20
0.786545
 30
0.0
 11
1.037338
 21
0.792779
 31
0.0
  0
LINE
  5
5E4
100
AcDbEntity
  8
TRMODEL1
  6
CONTINUOUS
 62
     7
100
AcDbLine
 10
1.037338
 20
0.792779
 30
0.0
 11
1.034018
 21
0.799068
 31
0.0
  0
LINE
  5
5E5
100
AcDbEntity
  8
TRMODEL1
  6
CONTINUOUS
 62
     7
100
AcDbLine
 10
1.034018
 20
0.799068
 30
0.0
 11
1.030575
 21
0.805415
 31
0.0
  0
LINE
  5
5E6
100
AcDbEntity
  8
TRMODEL1
  6
CONTINUOUS
 62
     7
100
AcDbLine
 10
1.030575
 20
0.805415
 30
0.0
 11
1.02701
 21
0.811822
 31
0.0
  0
LINE
  5
5E7
100
AcDbEntity
  8
TRMODEL1
  6
CONTINUOUS
 62
     7
100
AcDbLine
 10
1.02701
 20
0.811822
 30
0.0
 11
1.023319
 21
0.818292
 31
0.0
  0
LINE
  5
5E8
100
AcDbEntity
  8
TRMODEL1
  6
CONTINUOUS
 62
     7
100
AcDbLine
 10
1.086614
 20
0.708661
 30
0.0
 11
1.086614
 21
0.613719
 31
0.0
  0
LINE
  5
5E9
100
AcDbEntity
  8
TRMODEL1
  6
CONTINUOUS
 62
     7
100
AcDbLine
 10
1.023319
 20
-0.818292
 30
0.0
 11
1.02701
 21
-0.811822
 31
0.0
  0
LINE
  5
5EA
100
AcDbEntity
  8
TRMODEL1
  6
CONTINUOUS
 62
     7
100
AcDbLine
 10
1.02701
 20
-0.811822
 30
0.0
 11
1.030575
 21
-0.805415
 31
0.0
  0
LINE
  5
5EB
100
AcDbEntity
  8
TRMODEL1
  6
CONTINUOUS
 62
     7
100
AcDbLine
 10
1.030575
 20
-0.805415
 30
0.0
 11
1.034018
 21
-0.799068
 31
0.0
  0
LINE
  5
5EC
100
AcDbEntity
  8
TRMODEL1
  6
CONTINUOUS
 62
     7
100
AcDbLine
 10
1.034018
 20
-0.799068
 30
0.0
 11
1.037338
 21
-0.792779
 31
0.0
  0
LINE
  5
5ED
100
AcDbEntity
  8
TRMODEL1
  6
CONTINUOUS
 62
     7
100
AcDbLine
 10
1.037338
 20
-0.792779
 30
0.0
 11
1.04054
 21
-0.786545
 31
0.0
  0
LINE
  5
5EE
100
AcDbEntity
  8
TRMODEL1
  6
CONTINUOUS
 62
     7
100
AcDbLine
 10
1.04054
 20
-0.786545
 30
0.0
 11
1.043624
 21
-0.780363
 31
0.0
  0
LINE
  5
5EF
100
AcDbEntity
  8
TRMODEL1
  6
CONTINUOUS
 62
     7
100
AcDbLine
 10
1.043624
 20
-0.780363
 30
0.0
 11
1.046591
 21
-0.774231
 31
0.0
  0
LINE
  5
5F0
100
AcDbEntity
  8
TRMODEL1
  6
CONTINUOUS
 62
     7
100
AcDbLine
 10
1.046591
 20
-0.774231
 30
0.0
 11
1.049445
 21
-0.768146
 31
0.0
  0
LINE
  5
5F1
100
AcDbEntity
  8
TRMODEL1
  6
CONTINUOUS
 62
     7
100
AcDbLine
 10
1.049445
 20
-0.768146
 30
0.0
 11
1.052185
 21
-0.762107
 31
0.0
  0
LINE
  5
5F2
100
AcDbEntity
  8
TRMODEL1
  6
CONTINUOUS
 62
     7
100
AcDbLine
 10
1.052185
 20
-0.762107
 30
0.0
 11
1.054813
 21
-0.75611
 31
0.0
  0
LINE
  5
5F3
100
AcDbEntity
  8
TRMODEL1
  6
CONTINUOUS
 62
     7
100
AcDbLine
 10
1.054813
 20
-0.75611
 30
0.0
 11
1.057332
 21
-0.750153
 31
0.0
  0
LINE
  5
5F4
100
AcDbEntity
  8
TRMODEL1
  6
CONTINUOUS
 62
     7
100
AcDbLine
 10
1.057332
 20
-0.750153
 30
0.0
 11
1.059741
 21
-0.744235
 31
0.0
  0
LINE
  5
5F5
100
AcDbEntity
  8
TRMODEL1
  6
CONTINUOUS
 62
     7
100
AcDbLine
 10
1.059741
 20
-0.744235
 30
0.0
 11
1.062042
 21
-0.738352
 31
0.0
  0
LINE
  5
5F6
100
AcDbEntity
  8
TRMODEL1
  6
CONTINUOUS
 62
     7
100
AcDbLine
 10
1.062042
 20
-0.738352
 30
0.0
 11
1.064236
 21
-0.732503
 31
0.0
  0
LINE
  5
5F7
100
AcDbEntity
  8
TRMODEL1
  6
CONTINUOUS
 62
     7
100
AcDbLine
 10
1.064236
 20
-0.732503
 30
0.0
 11
1.066324
 21
-0.726686
 31
0.0
  0
LINE
  5
5F8
100
AcDbEntity
  8
TRMODEL1
  6
CONTINUOUS
 62
     7
100
AcDbLine
 10
1.066324
 20
-0.726686
 30
0.0
 11
1.068306
 21
-0.720897
 31
0.0
  0
LINE
  5
5F9
100
AcDbEntity
  8
TRMODEL1
  6
CONTINUOUS
 62
     7
100
AcDbLine
 10
1.068306
 20
-0.720897
 30
0.0
 11
1.070185
 21
-0.715136
 31
0.0
  0
LINE
  5
5FA
100
AcDbEntity
  8
TRMODEL1
  6
CONTINUOUS
 62
     7
100
AcDbLine
 10
1.070185
 20
-0.715136
 30
0.0
 11
1.07196
 21
-0.7094
 31
0.0
  0
LINE
  5
5FB
100
AcDbEntity
  8
TRMODEL1
  6
CONTINUOUS
 62
     7
100
AcDbLine
 10
1.07196
 20
-0.7094
 30
0.0
 11
1.073631
 21
-0.703687
 31
0.0
  0
LINE
  5
5FC
100
AcDbEntity
  8
TRMODEL1
  6
CONTINUOUS
 62
     7
100
AcDbLine
 10
1.073631
 20
-0.703687
 30
0.0
 11
1.075201
 21
-0.697994
 31
0.0
  0
LINE
  5
5FD
100
AcDbEntity
  8
TRMODEL1
  6
CONTINUOUS
 62
     7
100
AcDbLine
 10
1.075201
 20
-0.697994
 30
0.0
 11
1.076668
 21
-0.692321
 31
0.0
  0
LINE
  5
5FE
100
AcDbEntity
  8
TRMODEL1
  6
CONTINUOUS
 62
     7
100
AcDbLine
 10
1.076668
 20
-0.692321
 30
0.0
 11
1.078034
 21
-0.686664
 31
0.0
  0
LINE
  5
5FF
100
AcDbEntity
  8
TRMODEL1
  6
CONTINUOUS
 62
     7
100
AcDbLine
 10
1.078034
 20
-0.686664
 30
0.0
 11
1.079299
 21
-0.681022
 31
0.0
  0
LINE
  5
600
100
AcDbEntity
  8
TRMODEL1
  6
CONTINUOUS
 62
     7
100
AcDbLine
 10
1.079299
 20
-0.681022
 30
0.0
 11
1.080463
 21
-0.675392
 31
0.0
  0
LINE
  5
601
100
AcDbEntity
  8
TRMODEL1
  6
CONTINUOUS
 62
     7
100
AcDbLine
 10
1.080463
 20
-0.675392
 30
0.0
 11
1.081526
 21
-0.669773
 31
0.0
  0
LINE
  5
602
100
AcDbEntity
  8
TRMODEL1
  6
CONTINUOUS
 62
     7
100
AcDbLine
 10
1.081526
 20
-0.669773
 30
0.0
 11
1.082489
 21
-0.664163
 31
0.0
  0
LINE
  5
603
100
AcDbEntity
  8
TRMODEL1
  6
CONTINUOUS
 62
     7
100
AcDbLine
 10
1.082489
 20
-0.664163
 30
0.0
 11
1.083351
 21
-0.658559
 31
0.0
  0
LINE
  5
604
100
AcDbEntity
  8
TRMODEL1
  6
CONTINUOUS
 62
     7
100
AcDbLine
 10
1.083351
 20
-0.658559
 30
0.0
 11
1.084113
 21
-0.65296
 31
0.0
  0
LINE
  5
605
100
AcDbEntity
  8
TRMODEL1
  6
CONTINUOUS
 62
     7
100
AcDbLine
 10
1.084113
 20
-0.65296
 30
0.0
 11
1.084774
 21
-0.647363
 31
0.0
  0
LINE
  5
606
100
AcDbEntity
  8
TRMODEL1
  6
CONTINUOUS
 62
     7
100
AcDbLine
 10
1.084774
 20
-0.647363
 30
0.0
 11
1.085334
 21
-0.641767
 31
0.0
  0
LINE
  5
607
100
AcDbEntity
  8
TRMODEL1
  6
CONTINUOUS
 62
     7
100
AcDbLine
 10
1.085334
 20
-0.641767
 30
0.0
 11
1.085794
 21
-0.636169
 31
0.0
  0
LINE
  5
608
100
AcDbEntity
  8
TRMODEL1
  6
CONTINUOUS
 62
     7
100
AcDbLine
 10
1.085794
 20
-0.636169
 30
0.0
 11
1.086152
 21
-0.630567
 31
0.0
  0
LINE
  5
609
100
AcDbEntity
  8
TRMODEL1
  6
CONTINUOUS
 62
     7
100
AcDbLine
 10
1.086152
 20
-0.630567
 30
0.0
 11
1.086408
 21
-0.62496
 31
0.0
  0
LINE
  5
60A
100
AcDbEntity
  8
TRMODEL1
  6
CONTINUOUS
 62
     7
100
AcDbLine
 10
1.086408
 20
-0.62496
 30
0.0
 11
1.086563
 21
-0.619344
 31
0.0
  0
LINE
  5
60B
100
AcDbEntity
  8
TRMODEL1
  6
CONTINUOUS
 62
     7
100
AcDbLine
 10
1.086563
 20
-0.619344
 30
0.0
 11
1.086614
 21
-0.613719
 31
0.0
  0
LINE
  5
60C
100
AcDbEntity
  8
TRMODEL1
  6
CONTINUOUS
 62
     7
100
AcDbLine
 10
1.086614
 20
-0.613719
 30
0.0
 11
1.086614
 21
-0.708661
 31
0.0
  0
LINE
  5
60D
100
AcDbEntity
  8
TRMODEL1
  6
CONTINUOUS
 62
     7
100
AcDbLine
 10
1.086614
 20
0.0
 30
0.0
 11
1.086563
 21
0.011251
 31
0.0
  0
LINE
  5
60E
100
AcDbEntity
  8
TRMODEL1
  6
CONTINUOUS
 62
     7
100
AcDbLine
 10
1.086563
 20
0.011251
 30
0.0
 11
1.086408
 21
0.022482
 31
0.0
  0
LINE
  5
60F
100
AcDbEntity
  8
TRMODEL1
  6
CONTINUOUS
 62
     7
100
AcDbLine
 10
1.086408
 20
0.022482
 30
0.0
 11
1.086152
 21
0.033697
 31
0.0
  0
LINE
  5
610
100
AcDbEntity
  8
TRMODEL1
  6
CONTINUOUS
 62
     7
100
AcDbLine
 10
1.086152
 20
0.033697
 30
0.0
 11
1.085794
 21
0.0449
 31
0.0
  0
LINE
  5
611
100
AcDbEntity
  8
TRMODEL1
  6
CONTINUOUS
 62
     7
100
AcDbLine
 10
1.085794
 20
0.0449
 30
0.0
 11
1.085334
 21
0.056096
 31
0.0
  0
LINE
  5
612
100
AcDbEntity
  8
TRMODEL1
  6
CONTINUOUS
 62
     7
100
AcDbLine
 10
1.085334
 20
0.056096
 30
0.0
 11
1.084774
 21
0.067289
 31
0.0
  0
LINE
  5
613
100
AcDbEntity
  8
TRMODEL1
  6
CONTINUOUS
 62
     7
100
AcDbLine
 10
1.084774
 20
0.067289
 30
0.0
 11
1.084113
 21
0.078482
 31
0.0
  0
LINE
  5
614
100
AcDbEntity
  8
TRMODEL1
  6
CONTINUOUS
 62
     7
100
AcDbLine
 10
1.084113
 20
0.078482
 30
0.0
 11
1.083351
 21
0.089681
 31
0.0
  0
LINE
  5
615
100
AcDbEntity
  8
TRMODEL1
  6
CONTINUOUS
 62
     7
100
AcDbLine
 10
1.083351
 20
0.089681
 30
0.0
 11
1.082489
 21
0.100888
 31
0.0
  0
LINE
  5
616
100
AcDbEntity
  8
TRMODEL1
  6
CONTINUOUS
 62
     7
100
AcDbLine
 10
1.082489
 20
0.100888
 30
0.0
 11
1.081526
 21
0.112109
 31
0.0
  0
LINE
  5
617
100
AcDbEntity
  8
TRMODEL1
  6
CONTINUOUS
 62
     7
100
AcDbLine
 10
1.081526
 20
0.112109
 30
0.0
 11
1.080463
 21
0.123347
 31
0.0
  0
LINE
  5
618
100
AcDbEntity
  8
TRMODEL1
  6
CONTINUOUS
 62
     7
100
AcDbLine
 10
1.080463
 20
0.123347
 30
0.0
 11
1.079299
 21
0.134606
 31
0.0
  0
LINE
  5
619
100
AcDbEntity
  8
TRMODEL1
  6
CONTINUOUS
 62
     7
100
AcDbLine
 10
1.079299
 20
0.134606
 30
0.0
 11
1.078034
 21
0.14589
 31
0.0
  0
LINE
  5
61A
100
AcDbEntity
  8
TRMODEL1
  6
CONTINUOUS
 62
     7
100
AcDbLine
 10
1.078034
 20
0.14589
 30
0.0
 11
1.076668
 21
0.157204
 31
0.0
  0
LINE
  5
61B
100
AcDbEntity
  8
TRMODEL1
  6
CONTINUOUS
 62
     7
100
AcDbLine
 10
1.076668
 20
0.157204
 30
0.0
 11
1.075201
 21
0.168551
 31
0.0
  0
LINE
  5
61C
100
AcDbEntity
  8
TRMODEL1
  6
CONTINUOUS
 62
     7
100
AcDbLine
 10
1.075201
 20
0.168551
 30
0.0
 11
1.073631
 21
0.179936
 31
0.0
  0
LINE
  5
61D
100
AcDbEntity
  8
TRMODEL1
  6
CONTINUOUS
 62
     7
100
AcDbLine
 10
1.073631
 20
0.179936
 30
0.0
 11
1.07196
 21
0.191362
 31
0.0
  0
LINE
  5
61E
100
AcDbEntity
  8
TRMODEL1
  6
CONTINUOUS
 62
     7
100
AcDbLine
 10
1.07196
 20
0.191362
 30
0.0
 11
1.070185
 21
0.202834
 31
0.0
  0
LINE
  5
61F
100
AcDbEntity
  8
TRMODEL1
  6
CONTINUOUS
 62
     7
100
AcDbLine
 10
1.070185
 20
0.202834
 30
0.0
 11
1.068306
 21
0.214357
 31
0.0
  0
LINE
  5
620
100
AcDbEntity
  8
TRMODEL1
  6
CONTINUOUS
 62
     7
100
AcDbLine
 10
1.068306
 20
0.214357
 30
0.0
 11
1.066324
 21
0.225934
 31
0.0
  0
LINE
  5
621
100
AcDbEntity
  8
TRMODEL1
  6
CONTINUOUS
 62
     7
100
AcDbLine
 10
1.066324
 20
0.225934
 30
0.0
 11
1.064236
 21
0.237569
 31
0.0
  0
LINE
  5
622
100
AcDbEntity
  8
TRMODEL1
  6
CONTINUOUS
 62
     7
100
AcDbLine
 10
1.064236
 20
0.237569
 30
0.0
 11
1.062042
 21
0.249267
 31
0.0
  0
LINE
  5
623
100
AcDbEntity
  8
TRMODEL1
  6
CONTINUOUS
 62
     7
100
AcDbLine
 10
1.062042
 20
0.249267
 30
0.0
 11
1.059741
 21
0.261032
 31
0.0
  0
LINE
  5
624
100
AcDbEntity
  8
TRMODEL1
  6
CONTINUOUS
 62
     7
100
AcDbLine
 10
1.059741
 20
0.261032
 30
0.0
 11
1.057332
 21
0.272869
 31
0.0
  0
LINE
  5
625
100
AcDbEntity
  8
TRMODEL1
  6
CONTINUOUS
 62
     7
100
AcDbLine
 10
1.057332
 20
0.272869
 30
0.0
 11
1.054813
 21
0.284782
 31
0.0
  0
LINE
  5
626
100
AcDbEntity
  8
TRMODEL1
  6
CONTINUOUS
 62
     7
100
AcDbLine
 10
1.054813
 20
0.284782
 30
0.0
 11
1.052185
 21
0.296776
 31
0.0
  0
LINE
  5
627
100
AcDbEntity
  8
TRMODEL1
  6
CONTINUOUS
 62
     7
100
AcDbLine
 10
1.052185
 20
0.296776
 30
0.0
 11
1.049445
 21
0.308855
 31
0.0
  0
LINE
  5
628
100
AcDbEntity
  8
TRMODEL1
  6
CONTINUOUS
 62
     7
100
AcDbLine
 10
1.049445
 20
0.308855
 30
0.0
 11
1.046591
 21
0.321024
 31
0.0
  0
LINE
  5
629
100
AcDbEntity
  8
TRMODEL1
  6
CONTINUOUS
 62
     7
100
AcDbLine
 10
1.046591
 20
0.321024
 30
0.0
 11
1.043624
 21
0.333288
 31
0.0
  0
LINE
  5
62A
100
AcDbEntity
  8
TRMODEL1
  6
CONTINUOUS
 62
     7
100
AcDbLine
 10
1.043624
 20
0.333288
 30
0.0
 11
1.04054
 21
0.345652
 31
0.0
  0
LINE
  5
62B
100
AcDbEntity
  8
TRMODEL1
  6
CONTINUOUS
 62
     7
100
AcDbLine
 10
1.04054
 20
0.345652
 30
0.0
 11
1.037338
 21
0.35812
 31
0.0
  0
LINE
  5
62C
100
AcDbEntity
  8
TRMODEL1
  6
CONTINUOUS
 62
     7
100
AcDbLine
 10
1.037338
 20
0.35812
 30
0.0
 11
1.034018
 21
0.370699
 31
0.0
  0
LINE
  5
62D
100
AcDbEntity
  8
TRMODEL1
  6
CONTINUOUS
 62
     7
100
AcDbLine
 10
1.034018
 20
0.370699
 30
0.0
 11
1.030575
 21
0.383392
 31
0.0
  0
LINE
  5
62E
100
AcDbEntity
  8
TRMODEL1
  6
CONTINUOUS
 62
     7
100
AcDbLine
 10
1.030575
 20
0.383392
 30
0.0
 11
1.02701
 21
0.396206
 31
0.0
  0
LINE
  5
62F
100
AcDbEntity
  8
TRMODEL1
  6
CONTINUOUS
 62
     7
100
AcDbLine
 10
1.02701
 20
0.396206
 30
0.0
 11
1.023319
 21
0.409146
 31
0.0
  0
LINE
  5
630
100
AcDbEntity
  8
TRMODEL1
  6
CONTINUOUS
 62
     7
100
AcDbLine
 10
1.086614
 20
0.613719
 30
0.0
 11
1.086614
 21
0.0
 31
0.0
  0
LINE
  5
631
100
AcDbEntity
  8
TRMODEL1
  6
CONTINUOUS
 62
     7
100
AcDbLine
 10
1.023319
 20
0.409146
 30
0.0
 11
1.02701
 21
0.415616
 31
0.0
  0
LINE
  5
632
100
AcDbEntity
  8
TRMODEL1
  6
CONTINUOUS
 62
     7
100
AcDbLine
 10
1.02701
 20
0.415616
 30
0.0
 11
1.030575
 21
0.422023
 31
0.0
  0
LINE
  5
633
100
AcDbEntity
  8
TRMODEL1
  6
CONTINUOUS
 62
     7
100
AcDbLine
 10
1.030575
 20
0.422023
 30
0.0
 11
1.034018
 21
0.42837
 31
0.0
  0
LINE
  5
634
100
AcDbEntity
  8
TRMODEL1
  6
CONTINUOUS
 62
     7
100
AcDbLine
 10
1.034018
 20
0.42837
 30
0.0
 11
1.037338
 21
0.434659
 31
0.0
  0
LINE
  5
635
100
AcDbEntity
  8
TRMODEL1
  6
CONTINUOUS
 62
     7
100
AcDbLine
 10
1.037338
 20
0.434659
 30
0.0
 11
1.04054
 21
0.440893
 31
0.0
  0
LINE
  5
636
100
AcDbEntity
  8
TRMODEL1
  6
CONTINUOUS
 62
     7
100
AcDbLine
 10
1.04054
 20
0.440893
 30
0.0
 11
1.043624
 21
0.447075
 31
0.0
  0
LINE
  5
637
100
AcDbEntity
  8
TRMODEL1
  6
CONTINUOUS
 62
     7
100
AcDbLine
 10
1.043624
 20
0.447075
 30
0.0
 11
1.046591
 21
0.453207
 31
0.0
  0
LINE
  5
638
100
AcDbEntity
  8
TRMODEL1
  6
CONTINUOUS
 62
     7
100
AcDbLine
 10
1.046591
 20
0.453207
 30
0.0
 11
1.049445
 21
0.459291
 31
0.0
  0
LINE
  5
639
100
AcDbEntity
  8
TRMODEL1
  6
CONTINUOUS
 62
     7
100
AcDbLine
 10
1.049445
 20
0.459291
 30
0.0
 11
1.052185
 21
0.465331
 31
0.0
  0
LINE
  5
63A
100
AcDbEntity
  8
TRMODEL1
  6
CONTINUOUS
 62
     7
100
AcDbLine
 10
1.052185
 20
0.465331
 30
0.0
 11
1.054813
 21
0.471328
 31
0.0
  0
LINE
  5
63B
100
AcDbEntity
  8
TRMODEL1
  6
CONTINUOUS
 62
     7
100
AcDbLine
 10
1.054813
 20
0.471328
 30
0.0
 11
1.057332
 21
0.477284
 31
0.0
  0
LINE
  5
63C
100
AcDbEntity
  8
TRMODEL1
  6
CONTINUOUS
 62
     7
100
AcDbLine
 10
1.057332
 20
0.477284
 30
0.0
 11
1.059741
 21
0.483203
 31
0.0
  0
LINE
  5
63D
100
AcDbEntity
  8
TRMODEL1
  6
CONTINUOUS
 62
     7
100
AcDbLine
 10
1.059741
 20
0.483203
 30
0.0
 11
1.062042
 21
0.489085
 31
0.0
  0
LINE
  5
63E
100
AcDbEntity
  8
TRMODEL1
  6
CONTINUOUS
 62
     7
100
AcDbLine
 10
1.062042
 20
0.489085
 30
0.0
 11
1.064236
 21
0.494934
 31
0.0
  0
LINE
  5
63F
100
AcDbEntity
  8
TRMODEL1
  6
CONTINUOUS
 62
     7
100
AcDbLine
 10
1.064236
 20
0.494934
 30
0.0
 11
1.066324
 21
0.500752
 31
0.0
  0
LINE
  5
640
100
AcDbEntity
  8
TRMODEL1
  6
CONTINUOUS
 62
     7
100
AcDbLine
 10
1.066324
 20
0.500752
 30
0.0
 11
1.068306
 21
0.50654
 31
0.0
  0
LINE
  5
641
100
AcDbEntity
  8
TRMODEL1
  6
CONTINUOUS
 62
     7
100
AcDbLine
 10
1.068306
 20
0.50654
 30
0.0
 11
1.070185
 21
0.512302
 31
0.0
  0
LINE
  5
642
100
AcDbEntity
  8
TRMODEL1
  6
CONTINUOUS
 62
     7
100
AcDbLine
 10
1.070185
 20
0.512302
 30
0.0
 11
1.07196
 21
0.518038
 31
0.0
  0
LINE
  5
643
100
AcDbEntity
  8
TRMODEL1
  6
CONTINUOUS
 62
     7
100
AcDbLine
 10
1.07196
 20
0.518038
 30
0.0
 11
1.073631
 21
0.523751
 31
0.0
  0
LINE
  5
644
100
AcDbEntity
  8
TRMODEL1
  6
CONTINUOUS
 62
     7
100
AcDbLine
 10
1.073631
 20
0.523751
 30
0.0
 11
1.075201
 21
0.529443
 31
0.0
  0
LINE
  5
645
100
AcDbEntity
  8
TRMODEL1
  6
CONTINUOUS
 62
     7
100
AcDbLine
 10
1.075201
 20
0.529443
 30
0.0
 11
1.076668
 21
0.535117
 31
0.0
  0
LINE
  5
646
100
AcDbEntity
  8
TRMODEL1
  6
CONTINUOUS
 62
     7
100
AcDbLine
 10
1.076668
 20
0.535117
 30
0.0
 11
1.078034
 21
0.540774
 31
0.0
  0
LINE
  5
647
100
AcDbEntity
  8
TRMODEL1
  6
CONTINUOUS
 62
     7
100
AcDbLine
 10
1.078034
 20
0.540774
 30
0.0
 11
1.079299
 21
0.546416
 31
0.0
  0
LINE
  5
648
100
AcDbEntity
  8
TRMODEL1
  6
CONTINUOUS
 62
     7
100
AcDbLine
 10
1.079299
 20
0.546416
 30
0.0
 11
1.080463
 21
0.552046
 31
0.0
  0
LINE
  5
649
100
AcDbEntity
  8
TRMODEL1
  6
CONTINUOUS
 62
     7
100
AcDbLine
 10
1.080463
 20
0.552046
 30
0.0
 11
1.081526
 21
0.557664
 31
0.0
  0
LINE
  5
64A
100
AcDbEntity
  8
TRMODEL1
  6
CONTINUOUS
 62
     7
100
AcDbLine
 10
1.081526
 20
0.557664
 30
0.0
 11
1.082489
 21
0.563275
 31
0.0
  0
LINE
  5
64B
100
AcDbEntity
  8
TRMODEL1
  6
CONTINUOUS
 62
     7
100
AcDbLine
 10
1.082489
 20
0.563275
 30
0.0
 11
1.083351
 21
0.568878
 31
0.0
  0
LINE
  5
64C
100
AcDbEntity
  8
TRMODEL1
  6
CONTINUOUS
 62
     7
100
AcDbLine
 10
1.083351
 20
0.568878
 30
0.0
 11
1.084113
 21
0.574478
 31
0.0
  0
LINE
  5
64D
100
AcDbEntity
  8
TRMODEL1
  6
CONTINUOUS
 62
     7
100
AcDbLine
 10
1.084113
 20
0.574478
 30
0.0
 11
1.084774
 21
0.580074
 31
0.0
  0
LINE
  5
64E
100
AcDbEntity
  8
TRMODEL1
  6
CONTINUOUS
 62
     7
100
AcDbLine
 10
1.084774
 20
0.580074
 30
0.0
 11
1.085334
 21
0.585671
 31
0.0
  0
LINE
  5
64F
100
AcDbEntity
  8
TRMODEL1
  6
CONTINUOUS
 62
     7
100
AcDbLine
 10
1.085334
 20
0.585671
 30
0.0
 11
1.085794
 21
0.591269
 31
0.0
  0
LINE
  5
650
100
AcDbEntity
  8
TRMODEL1
  6
CONTINUOUS
 62
     7
100
AcDbLine
 10
1.085794
 20
0.591269
 30
0.0
 11
1.086152
 21
0.59687
 31
0.0
  0
LINE
  5
651
100
AcDbEntity
  8
TRMODEL1
  6
CONTINUOUS
 62
     7
100
AcDbLine
 10
1.086152
 20
0.59687
 30
0.0
 11
1.086408
 21
0.602478
 31
0.0
  0
LINE
  5
652
100
AcDbEntity
  8
TRMODEL1
  6
CONTINUOUS
 62
     7
100
AcDbLine
 10
1.086408
 20
0.602478
 30
0.0
 11
1.086563
 21
0.608093
 31
0.0
  0
LINE
  5
653
100
AcDbEntity
  8
TRMODEL1
  6
CONTINUOUS
 62
     7
100
AcDbLine
 10
1.086563
 20
0.608093
 30
0.0
 11
1.086614
 21
0.613719
 31
0.0
  0
LINE
  5
654
100
AcDbEntity
  8
TRMODEL1
  6
CONTINUOUS
 62
     7
100
AcDbLine
 10
1.023319
 20
-0.409146
 30
0.0
 11
1.02701
 21
-0.396206
 31
0.0
  0
LINE
  5
655
100
AcDbEntity
  8
TRMODEL1
  6
CONTINUOUS
 62
     7
100
AcDbLine
 10
1.02701
 20
-0.396206
 30
0.0
 11
1.030575
 21
-0.383392
 31
0.0
  0
LINE
  5
656
100
AcDbEntity
  8
TRMODEL1
  6
CONTINUOUS
 62
     7
100
AcDbLine
 10
1.030575
 20
-0.383392
 30
0.0
 11
1.034018
 21
-0.370699
 31
0.0
  0
LINE
  5
657
100
AcDbEntity
  8
TRMODEL1
  6
CONTINUOUS
 62
     7
100
AcDbLine
 10
1.034018
 20
-0.370699
 30
0.0
 11
1.037338
 21
-0.35812
 31
0.0
  0
LINE
  5
658
100
AcDbEntity
  8
TRMODEL1
  6
CONTINUOUS
 62
     7
100
AcDbLine
 10
1.037338
 20
-0.35812
 30
0.0
 11
1.04054
 21
-0.345652
 31
0.0
  0
LINE
  5
659
100
AcDbEntity
  8
TRMODEL1
  6
CONTINUOUS
 62
     7
100
AcDbLine
 10
1.04054
 20
-0.345652
 30
0.0
 11
1.043624
 21
-0.333288
 31
0.0
  0
LINE
  5
65A
100
AcDbEntity
  8
TRMODEL1
  6
CONTINUOUS
 62
     7
100
AcDbLine
 10
1.043624
 20
-0.333288
 30
0.0
 11
1.046591
 21
-0.321024
 31
0.0
  0
LINE
  5
65B
100
AcDbEntity
  8
TRMODEL1
  6
CONTINUOUS
 62
     7
100
AcDbLine
 10
1.046591
 20
-0.321024
 30
0.0
 11
1.049445
 21
-0.308855
 31
0.0
  0
LINE
  5
65C
100
AcDbEntity
  8
TRMODEL1
  6
CONTINUOUS
 62
     7
100
AcDbLine
 10
1.049445
 20
-0.308855
 30
0.0
 11
1.052185
 21
-0.296776
 31
0.0
  0
LINE
  5
65D
100
AcDbEntity
  8
TRMODEL1
  6
CONTINUOUS
 62
     7
100
AcDbLine
 10
1.052185
 20
-0.296776
 30
0.0
 11
1.054813
 21
-0.284782
 31
0.0
  0
LINE
  5
65E
100
AcDbEntity
  8
TRMODEL1
  6
CONTINUOUS
 62
     7
100
AcDbLine
 10
1.054813
 20
-0.284782
 30
0.0
 11
1.057332
 21
-0.272869
 31
0.0
  0
LINE
  5
65F
100
AcDbEntity
  8
TRMODEL1
  6
CONTINUOUS
 62
     7
100
AcDbLine
 10
1.057332
 20
-0.272869
 30
0.0
 11
1.059741
 21
-0.261032
 31
0.0
  0
LINE
  5
660
100
AcDbEntity
  8
TRMODEL1
  6
CONTINUOUS
 62
     7
100
AcDbLine
 10
1.059741
 20
-0.261032
 30
0.0
 11
1.062042
 21
-0.249267
 31
0.0
  0
LINE
  5
661
100
AcDbEntity
  8
TRMODEL1
  6
CONTINUOUS
 62
     7
100
AcDbLine
 10
1.062042
 20
-0.249267
 30
0.0
 11
1.064236
 21
-0.237569
 31
0.0
  0
LINE
  5
662
100
AcDbEntity
  8
TRMODEL1
  6
CONTINUOUS
 62
     7
100
AcDbLine
 10
1.064236
 20
-0.237569
 30
0.0
 11
1.066324
 21
-0.225934
 31
0.0
  0
LINE
  5
663
100
AcDbEntity
  8
TRMODEL1
  6
CONTINUOUS
 62
     7
100
AcDbLine
 10
1.066324
 20
-0.225934
 30
0.0
 11
1.068306
 21
-0.214357
 31
0.0
  0
LINE
  5
664
100
AcDbEntity
  8
TRMODEL1
  6
CONTINUOUS
 62
     7
100
AcDbLine
 10
1.068306
 20
-0.214357
 30
0.0
 11
1.070185
 21
-0.202834
 31
0.0
  0
LINE
  5
665
100
AcDbEntity
  8
TRMODEL1
  6
CONTINUOUS
 62
     7
100
AcDbLine
 10
1.070185
 20
-0.202834
 30
0.0
 11
1.07196
 21
-0.191362
 31
0.0
  0
LINE
  5
666
100
AcDbEntity
  8
TRMODEL1
  6
CONTINUOUS
 62
     7
100
AcDbLine
 10
1.07196
 20
-0.191362
 30
0.0
 11
1.073631
 21
-0.179936
 31
0.0
  0
LINE
  5
667
100
AcDbEntity
  8
TRMODEL1
  6
CONTINUOUS
 62
     7
100
AcDbLine
 10
1.073631
 20
-0.179936
 30
0.0
 11
1.075201
 21
-0.168551
 31
0.0
  0
LINE
  5
668
100
AcDbEntity
  8
TRMODEL1
  6
CONTINUOUS
 62
     7
100
AcDbLine
 10
1.075201
 20
-0.168551
 30
0.0
 11
1.076668
 21
-0.157204
 31
0.0
  0
LINE
  5
669
100
AcDbEntity
  8
TRMODEL1
  6
CONTINUOUS
 62
     7
100
AcDbLine
 10
1.076668
 20
-0.157204
 30
0.0
 11
1.078034
 21
-0.14589
 31
0.0
  0
LINE
  5
66A
100
AcDbEntity
  8
TRMODEL1
  6
CONTINUOUS
 62
     7
100
AcDbLine
 10
1.078034
 20
-0.14589
 30
0.0
 11
1.079299
 21
-0.134606
 31
0.0
  0
LINE
  5
66B
100
AcDbEntity
  8
TRMODEL1
  6
CONTINUOUS
 62
     7
100
AcDbLine
 10
1.079299
 20
-0.134606
 30
0.0
 11
1.080463
 21
-0.123347
 31
0.0
  0
LINE
  5
66C
100
AcDbEntity
  8
TRMODEL1
  6
CONTINUOUS
 62
     7
100
AcDbLine
 10
1.080463
 20
-0.123347
 30
0.0
 11
1.081526
 21
-0.112109
 31
0.0
  0
LINE
  5
66D
100
AcDbEntity
  8
TRMODEL1
  6
CONTINUOUS
 62
     7
100
AcDbLine
 10
1.081526
 20
-0.112109
 30
0.0
 11
1.082489
 21
-0.100888
 31
0.0
  0
LINE
  5
66E
100
AcDbEntity
  8
TRMODEL1
  6
CONTINUOUS
 62
     7
100
AcDbLine
 10
1.082489
 20
-0.100888
 30
0.0
 11
1.083351
 21
-0.089681
 31
0.0
  0
LINE
  5
66F
100
AcDbEntity
  8
TRMODEL1
  6
CONTINUOUS
 62
     7
100
AcDbLine
 10
1.083351
 20
-0.089681
 30
0.0
 11
1.084113
 21
-0.078482
 31
0.0
  0
LINE
  5
670
100
AcDbEntity
  8
TRMODEL1
  6
CONTINUOUS
 62
     7
100
AcDbLine
 10
1.084113
 20
-0.078482
 30
0.0
 11
1.084774
 21
-0.067289
 31
0.0
  0
LINE
  5
671
100
AcDbEntity
  8
TRMODEL1
  6
CONTINUOUS
 62
     7
100
AcDbLine
 10
1.084774
 20
-0.067289
 30
0.0
 11
1.085334
 21
-0.056096
 31
0.0
  0
LINE
  5
672
100
AcDbEntity
  8
TRMODEL1
  6
CONTINUOUS
 62
     7
100
AcDbLine
 10
1.085334
 20
-0.056096
 30
0.0
 11
1.085794
 21
-0.0449
 31
0.0
  0
LINE
  5
673
100
AcDbEntity
  8
TRMODEL1
  6
CONTINUOUS
 62
     7
100
AcDbLine
 10
1.085794
 20
-0.0449
 30
0.0
 11
1.086152
 21
-0.033697
 31
0.0
  0
LINE
  5
674
100
AcDbEntity
  8
TRMODEL1
  6
CONTINUOUS
 62
     7
100
AcDbLine
 10
1.086152
 20
-0.033697
 30
0.0
 11
1.086408
 21
-0.022482
 31
0.0
  0
LINE
  5
675
100
AcDbEntity
  8
TRMODEL1
  6
CONTINUOUS
 62
     7
100
AcDbLine
 10
1.086408
 20
-0.022482
 30
0.0
 11
1.086563
 21
-0.011251
 31
0.0
  0
LINE
  5
676
100
AcDbEntity
  8
TRMODEL1
  6
CONTINUOUS
 62
     7
100
AcDbLine
 10
1.086563
 20
-0.011251
 30
0.0
 11
1.086614
 21
0.0
 31
0.0
  0
LINE
  5
677
100
AcDbEntity
  8
TRMODEL1
  6
CONTINUOUS
 62
     7
100
AcDbLine
 10
1.086614
 20
-0.613719
 30
0.0
 11
1.086563
 21
-0.608093
 31
0.0
  0
LINE
  5
678
100
AcDbEntity
  8
TRMODEL1
  6
CONTINUOUS
 62
     7
100
AcDbLine
 10
1.086563
 20
-0.608093
 30
0.0
 11
1.086408
 21
-0.602478
 31
0.0
  0
LINE
  5
679
100
AcDbEntity
  8
TRMODEL1
  6
CONTINUOUS
 62
     7
100
AcDbLine
 10
1.086408
 20
-0.602478
 30
0.0
 11
1.086152
 21
-0.59687
 31
0.0
  0
LINE
  5
67A
100
AcDbEntity
  8
TRMODEL1
  6
CONTINUOUS
 62
     7
100
AcDbLine
 10
1.086152
 20
-0.59687
 30
0.0
 11
1.085794
 21
-0.591269
 31
0.0
  0
LINE
  5
67B
100
AcDbEntity
  8
TRMODEL1
  6
CONTINUOUS
 62
     7
100
AcDbLine
 10
1.085794
 20
-0.591269
 30
0.0
 11
1.085334
 21
-0.585671
 31
0.0
  0
LINE
  5
67C
100
AcDbEntity
  8
TRMODEL1
  6
CONTINUOUS
 62
     7
100
AcDbLine
 10
1.085334
 20
-0.585671
 30
0.0
 11
1.084774
 21
-0.580074
 31
0.0
  0
LINE
  5
67D
100
AcDbEntity
  8
TRMODEL1
  6
CONTINUOUS
 62
     7
100
AcDbLine
 10
1.084774
 20
-0.580074
 30
0.0
 11
1.084113
 21
-0.574478
 31
0.0
  0
LINE
  5
67E
100
AcDbEntity
  8
TRMODEL1
  6
CONTINUOUS
 62
     7
100
AcDbLine
 10
1.084113
 20
-0.574478
 30
0.0
 11
1.083351
 21
-0.568878
 31
0.0
  0
LINE
  5
67F
100
AcDbEntity
  8
TRMODEL1
  6
CONTINUOUS
 62
     7
100
AcDbLine
 10
1.083351
 20
-0.568878
 30
0.0
 11
1.082489
 21
-0.563275
 31
0.0
  0
LINE
  5
680
100
AcDbEntity
  8
TRMODEL1
  6
CONTINUOUS
 62
     7
100
AcDbLine
 10
1.082489
 20
-0.563275
 30
0.0
 11
1.081526
 21
-0.557664
 31
0.0
  0
LINE
  5
681
100
AcDbEntity
  8
TRMODEL1
  6
CONTINUOUS
 62
     7
100
AcDbLine
 10
1.081526
 20
-0.557664
 30
0.0
 11
1.080463
 21
-0.552046
 31
0.0
  0
LINE
  5
682
100
AcDbEntity
  8
TRMODEL1
  6
CONTINUOUS
 62
     7
100
AcDbLine
 10
1.080463
 20
-0.552046
 30
0.0
 11
1.079299
 21
-0.546416
 31
0.0
  0
LINE
  5
683
100
AcDbEntity
  8
TRMODEL1
  6
CONTINUOUS
 62
     7
100
AcDbLine
 10
1.079299
 20
-0.546416
 30
0.0
 11
1.078034
 21
-0.540774
 31
0.0
  0
LINE
  5
684
100
AcDbEntity
  8
TRMODEL1
  6
CONTINUOUS
 62
     7
100
AcDbLine
 10
1.078034
 20
-0.540774
 30
0.0
 11
1.076668
 21
-0.535117
 31
0.0
  0
LINE
  5
685
100
AcDbEntity
  8
TRMODEL1
  6
CONTINUOUS
 62
     7
100
AcDbLine
 10
1.076668
 20
-0.535117
 30
0.0
 11
1.075201
 21
-0.529443
 31
0.0
  0
LINE
  5
686
100
AcDbEntity
  8
TRMODEL1
  6
CONTINUOUS
 62
     7
100
AcDbLine
 10
1.075201
 20
-0.529443
 30
0.0
 11
1.073631
 21
-0.523751
 31
0.0
  0
LINE
  5
687
100
AcDbEntity
  8
TRMODEL1
  6
CONTINUOUS
 62
     7
100
AcDbLine
 10
1.073631
 20
-0.523751
 30
0.0
 11
1.07196
 21
-0.518038
 31
0.0
  0
LINE
  5
688
100
AcDbEntity
  8
TRMODEL1
  6
CONTINUOUS
 62
     7
100
AcDbLine
 10
1.07196
 20
-0.518038
 30
0.0
 11
1.070185
 21
-0.512302
 31
0.0
  0
LINE
  5
689
100
AcDbEntity
  8
TRMODEL1
  6
CONTINUOUS
 62
     7
100
AcDbLine
 10
1.070185
 20
-0.512302
 30
0.0
 11
1.068306
 21
-0.50654
 31
0.0
  0
LINE
  5
68A
100
AcDbEntity
  8
TRMODEL1
  6
CONTINUOUS
 62
     7
100
AcDbLine
 10
1.068306
 20
-0.50654
 30
0.0
 11
1.066324
 21
-0.500752
 31
0.0
  0
LINE
  5
68B
100
AcDbEntity
  8
TRMODEL1
  6
CONTINUOUS
 62
     7
100
AcDbLine
 10
1.066324
 20
-0.500752
 30
0.0
 11
1.064236
 21
-0.494934
 31
0.0
  0
LINE
  5
68C
100
AcDbEntity
  8
TRMODEL1
  6
CONTINUOUS
 62
     7
100
AcDbLine
 10
1.064236
 20
-0.494934
 30
0.0
 11
1.062042
 21
-0.489085
 31
0.0
  0
LINE
  5
68D
100
AcDbEntity
  8
TRMODEL1
  6
CONTINUOUS
 62
     7
100
AcDbLine
 10
1.062042
 20
-0.489085
 30
0.0
 11
1.059741
 21
-0.483203
 31
0.0
  0
LINE
  5
68E
100
AcDbEntity
  8
TRMODEL1
  6
CONTINUOUS
 62
     7
100
AcDbLine
 10
1.059741
 20
-0.483203
 30
0.0
 11
1.057332
 21
-0.477284
 31
0.0
  0
LINE
  5
68F
100
AcDbEntity
  8
TRMODEL1
  6
CONTINUOUS
 62
     7
100
AcDbLine
 10
1.057332
 20
-0.477284
 30
0.0
 11
1.054813
 21
-0.471328
 31
0.0
  0
LINE
  5
690
100
AcDbEntity
  8
TRMODEL1
  6
CONTINUOUS
 62
     7
100
AcDbLine
 10
1.054813
 20
-0.471328
 30
0.0
 11
1.052185
 21
-0.465331
 31
0.0
  0
LINE
  5
691
100
AcDbEntity
  8
TRMODEL1
  6
CONTINUOUS
 62
     7
100
AcDbLine
 10
1.052185
 20
-0.465331
 30
0.0
 11
1.049445
 21
-0.459291
 31
0.0
  0
LINE
  5
692
100
AcDbEntity
  8
TRMODEL1
  6
CONTINUOUS
 62
     7
100
AcDbLine
 10
1.049445
 20
-0.459291
 30
0.0
 11
1.046591
 21
-0.453207
 31
0.0
  0
LINE
  5
693
100
AcDbEntity
  8
TRMODEL1
  6
CONTINUOUS
 62
     7
100
AcDbLine
 10
1.046591
 20
-0.453207
 30
0.0
 11
1.043624
 21
-0.447075
 31
0.0
  0
LINE
  5
694
100
AcDbEntity
  8
TRMODEL1
  6
CONTINUOUS
 62
     7
100
AcDbLine
 10
1.043624
 20
-0.447075
 30
0.0
 11
1.04054
 21
-0.440893
 31
0.0
  0
LINE
  5
695
100
AcDbEntity
  8
TRMODEL1
  6
CONTINUOUS
 62
     7
100
AcDbLine
 10
1.04054
 20
-0.440893
 30
0.0
 11
1.037338
 21
-0.434659
 31
0.0
  0
LINE
  5
696
100
AcDbEntity
  8
TRMODEL1
  6
CONTINUOUS
 62
     7
100
AcDbLine
 10
1.037338
 20
-0.434659
 30
0.0
 11
1.034018
 21
-0.42837
 31
0.0
  0
LINE
  5
697
100
AcDbEntity
  8
TRMODEL1
  6
CONTINUOUS
 62
     7
100
AcDbLine
 10
1.034018
 20
-0.42837
 30
0.0
 11
1.030575
 21
-0.422023
 31
0.0
  0
LINE
  5
698
100
AcDbEntity
  8
TRMODEL1
  6
CONTINUOUS
 62
     7
100
AcDbLine
 10
1.030575
 20
-0.422023
 30
0.0
 11
1.02701
 21
-0.415616
 31
0.0
  0
LINE
  5
699
100
AcDbEntity
  8
TRMODEL1
  6
CONTINUOUS
 62
     7
100
AcDbLine
 10
1.02701
 20
-0.415616
 30
0.0
 11
1.023319
 21
-0.409146
 31
0.0
  0
LINE
  5
69A
100
AcDbEntity
  8
TRMODEL1
  6
CONTINUOUS
 62
     7
100
AcDbLine
 10
1.086614
 20
0.0
 30
0.0
 11
1.086614
 21
-0.613719
 31
0.0
  0
LINE
  5
69B
100
AcDbEntity
  8
TRMODEL1
  6
CONTINUOUS
 62
     7
100
AcDbLine
 10
1.023319
 20
0.409146
 30
0.0
 11
0.953059
 21
0.409146
 31
0.0
  0
LINE
  5
69C
100
AcDbEntity
  8
TRMODEL1
  6
CONTINUOUS
 62
     7
100
AcDbLine
 10
0.953059
 20
0.409146
 30
0.0
 11
0.949368
 21
0.396206
 31
0.0
  0
LINE
  5
69D
100
AcDbEntity
  8
TRMODEL1
  6
CONTINUOUS
 62
     7
100
AcDbLine
 10
0.949368
 20
0.396206
 30
0.0
 11
0.945803
 21
0.383392
 31
0.0
  0
LINE
  5
69E
100
AcDbEntity
  8
TRMODEL1
  6
CONTINUOUS
 62
     7
100
AcDbLine
 10
0.945803
 20
0.383392
 30
0.0
 11
0.94236
 21
0.370699
 31
0.0
  0
LINE
  5
69F
100
AcDbEntity
  8
TRMODEL1
  6
CONTINUOUS
 62
     7
100
AcDbLine
 10
0.94236
 20
0.370699
 30
0.0
 11
0.939039
 21
0.35812
 31
0.0
  0
LINE
  5
6A0
100
AcDbEntity
  8
TRMODEL1
  6
CONTINUOUS
 62
     7
100
AcDbLine
 10
0.939039
 20
0.35812
 30
0.0
 11
0.935838
 21
0.345652
 31
0.0
  0
LINE
  5
6A1
100
AcDbEntity
  8
TRMODEL1
  6
CONTINUOUS
 62
     7
100
AcDbLine
 10
0.935838
 20
0.345652
 30
0.0
 11
0.932754
 21
0.333288
 31
0.0
  0
LINE
  5
6A2
100
AcDbEntity
  8
TRMODEL1
  6
CONTINUOUS
 62
     7
100
AcDbLine
 10
0.932754
 20
0.333288
 30
0.0
 11
0.929787
 21
0.321024
 31
0.0
  0
LINE
  5
6A3
100
AcDbEntity
  8
TRMODEL1
  6
CONTINUOUS
 62
     7
100
AcDbLine
 10
0.929787
 20
0.321024
 30
0.0
 11
0.926933
 21
0.308855
 31
0.0
  0
LINE
  5
6A4
100
AcDbEntity
  8
TRMODEL1
  6
CONTINUOUS
 62
     7
100
AcDbLine
 10
0.926933
 20
0.308855
 30
0.0
 11
0.924193
 21
0.296776
 31
0.0
  0
LINE
  5
6A5
100
AcDbEntity
  8
TRMODEL1
  6
CONTINUOUS
 62
     7
100
AcDbLine
 10
0.924193
 20
0.296776
 30
0.0
 11
0.921565
 21
0.284782
 31
0.0
  0
LINE
  5
6A6
100
AcDbEntity
  8
TRMODEL1
  6
CONTINUOUS
 62
     7
100
AcDbLine
 10
0.921565
 20
0.284782
 30
0.0
 11
0.919046
 21
0.272869
 31
0.0
  0
LINE
  5
6A7
100
AcDbEntity
  8
TRMODEL1
  6
CONTINUOUS
 62
     7
100
AcDbLine
 10
0.919046
 20
0.272869
 30
0.0
 11
0.916637
 21
0.261032
 31
0.0
  0
LINE
  5
6A8
100
AcDbEntity
  8
TRMODEL1
  6
CONTINUOUS
 62
     7
100
AcDbLine
 10
0.916637
 20
0.261032
 30
0.0
 11
0.914336
 21
0.249267
 31
0.0
  0
LINE
  5
6A9
100
AcDbEntity
  8
TRMODEL1
  6
CONTINUOUS
 62
     7
100
AcDbLine
 10
0.914336
 20
0.249267
 30
0.0
 11
0.912142
 21
0.237569
 31
0.0
  0
LINE
  5
6AA
100
AcDbEntity
  8
TRMODEL1
  6
CONTINUOUS
 62
     7
100
AcDbLine
 10
0.912142
 20
0.237569
 30
0.0
 11
0.910054
 21
0.225934
 31
0.0
  0
LINE
  5
6AB
100
AcDbEntity
  8
TRMODEL1
  6
CONTINUOUS
 62
     7
100
AcDbLine
 10
0.910054
 20
0.225934
 30
0.0
 11
0.908072
 21
0.214357
 31
0.0
  0
LINE
  5
6AC
100
AcDbEntity
  8
TRMODEL1
  6
CONTINUOUS
 62
     7
100
AcDbLine
 10
0.908072
 20
0.214357
 30
0.0
 11
0.906193
 21
0.202834
 31
0.0
  0
LINE
  5
6AD
100
AcDbEntity
  8
TRMODEL1
  6
CONTINUOUS
 62
     7
100
AcDbLine
 10
0.906193
 20
0.202834
 30
0.0
 11
0.904418
 21
0.191362
 31
0.0
  0
LINE
  5
6AE
100
AcDbEntity
  8
TRMODEL1
  6
CONTINUOUS
 62
     7
100
AcDbLine
 10
0.904418
 20
0.191362
 30
0.0
 11
0.902747
 21
0.179936
 31
0.0
  0
LINE
  5
6AF
100
AcDbEntity
  8
TRMODEL1
  6
CONTINUOUS
 62
     7
100
AcDbLine
 10
0.902747
 20
0.179936
 30
0.0
 11
0.901177
 21
0.168551
 31
0.0
  0
LINE
  5
6B0
100
AcDbEntity
  8
TRMODEL1
  6
CONTINUOUS
 62
     7
100
AcDbLine
 10
0.901177
 20
0.168551
 30
0.0
 11
0.89971
 21
0.157204
 31
0.0
  0
LINE
  5
6B1
100
AcDbEntity
  8
TRMODEL1
  6
CONTINUOUS
 62
     7
100
AcDbLine
 10
0.89971
 20
0.157204
 30
0.0
 11
0.898344
 21
0.14589
 31
0.0
  0
LINE
  5
6B2
100
AcDbEntity
  8
TRMODEL1
  6
CONTINUOUS
 62
     7
100
AcDbLine
 10
0.898344
 20
0.14589
 30
0.0
 11
0.897079
 21
0.134606
 31
0.0
  0
LINE
  5
6B3
100
AcDbEntity
  8
TRMODEL1
  6
CONTINUOUS
 62
     7
100
AcDbLine
 10
0.897079
 20
0.134606
 30
0.0
 11
0.895915
 21
0.123347
 31
0.0
  0
LINE
  5
6B4
100
AcDbEntity
  8
TRMODEL1
  6
CONTINUOUS
 62
     7
100
AcDbLine
 10
0.895915
 20
0.123347
 30
0.0
 11
0.894852
 21
0.112109
 31
0.0
  0
LINE
  5
6B5
100
AcDbEntity
  8
TRMODEL1
  6
CONTINUOUS
 62
     7
100
AcDbLine
 10
0.894852
 20
0.112109
 30
0.0
 11
0.893889
 21
0.100888
 31
0.0
  0
LINE
  5
6B6
100
AcDbEntity
  8
TRMODEL1
  6
CONTINUOUS
 62
     7
100
AcDbLine
 10
0.893889
 20
0.100888
 30
0.0
 11
0.893027
 21
0.089681
 31
0.0
  0
LINE
  5
6B7
100
AcDbEntity
  8
TRMODEL1
  6
CONTINUOUS
 62
     7
100
AcDbLine
 10
0.893027
 20
0.089681
 30
0.0
 11
0.892265
 21
0.078482
 31
0.0
  0
LINE
  5
6B8
100
AcDbEntity
  8
TRMODEL1
  6
CONTINUOUS
 62
     7
100
AcDbLine
 10
0.892265
 20
0.078482
 30
0.0
 11
0.891604
 21
0.067289
 31
0.0
  0
LINE
  5
6B9
100
AcDbEntity
  8
TRMODEL1
  6
CONTINUOUS
 62
     7
100
AcDbLine
 10
0.891604
 20
0.067289
 30
0.0
 11
0.891044
 21
0.056096
 31
0.0
  0
LINE
  5
6BA
100
AcDbEntity
  8
TRMODEL1
  6
CONTINUOUS
 62
     7
100
AcDbLine
 10
0.891044
 20
0.056096
 30
0.0
 11
0.890584
 21
0.0449
 31
0.0
  0
LINE
  5
6BB
100
AcDbEntity
  8
TRMODEL1
  6
CONTINUOUS
 62
     7
100
AcDbLine
 10
0.890584
 20
0.0449
 30
0.0
 11
0.890226
 21
0.033697
 31
0.0
  0
LINE
  5
6BC
100
AcDbEntity
  8
TRMODEL1
  6
CONTINUOUS
 62
     7
100
AcDbLine
 10
0.890226
 20
0.033697
 30
0.0
 11
0.88997
 21
0.022482
 31
0.0
  0
LINE
  5
6BD
100
AcDbEntity
  8
TRMODEL1
  6
CONTINUOUS
 62
     7
100
AcDbLine
 10
0.88997
 20
0.022482
 30
0.0
 11
0.889815
 21
0.011251
 31
0.0
  0
LINE
  5
6BE
100
AcDbEntity
  8
TRMODEL1
  6
CONTINUOUS
 62
     7
100
AcDbLine
 10
0.889815
 20
0.011251
 30
0.0
 11
0.889764
 21
0.0
 31
0.0
  0
LINE
  5
6BF
100
AcDbEntity
  8
TRMODEL1
  6
CONTINUOUS
 62
     7
100
AcDbLine
 10
0.889764
 20
0.0
 30
0.0
 11
0.889815
 21
-0.011251
 31
0.0
  0
LINE
  5
6C0
100
AcDbEntity
  8
TRMODEL1
  6
CONTINUOUS
 62
     7
100
AcDbLine
 10
0.889815
 20
-0.011251
 30
0.0
 11
0.88997
 21
-0.022482
 31
0.0
  0
LINE
  5
6C1
100
AcDbEntity
  8
TRMODEL1
  6
CONTINUOUS
 62
     7
100
AcDbLine
 10
0.88997
 20
-0.022482
 30
0.0
 11
0.890226
 21
-0.033697
 31
0.0
  0
LINE
  5
6C2
100
AcDbEntity
  8
TRMODEL1
  6
CONTINUOUS
 62
     7
100
AcDbLine
 10
0.890226
 20
-0.033697
 30
0.0
 11
0.890584
 21
-0.0449
 31
0.0
  0
LINE
  5
6C3
100
AcDbEntity
  8
TRMODEL1
  6
CONTINUOUS
 62
     7
100
AcDbLine
 10
0.890584
 20
-0.0449
 30
0.0
 11
0.891044
 21
-0.056096
 31
0.0
  0
LINE
  5
6C4
100
AcDbEntity
  8
TRMODEL1
  6
CONTINUOUS
 62
     7
100
AcDbLine
 10
0.891044
 20
-0.056096
 30
0.0
 11
0.891604
 21
-0.067289
 31
0.0
  0
LINE
  5
6C5
100
AcDbEntity
  8
TRMODEL1
  6
CONTINUOUS
 62
     7
100
AcDbLine
 10
0.891604
 20
-0.067289
 30
0.0
 11
0.892265
 21
-0.078482
 31
0.0
  0
LINE
  5
6C6
100
AcDbEntity
  8
TRMODEL1
  6
CONTINUOUS
 62
     7
100
AcDbLine
 10
0.892265
 20
-0.078482
 30
0.0
 11
0.893027
 21
-0.089681
 31
0.0
  0
LINE
  5
6C7
100
AcDbEntity
  8
TRMODEL1
  6
CONTINUOUS
 62
     7
100
AcDbLine
 10
0.893027
 20
-0.089681
 30
0.0
 11
0.893889
 21
-0.100888
 31
0.0
  0
LINE
  5
6C8
100
AcDbEntity
  8
TRMODEL1
  6
CONTINUOUS
 62
     7
100
AcDbLine
 10
0.893889
 20
-0.100888
 30
0.0
 11
0.894852
 21
-0.112109
 31
0.0
  0
LINE
  5
6C9
100
AcDbEntity
  8
TRMODEL1
  6
CONTINUOUS
 62
     7
100
AcDbLine
 10
0.894852
 20
-0.112109
 30
0.0
 11
0.895915
 21
-0.123347
 31
0.0
  0
LINE
  5
6CA
100
AcDbEntity
  8
TRMODEL1
  6
CONTINUOUS
 62
     7
100
AcDbLine
 10
0.895915
 20
-0.123347
 30
0.0
 11
0.897079
 21
-0.134606
 31
0.0
  0
LINE
  5
6CB
100
AcDbEntity
  8
TRMODEL1
  6
CONTINUOUS
 62
     7
100
AcDbLine
 10
0.897079
 20
-0.134606
 30
0.0
 11
0.898344
 21
-0.14589
 31
0.0
  0
LINE
  5
6CC
100
AcDbEntity
  8
TRMODEL1
  6
CONTINUOUS
 62
     7
100
AcDbLine
 10
0.898344
 20
-0.14589
 30
0.0
 11
0.89971
 21
-0.157204
 31
0.0
  0
LINE
  5
6CD
100
AcDbEntity
  8
TRMODEL1
  6
CONTINUOUS
 62
     7
100
AcDbLine
 10
0.89971
 20
-0.157204
 30
0.0
 11
0.901177
 21
-0.168551
 31
0.0
  0
LINE
  5
6CE
100
AcDbEntity
  8
TRMODEL1
  6
CONTINUOUS
 62
     7
100
AcDbLine
 10
0.901177
 20
-0.168551
 30
0.0
 11
0.902747
 21
-0.179936
 31
0.0
  0
LINE
  5
6CF
100
AcDbEntity
  8
TRMODEL1
  6
CONTINUOUS
 62
     7
100
AcDbLine
 10
0.902747
 20
-0.179936
 30
0.0
 11
0.904418
 21
-0.191362
 31
0.0
  0
LINE
  5
6D0
100
AcDbEntity
  8
TRMODEL1
  6
CONTINUOUS
 62
     7
100
AcDbLine
 10
0.904418
 20
-0.191362
 30
0.0
 11
0.906193
 21
-0.202834
 31
0.0
  0
LINE
  5
6D1
100
AcDbEntity
  8
TRMODEL1
  6
CONTINUOUS
 62
     7
100
AcDbLine
 10
0.906193
 20
-0.202834
 30
0.0
 11
0.908072
 21
-0.214357
 31
0.0
  0
LINE
  5
6D2
100
AcDbEntity
  8
TRMODEL1
  6
CONTINUOUS
 62
     7
100
AcDbLine
 10
0.908072
 20
-0.214357
 30
0.0
 11
0.910054
 21
-0.225934
 31
0.0
  0
LINE
  5
6D3
100
AcDbEntity
  8
TRMODEL1
  6
CONTINUOUS
 62
     7
100
AcDbLine
 10
0.910054
 20
-0.225934
 30
0.0
 11
0.912142
 21
-0.237569
 31
0.0
  0
LINE
  5
6D4
100
AcDbEntity
  8
TRMODEL1
  6
CONTINUOUS
 62
     7
100
AcDbLine
 10
0.912142
 20
-0.237569
 30
0.0
 11
0.914336
 21
-0.249267
 31
0.0
  0
LINE
  5
6D5
100
AcDbEntity
  8
TRMODEL1
  6
CONTINUOUS
 62
     7
100
AcDbLine
 10
0.914336
 20
-0.249267
 30
0.0
 11
0.916637
 21
-0.261032
 31
0.0
  0
LINE
  5
6D6
100
AcDbEntity
  8
TRMODEL1
  6
CONTINUOUS
 62
     7
100
AcDbLine
 10
0.916637
 20
-0.261032
 30
0.0
 11
0.919046
 21
-0.272869
 31
0.0
  0
LINE
  5
6D7
100
AcDbEntity
  8
TRMODEL1
  6
CONTINUOUS
 62
     7
100
AcDbLine
 10
0.919046
 20
-0.272869
 30
0.0
 11
0.921565
 21
-0.284782
 31
0.0
  0
LINE
  5
6D8
100
AcDbEntity
  8
TRMODEL1
  6
CONTINUOUS
 62
     7
100
AcDbLine
 10
0.921565
 20
-0.284782
 30
0.0
 11
0.924193
 21
-0.296776
 31
0.0
  0
LINE
  5
6D9
100
AcDbEntity
  8
TRMODEL1
  6
CONTINUOUS
 62
     7
100
AcDbLine
 10
0.924193
 20
-0.296776
 30
0.0
 11
0.926933
 21
-0.308855
 31
0.0
  0
LINE
  5
6DA
100
AcDbEntity
  8
TRMODEL1
  6
CONTINUOUS
 62
     7
100
AcDbLine
 10
0.926933
 20
-0.308855
 30
0.0
 11
0.929787
 21
-0.321024
 31
0.0
  0
LINE
  5
6DB
100
AcDbEntity
  8
TRMODEL1
  6
CONTINUOUS
 62
     7
100
AcDbLine
 10
0.929787
 20
-0.321024
 30
0.0
 11
0.932754
 21
-0.333288
 31
0.0
  0
LINE
  5
6DC
100
AcDbEntity
  8
TRMODEL1
  6
CONTINUOUS
 62
     7
100
AcDbLine
 10
0.932754
 20
-0.333288
 30
0.0
 11
0.935838
 21
-0.345652
 31
0.0
  0
LINE
  5
6DD
100
AcDbEntity
  8
TRMODEL1
  6
CONTINUOUS
 62
     7
100
AcDbLine
 10
0.935838
 20
-0.345652
 30
0.0
 11
0.939039
 21
-0.35812
 31
0.0
  0
LINE
  5
6DE
100
AcDbEntity
  8
TRMODEL1
  6
CONTINUOUS
 62
     7
100
AcDbLine
 10
0.939039
 20
-0.35812
 30
0.0
 11
0.94236
 21
-0.370699
 31
0.0
  0
LINE
  5
6DF
100
AcDbEntity
  8
TRMODEL1
  6
CONTINUOUS
 62
     7
100
AcDbLine
 10
0.94236
 20
-0.370699
 30
0.0
 11
0.945803
 21
-0.383392
 31
0.0
  0
LINE
  5
6E0
100
AcDbEntity
  8
TRMODEL1
  6
CONTINUOUS
 62
     7
100
AcDbLine
 10
0.945803
 20
-0.383392
 30
0.0
 11
0.949368
 21
-0.396206
 31
0.0
  0
LINE
  5
6E1
100
AcDbEntity
  8
TRMODEL1
  6
CONTINUOUS
 62
     7
100
AcDbLine
 10
0.949368
 20
-0.396206
 30
0.0
 11
0.953059
 21
-0.409146
 31
0.0
  0
LINE
  5
6E2
100
AcDbEntity
  8
TRMODEL1
  6
CONTINUOUS
 62
     7
100
AcDbLine
 10
1.023319
 20
-0.409146
 30
0.0
 11
0.953059
 21
-0.409146
 31
0.0
  0
LINE
  5
6E3
100
AcDbEntity
  8
TRMODEL1
  6
CONTINUOUS
 62
     7
100
AcDbLine
 10
1.023319
 20
0.818292
 30
0.0
 11
0.953059
 21
0.818292
 31
0.0
  0
LINE
  5
6E4
100
AcDbEntity
  8
TRMODEL1
  6
CONTINUOUS
 62
     7
100
AcDbLine
 10
0.953059
 20
0.818292
 30
0.0
 11
0.949368
 21
0.811822
 31
0.0
  0
LINE
  5
6E5
100
AcDbEntity
  8
TRMODEL1
  6
CONTINUOUS
 62
     7
100
AcDbLine
 10
0.949368
 20
0.811822
 30
0.0
 11
0.945803
 21
0.805415
 31
0.0
  0
LINE
  5
6E6
100
AcDbEntity
  8
TRMODEL1
  6
CONTINUOUS
 62
     7
100
AcDbLine
 10
0.945803
 20
0.805415
 30
0.0
 11
0.94236
 21
0.799068
 31
0.0
  0
LINE
  5
6E7
100
AcDbEntity
  8
TRMODEL1
  6
CONTINUOUS
 62
     7
100
AcDbLine
 10
0.94236
 20
0.799068
 30
0.0
 11
0.939039
 21
0.792779
 31
0.0
  0
LINE
  5
6E8
100
AcDbEntity
  8
TRMODEL1
  6
CONTINUOUS
 62
     7
100
AcDbLine
 10
0.939039
 20
0.792779
 30
0.0
 11
0.935838
 21
0.786545
 31
0.0
  0
LINE
  5
6E9
100
AcDbEntity
  8
TRMODEL1
  6
CONTINUOUS
 62
     7
100
AcDbLine
 10
0.935838
 20
0.786545
 30
0.0
 11
0.932754
 21
0.780363
 31
0.0
  0
LINE
  5
6EA
100
AcDbEntity
  8
TRMODEL1
  6
CONTINUOUS
 62
     7
100
AcDbLine
 10
0.932754
 20
0.780363
 30
0.0
 11
0.929787
 21
0.774231
 31
0.0
  0
LINE
  5
6EB
100
AcDbEntity
  8
TRMODEL1
  6
CONTINUOUS
 62
     7
100
AcDbLine
 10
0.929787
 20
0.774231
 30
0.0
 11
0.926933
 21
0.768146
 31
0.0
  0
LINE
  5
6EC
100
AcDbEntity
  8
TRMODEL1
  6
CONTINUOUS
 62
     7
100
AcDbLine
 10
0.926933
 20
0.768146
 30
0.0
 11
0.924193
 21
0.762107
 31
0.0
  0
LINE
  5
6ED
100
AcDbEntity
  8
TRMODEL1
  6
CONTINUOUS
 62
     7
100
AcDbLine
 10
0.924193
 20
0.762107
 30
0.0
 11
0.921565
 21
0.75611
 31
0.0
  0
LINE
  5
6EE
100
AcDbEntity
  8
TRMODEL1
  6
CONTINUOUS
 62
     7
100
AcDbLine
 10
0.921565
 20
0.75611
 30
0.0
 11
0.919046
 21
0.750153
 31
0.0
  0
LINE
  5
6EF
100
AcDbEntity
  8
TRMODEL1
  6
CONTINUOUS
 62
     7
100
AcDbLine
 10
0.919046
 20
0.750153
 30
0.0
 11
0.916637
 21
0.744235
 31
0.0
  0
LINE
  5
6F0
100
AcDbEntity
  8
TRMODEL1
  6
CONTINUOUS
 62
     7
100
AcDbLine
 10
0.916637
 20
0.744235
 30
0.0
 11
0.914336
 21
0.738352
 31
0.0
  0
LINE
  5
6F1
100
AcDbEntity
  8
TRMODEL1
  6
CONTINUOUS
 62
     7
100
AcDbLine
 10
0.914336
 20
0.738352
 30
0.0
 11
0.912142
 21
0.732503
 31
0.0
  0
LINE
  5
6F2
100
AcDbEntity
  8
TRMODEL1
  6
CONTINUOUS
 62
     7
100
AcDbLine
 10
0.912142
 20
0.732503
 30
0.0
 11
0.910054
 21
0.726686
 31
0.0
  0
LINE
  5
6F3
100
AcDbEntity
  8
TRMODEL1
  6
CONTINUOUS
 62
     7
100
AcDbLine
 10
0.910054
 20
0.726686
 30
0.0
 11
0.908072
 21
0.720897
 31
0.0
  0
LINE
  5
6F4
100
AcDbEntity
  8
TRMODEL1
  6
CONTINUOUS
 62
     7
100
AcDbLine
 10
0.908072
 20
0.720897
 30
0.0
 11
0.906193
 21
0.715136
 31
0.0
  0
LINE
  5
6F5
100
AcDbEntity
  8
TRMODEL1
  6
CONTINUOUS
 62
     7
100
AcDbLine
 10
0.906193
 20
0.715136
 30
0.0
 11
0.904418
 21
0.7094
 31
0.0
  0
LINE
  5
6F6
100
AcDbEntity
  8
TRMODEL1
  6
CONTINUOUS
 62
     7
100
AcDbLine
 10
0.904418
 20
0.7094
 30
0.0
 11
0.902747
 21
0.703687
 31
0.0
  0
LINE
  5
6F7
100
AcDbEntity
  8
TRMODEL1
  6
CONTINUOUS
 62
     7
100
AcDbLine
 10
0.902747
 20
0.703687
 30
0.0
 11
0.901177
 21
0.697994
 31
0.0
  0
LINE
  5
6F8
100
AcDbEntity
  8
TRMODEL1
  6
CONTINUOUS
 62
     7
100
AcDbLine
 10
0.901177
 20
0.697994
 30
0.0
 11
0.89971
 21
0.692321
 31
0.0
  0
LINE
  5
6F9
100
AcDbEntity
  8
TRMODEL1
  6
CONTINUOUS
 62
     7
100
AcDbLine
 10
0.89971
 20
0.692321
 30
0.0
 11
0.898344
 21
0.686664
 31
0.0
  0
LINE
  5
6FA
100
AcDbEntity
  8
TRMODEL1
  6
CONTINUOUS
 62
     7
100
AcDbLine
 10
0.898344
 20
0.686664
 30
0.0
 11
0.897079
 21
0.681022
 31
0.0
  0
LINE
  5
6FB
100
AcDbEntity
  8
TRMODEL1
  6
CONTINUOUS
 62
     7
100
AcDbLine
 10
0.897079
 20
0.681022
 30
0.0
 11
0.895915
 21
0.675392
 31
0.0
  0
LINE
  5
6FC
100
AcDbEntity
  8
TRMODEL1
  6
CONTINUOUS
 62
     7
100
AcDbLine
 10
0.895915
 20
0.675392
 30
0.0
 11
0.894852
 21
0.669773
 31
0.0
  0
LINE
  5
6FD
100
AcDbEntity
  8
TRMODEL1
  6
CONTINUOUS
 62
     7
100
AcDbLine
 10
0.894852
 20
0.669773
 30
0.0
 11
0.893889
 21
0.664163
 31
0.0
  0
LINE
  5
6FE
100
AcDbEntity
  8
TRMODEL1
  6
CONTINUOUS
 62
     7
100
AcDbLine
 10
0.893889
 20
0.664163
 30
0.0
 11
0.893027
 21
0.658559
 31
0.0
  0
LINE
  5
6FF
100
AcDbEntity
  8
TRMODEL1
  6
CONTINUOUS
 62
     7
100
AcDbLine
 10
0.893027
 20
0.658559
 30
0.0
 11
0.892265
 21
0.65296
 31
0.0
  0
LINE
  5
700
100
AcDbEntity
  8
TRMODEL1
  6
CONTINUOUS
 62
     7
100
AcDbLine
 10
0.892265
 20
0.65296
 30
0.0
 11
0.891604
 21
0.647363
 31
0.0
  0
LINE
  5
701
100
AcDbEntity
  8
TRMODEL1
  6
CONTINUOUS
 62
     7
100
AcDbLine
 10
0.891604
 20
0.647363
 30
0.0
 11
0.891044
 21
0.641767
 31
0.0
  0
LINE
  5
702
100
AcDbEntity
  8
TRMODEL1
  6
CONTINUOUS
 62
     7
100
AcDbLine
 10
0.891044
 20
0.641767
 30
0.0
 11
0.890584
 21
0.636169
 31
0.0
  0
LINE
  5
703
100
AcDbEntity
  8
TRMODEL1
  6
CONTINUOUS
 62
     7
100
AcDbLine
 10
0.890584
 20
0.636169
 30
0.0
 11
0.890226
 21
0.630567
 31
0.0
  0
LINE
  5
704
100
AcDbEntity
  8
TRMODEL1
  6
CONTINUOUS
 62
     7
100
AcDbLine
 10
0.890226
 20
0.630567
 30
0.0
 11
0.88997
 21
0.62496
 31
0.0
  0
LINE
  5
705
100
AcDbEntity
  8
TRMODEL1
  6
CONTINUOUS
 62
     7
100
AcDbLine
 10
0.88997
 20
0.62496
 30
0.0
 11
0.889815
 21
0.619344
 31
0.0
  0
LINE
  5
706
100
AcDbEntity
  8
TRMODEL1
  6
CONTINUOUS
 62
     7
100
AcDbLine
 10
0.889815
 20
0.619344
 30
0.0
 11
0.889764
 21
0.613719
 31
0.0
  0
LINE
  5
707
100
AcDbEntity
  8
TRMODEL1
  6
CONTINUOUS
 62
     7
100
AcDbLine
 10
0.889764
 20
0.613719
 30
0.0
 11
0.889815
 21
0.608093
 31
0.0
  0
LINE
  5
708
100
AcDbEntity
  8
TRMODEL1
  6
CONTINUOUS
 62
     7
100
AcDbLine
 10
0.889815
 20
0.608093
 30
0.0
 11
0.88997
 21
0.602478
 31
0.0
  0
LINE
  5
709
100
AcDbEntity
  8
TRMODEL1
  6
CONTINUOUS
 62
     7
100
AcDbLine
 10
0.88997
 20
0.602478
 30
0.0
 11
0.890226
 21
0.59687
 31
0.0
  0
LINE
  5
70A
100
AcDbEntity
  8
TRMODEL1
  6
CONTINUOUS
 62
     7
100
AcDbLine
 10
0.890226
 20
0.59687
 30
0.0
 11
0.890584
 21
0.591269
 31
0.0
  0
LINE
  5
70B
100
AcDbEntity
  8
TRMODEL1
  6
CONTINUOUS
 62
     7
100
AcDbLine
 10
0.890584
 20
0.591269
 30
0.0
 11
0.891044
 21
0.585671
 31
0.0
  0
LINE
  5
70C
100
AcDbEntity
  8
TRMODEL1
  6
CONTINUOUS
 62
     7
100
AcDbLine
 10
0.891044
 20
0.585671
 30
0.0
 11
0.891604
 21
0.580074
 31
0.0
  0
LINE
  5
70D
100
AcDbEntity
  8
TRMODEL1
  6
CONTINUOUS
 62
     7
100
AcDbLine
 10
0.891604
 20
0.580074
 30
0.0
 11
0.892265
 21
0.574478
 31
0.0
  0
LINE
  5
70E
100
AcDbEntity
  8
TRMODEL1
  6
CONTINUOUS
 62
     7
100
AcDbLine
 10
0.892265
 20
0.574478
 30
0.0
 11
0.893027
 21
0.568878
 31
0.0
  0
LINE
  5
70F
100
AcDbEntity
  8
TRMODEL1
  6
CONTINUOUS
 62
     7
100
AcDbLine
 10
0.893027
 20
0.568878
 30
0.0
 11
0.893889
 21
0.563275
 31
0.0
  0
LINE
  5
710
100
AcDbEntity
  8
TRMODEL1
  6
CONTINUOUS
 62
     7
100
AcDbLine
 10
0.893889
 20
0.563275
 30
0.0
 11
0.894852
 21
0.557664
 31
0.0
  0
LINE
  5
711
100
AcDbEntity
  8
TRMODEL1
  6
CONTINUOUS
 62
     7
100
AcDbLine
 10
0.894852
 20
0.557664
 30
0.0
 11
0.895915
 21
0.552046
 31
0.0
  0
LINE
  5
712
100
AcDbEntity
  8
TRMODEL1
  6
CONTINUOUS
 62
     7
100
AcDbLine
 10
0.895915
 20
0.552046
 30
0.0
 11
0.897079
 21
0.546416
 31
0.0
  0
LINE
  5
713
100
AcDbEntity
  8
TRMODEL1
  6
CONTINUOUS
 62
     7
100
AcDbLine
 10
0.897079
 20
0.546416
 30
0.0
 11
0.898344
 21
0.540774
 31
0.0
  0
LINE
  5
714
100
AcDbEntity
  8
TRMODEL1
  6
CONTINUOUS
 62
     7
100
AcDbLine
 10
0.898344
 20
0.540774
 30
0.0
 11
0.89971
 21
0.535117
 31
0.0
  0
LINE
  5
715
100
AcDbEntity
  8
TRMODEL1
  6
CONTINUOUS
 62
     7
100
AcDbLine
 10
0.89971
 20
0.535117
 30
0.0
 11
0.901177
 21
0.529443
 31
0.0
  0
LINE
  5
716
100
AcDbEntity
  8
TRMODEL1
  6
CONTINUOUS
 62
     7
100
AcDbLine
 10
0.901177
 20
0.529443
 30
0.0
 11
0.902747
 21
0.523751
 31
0.0
  0
LINE
  5
717
100
AcDbEntity
  8
TRMODEL1
  6
CONTINUOUS
 62
     7
100
AcDbLine
 10
0.902747
 20
0.523751
 30
0.0
 11
0.904418
 21
0.518038
 31
0.0
  0
LINE
  5
718
100
AcDbEntity
  8
TRMODEL1
  6
CONTINUOUS
 62
     7
100
AcDbLine
 10
0.904418
 20
0.518038
 30
0.0
 11
0.906193
 21
0.512302
 31
0.0
  0
LINE
  5
719
100
AcDbEntity
  8
TRMODEL1
  6
CONTINUOUS
 62
     7
100
AcDbLine
 10
0.906193
 20
0.512302
 30
0.0
 11
0.908072
 21
0.50654
 31
0.0
  0
LINE
  5
71A
100
AcDbEntity
  8
TRMODEL1
  6
CONTINUOUS
 62
     7
100
AcDbLine
 10
0.908072
 20
0.50654
 30
0.0
 11
0.910054
 21
0.500752
 31
0.0
  0
LINE
  5
71B
100
AcDbEntity
  8
TRMODEL1
  6
CONTINUOUS
 62
     7
100
AcDbLine
 10
0.910054
 20
0.500752
 30
0.0
 11
0.912142
 21
0.494934
 31
0.0
  0
LINE
  5
71C
100
AcDbEntity
  8
TRMODEL1
  6
CONTINUOUS
 62
     7
100
AcDbLine
 10
0.912142
 20
0.494934
 30
0.0
 11
0.914336
 21
0.489085
 31
0.0
  0
LINE
  5
71D
100
AcDbEntity
  8
TRMODEL1
  6
CONTINUOUS
 62
     7
100
AcDbLine
 10
0.914336
 20
0.489085
 30
0.0
 11
0.916637
 21
0.483203
 31
0.0
  0
LINE
  5
71E
100
AcDbEntity
  8
TRMODEL1
  6
CONTINUOUS
 62
     7
100
AcDbLine
 10
0.916637
 20
0.483203
 30
0.0
 11
0.919046
 21
0.477284
 31
0.0
  0
LINE
  5
71F
100
AcDbEntity
  8
TRMODEL1
  6
CONTINUOUS
 62
     7
100
AcDbLine
 10
0.919046
 20
0.477284
 30
0.0
 11
0.921565
 21
0.471328
 31
0.0
  0
LINE
  5
720
100
AcDbEntity
  8
TRMODEL1
  6
CONTINUOUS
 62
     7
100
AcDbLine
 10
0.921565
 20
0.471328
 30
0.0
 11
0.924193
 21
0.465331
 31
0.0
  0
LINE
  5
721
100
AcDbEntity
  8
TRMODEL1
  6
CONTINUOUS
 62
     7
100
AcDbLine
 10
0.924193
 20
0.465331
 30
0.0
 11
0.926933
 21
0.459291
 31
0.0
  0
LINE
  5
722
100
AcDbEntity
  8
TRMODEL1
  6
CONTINUOUS
 62
     7
100
AcDbLine
 10
0.926933
 20
0.459291
 30
0.0
 11
0.929787
 21
0.453207
 31
0.0
  0
LINE
  5
723
100
AcDbEntity
  8
TRMODEL1
  6
CONTINUOUS
 62
     7
100
AcDbLine
 10
0.929787
 20
0.453207
 30
0.0
 11
0.932754
 21
0.447075
 31
0.0
  0
LINE
  5
724
100
AcDbEntity
  8
TRMODEL1
  6
CONTINUOUS
 62
     7
100
AcDbLine
 10
0.932754
 20
0.447075
 30
0.0
 11
0.935838
 21
0.440893
 31
0.0
  0
LINE
  5
725
100
AcDbEntity
  8
TRMODEL1
  6
CONTINUOUS
 62
     7
100
AcDbLine
 10
0.935838
 20
0.440893
 30
0.0
 11
0.939039
 21
0.434659
 31
0.0
  0
LINE
  5
726
100
AcDbEntity
  8
TRMODEL1
  6
CONTINUOUS
 62
     7
100
AcDbLine
 10
0.939039
 20
0.434659
 30
0.0
 11
0.94236
 21
0.42837
 31
0.0
  0
LINE
  5
727
100
AcDbEntity
  8
TRMODEL1
  6
CONTINUOUS
 62
     7
100
AcDbLine
 10
0.94236
 20
0.42837
 30
0.0
 11
0.945803
 21
0.422023
 31
0.0
  0
LINE
  5
728
100
AcDbEntity
  8
TRMODEL1
  6
CONTINUOUS
 62
     7
100
AcDbLine
 10
0.945803
 20
0.422023
 30
0.0
 11
0.949368
 21
0.415616
 31
0.0
  0
LINE
  5
729
100
AcDbEntity
  8
TRMODEL1
  6
CONTINUOUS
 62
     7
100
AcDbLine
 10
0.949368
 20
0.415616
 30
0.0
 11
0.953059
 21
0.409146
 31
0.0
  0
LINE
  5
72A
100
AcDbEntity
  8
TRMODEL1
  6
CONTINUOUS
 62
     7
100
AcDbLine
 10
0.889764
 20
0.613719
 30
0.0
 11
0.889764
 21
0.708661
 31
0.0
  0
LINE
  5
72B
100
AcDbEntity
  8
TRMODEL1
  6
CONTINUOUS
 62
     7
100
AcDbLine
 10
0.889764
 20
0.0
 30
0.0
 11
0.889764
 21
0.613719
 31
0.0
  0
LINE
  5
72C
100
AcDbEntity
  8
TRMODEL1
  6
CONTINUOUS
 62
     7
100
AcDbLine
 10
0.889764
 20
-0.613719
 30
0.0
 11
0.889815
 21
-0.619344
 31
0.0
  0
LINE
  5
72D
100
AcDbEntity
  8
TRMODEL1
  6
CONTINUOUS
 62
     7
100
AcDbLine
 10
0.889815
 20
-0.619344
 30
0.0
 11
0.88997
 21
-0.62496
 31
0.0
  0
LINE
  5
72E
100
AcDbEntity
  8
TRMODEL1
  6
CONTINUOUS
 62
     7
100
AcDbLine
 10
0.88997
 20
-0.62496
 30
0.0
 11
0.890226
 21
-0.630567
 31
0.0
  0
LINE
  5
72F
100
AcDbEntity
  8
TRMODEL1
  6
CONTINUOUS
 62
     7
100
AcDbLine
 10
0.890226
 20
-0.630567
 30
0.0
 11
0.890584
 21
-0.636169
 31
0.0
  0
LINE
  5
730
100
AcDbEntity
  8
TRMODEL1
  6
CONTINUOUS
 62
     7
100
AcDbLine
 10
0.890584
 20
-0.636169
 30
0.0
 11
0.891044
 21
-0.641767
 31
0.0
  0
LINE
  5
731
100
AcDbEntity
  8
TRMODEL1
  6
CONTINUOUS
 62
     7
100
AcDbLine
 10
0.891044
 20
-0.641767
 30
0.0
 11
0.891604
 21
-0.647363
 31
0.0
  0
LINE
  5
732
100
AcDbEntity
  8
TRMODEL1
  6
CONTINUOUS
 62
     7
100
AcDbLine
 10
0.891604
 20
-0.647363
 30
0.0
 11
0.892265
 21
-0.65296
 31
0.0
  0
LINE
  5
733
100
AcDbEntity
  8
TRMODEL1
  6
CONTINUOUS
 62
     7
100
AcDbLine
 10
0.892265
 20
-0.65296
 30
0.0
 11
0.893027
 21
-0.658559
 31
0.0
  0
LINE
  5
734
100
AcDbEntity
  8
TRMODEL1
  6
CONTINUOUS
 62
     7
100
AcDbLine
 10
0.893027
 20
-0.658559
 30
0.0
 11
0.893889
 21
-0.664163
 31
0.0
  0
LINE
  5
735
100
AcDbEntity
  8
TRMODEL1
  6
CONTINUOUS
 62
     7
100
AcDbLine
 10
0.893889
 20
-0.664163
 30
0.0
 11
0.894852
 21
-0.669773
 31
0.0
  0
LINE
  5
736
100
AcDbEntity
  8
TRMODEL1
  6
CONTINUOUS
 62
     7
100
AcDbLine
 10
0.894852
 20
-0.669773
 30
0.0
 11
0.895915
 21
-0.675392
 31
0.0
  0
LINE
  5
737
100
AcDbEntity
  8
TRMODEL1
  6
CONTINUOUS
 62
     7
100
AcDbLine
 10
0.895915
 20
-0.675392
 30
0.0
 11
0.897079
 21
-0.681022
 31
0.0
  0
LINE
  5
738
100
AcDbEntity
  8
TRMODEL1
  6
CONTINUOUS
 62
     7
100
AcDbLine
 10
0.897079
 20
-0.681022
 30
0.0
 11
0.898344
 21
-0.686664
 31
0.0
  0
LINE
  5
739
100
AcDbEntity
  8
TRMODEL1
  6
CONTINUOUS
 62
     7
100
AcDbLine
 10
0.898344
 20
-0.686664
 30
0.0
 11
0.89971
 21
-0.692321
 31
0.0
  0
LINE
  5
73A
100
AcDbEntity
  8
TRMODEL1
  6
CONTINUOUS
 62
     7
100
AcDbLine
 10
0.89971
 20
-0.692321
 30
0.0
 11
0.901177
 21
-0.697994
 31
0.0
  0
LINE
  5
73B
100
AcDbEntity
  8
TRMODEL1
  6
CONTINUOUS
 62
     7
100
AcDbLine
 10
0.901177
 20
-0.697994
 30
0.0
 11
0.902747
 21
-0.703687
 31
0.0
  0
LINE
  5
73C
100
AcDbEntity
  8
TRMODEL1
  6
CONTINUOUS
 62
     7
100
AcDbLine
 10
0.902747
 20
-0.703687
 30
0.0
 11
0.904418
 21
-0.7094
 31
0.0
  0
LINE
  5
73D
100
AcDbEntity
  8
TRMODEL1
  6
CONTINUOUS
 62
     7
100
AcDbLine
 10
0.904418
 20
-0.7094
 30
0.0
 11
0.906193
 21
-0.715136
 31
0.0
  0
LINE
  5
73E
100
AcDbEntity
  8
TRMODEL1
  6
CONTINUOUS
 62
     7
100
AcDbLine
 10
0.906193
 20
-0.715136
 30
0.0
 11
0.908072
 21
-0.720897
 31
0.0
  0
LINE
  5
73F
100
AcDbEntity
  8
TRMODEL1
  6
CONTINUOUS
 62
     7
100
AcDbLine
 10
0.908072
 20
-0.720897
 30
0.0
 11
0.910054
 21
-0.726686
 31
0.0
  0
LINE
  5
740
100
AcDbEntity
  8
TRMODEL1
  6
CONTINUOUS
 62
     7
100
AcDbLine
 10
0.910054
 20
-0.726686
 30
0.0
 11
0.912142
 21
-0.732503
 31
0.0
  0
LINE
  5
741
100
AcDbEntity
  8
TRMODEL1
  6
CONTINUOUS
 62
     7
100
AcDbLine
 10
0.912142
 20
-0.732503
 30
0.0
 11
0.914336
 21
-0.738352
 31
0.0
  0
LINE
  5
742
100
AcDbEntity
  8
TRMODEL1
  6
CONTINUOUS
 62
     7
100
AcDbLine
 10
0.914336
 20
-0.738352
 30
0.0
 11
0.916637
 21
-0.744235
 31
0.0
  0
LINE
  5
743
100
AcDbEntity
  8
TRMODEL1
  6
CONTINUOUS
 62
     7
100
AcDbLine
 10
0.916637
 20
-0.744235
 30
0.0
 11
0.919046
 21
-0.750153
 31
0.0
  0
LINE
  5
744
100
AcDbEntity
  8
TRMODEL1
  6
CONTINUOUS
 62
     7
100
AcDbLine
 10
0.919046
 20
-0.750153
 30
0.0
 11
0.921565
 21
-0.75611
 31
0.0
  0
LINE
  5
745
100
AcDbEntity
  8
TRMODEL1
  6
CONTINUOUS
 62
     7
100
AcDbLine
 10
0.921565
 20
-0.75611
 30
0.0
 11
0.924193
 21
-0.762107
 31
0.0
  0
LINE
  5
746
100
AcDbEntity
  8
TRMODEL1
  6
CONTINUOUS
 62
     7
100
AcDbLine
 10
0.924193
 20
-0.762107
 30
0.0
 11
0.926933
 21
-0.768146
 31
0.0
  0
LINE
  5
747
100
AcDbEntity
  8
TRMODEL1
  6
CONTINUOUS
 62
     7
100
AcDbLine
 10
0.926933
 20
-0.768146
 30
0.0
 11
0.929787
 21
-0.774231
 31
0.0
  0
LINE
  5
748
100
AcDbEntity
  8
TRMODEL1
  6
CONTINUOUS
 62
     7
100
AcDbLine
 10
0.929787
 20
-0.774231
 30
0.0
 11
0.932754
 21
-0.780363
 31
0.0
  0
LINE
  5
749
100
AcDbEntity
  8
TRMODEL1
  6
CONTINUOUS
 62
     7
100
AcDbLine
 10
0.932754
 20
-0.780363
 30
0.0
 11
0.935838
 21
-0.786545
 31
0.0
  0
LINE
  5
74A
100
AcDbEntity
  8
TRMODEL1
  6
CONTINUOUS
 62
     7
100
AcDbLine
 10
0.935838
 20
-0.786545
 30
0.0
 11
0.939039
 21
-0.792779
 31
0.0
  0
LINE
  5
74B
100
AcDbEntity
  8
TRMODEL1
  6
CONTINUOUS
 62
     7
100
AcDbLine
 10
0.939039
 20
-0.792779
 30
0.0
 11
0.94236
 21
-0.799068
 31
0.0
  0
LINE
  5
74C
100
AcDbEntity
  8
TRMODEL1
  6
CONTINUOUS
 62
     7
100
AcDbLine
 10
0.94236
 20
-0.799068
 30
0.0
 11
0.945803
 21
-0.805415
 31
0.0
  0
LINE
  5
74D
100
AcDbEntity
  8
TRMODEL1
  6
CONTINUOUS
 62
     7
100
AcDbLine
 10
0.945803
 20
-0.805415
 30
0.0
 11
0.949368
 21
-0.811822
 31
0.0
  0
LINE
  5
74E
100
AcDbEntity
  8
TRMODEL1
  6
CONTINUOUS
 62
     7
100
AcDbLine
 10
0.949368
 20
-0.811822
 30
0.0
 11
0.953059
 21
-0.818292
 31
0.0
  0
LINE
  5
74F
100
AcDbEntity
  8
TRMODEL1
  6
CONTINUOUS
 62
     7
100
AcDbLine
 10
0.889764
 20
-0.708661
 30
0.0
 11
0.889764
 21
-0.613719
 31
0.0
  0
LINE
  5
750
100
AcDbEntity
  8
TRMODEL1
  6
CONTINUOUS
 62
     7
100
AcDbLine
 10
0.953059
 20
-0.409146
 30
0.0
 11
0.949368
 21
-0.415616
 31
0.0
  0
LINE
  5
751
100
AcDbEntity
  8
TRMODEL1
  6
CONTINUOUS
 62
     7
100
AcDbLine
 10
0.949368
 20
-0.415616
 30
0.0
 11
0.945803
 21
-0.422023
 31
0.0
  0
LINE
  5
752
100
AcDbEntity
  8
TRMODEL1
  6
CONTINUOUS
 62
     7
100
AcDbLine
 10
0.945803
 20
-0.422023
 30
0.0
 11
0.94236
 21
-0.42837
 31
0.0
  0
LINE
  5
753
100
AcDbEntity
  8
TRMODEL1
  6
CONTINUOUS
 62
     7
100
AcDbLine
 10
0.94236
 20
-0.42837
 30
0.0
 11
0.939039
 21
-0.434659
 31
0.0
  0
LINE
  5
754
100
AcDbEntity
  8
TRMODEL1
  6
CONTINUOUS
 62
     7
100
AcDbLine
 10
0.939039
 20
-0.434659
 30
0.0
 11
0.935838
 21
-0.440893
 31
0.0
  0
LINE
  5
755
100
AcDbEntity
  8
TRMODEL1
  6
CONTINUOUS
 62
     7
100
AcDbLine
 10
0.935838
 20
-0.440893
 30
0.0
 11
0.932754
 21
-0.447075
 31
0.0
  0
LINE
  5
756
100
AcDbEntity
  8
TRMODEL1
  6
CONTINUOUS
 62
     7
100
AcDbLine
 10
0.932754
 20
-0.447075
 30
0.0
 11
0.929787
 21
-0.453207
 31
0.0
  0
LINE
  5
757
100
AcDbEntity
  8
TRMODEL1
  6
CONTINUOUS
 62
     7
100
AcDbLine
 10
0.929787
 20
-0.453207
 30
0.0
 11
0.926933
 21
-0.459291
 31
0.0
  0
LINE
  5
758
100
AcDbEntity
  8
TRMODEL1
  6
CONTINUOUS
 62
     7
100
AcDbLine
 10
0.926933
 20
-0.459291
 30
0.0
 11
0.924193
 21
-0.465331
 31
0.0
  0
LINE
  5
759
100
AcDbEntity
  8
TRMODEL1
  6
CONTINUOUS
 62
     7
100
AcDbLine
 10
0.924193
 20
-0.465331
 30
0.0
 11
0.921565
 21
-0.471328
 31
0.0
  0
LINE
  5
75A
100
AcDbEntity
  8
TRMODEL1
  6
CONTINUOUS
 62
     7
100
AcDbLine
 10
0.921565
 20
-0.471328
 30
0.0
 11
0.919046
 21
-0.477284
 31
0.0
  0
LINE
  5
75B
100
AcDbEntity
  8
TRMODEL1
  6
CONTINUOUS
 62
     7
100
AcDbLine
 10
0.919046
 20
-0.477284
 30
0.0
 11
0.916637
 21
-0.483203
 31
0.0
  0
LINE
  5
75C
100
AcDbEntity
  8
TRMODEL1
  6
CONTINUOUS
 62
     7
100
AcDbLine
 10
0.916637
 20
-0.483203
 30
0.0
 11
0.914336
 21
-0.489085
 31
0.0
  0
LINE
  5
75D
100
AcDbEntity
  8
TRMODEL1
  6
CONTINUOUS
 62
     7
100
AcDbLine
 10
0.914336
 20
-0.489085
 30
0.0
 11
0.912142
 21
-0.494934
 31
0.0
  0
LINE
  5
75E
100
AcDbEntity
  8
TRMODEL1
  6
CONTINUOUS
 62
     7
100
AcDbLine
 10
0.912142
 20
-0.494934
 30
0.0
 11
0.910054
 21
-0.500752
 31
0.0
  0
LINE
  5
75F
100
AcDbEntity
  8
TRMODEL1
  6
CONTINUOUS
 62
     7
100
AcDbLine
 10
0.910054
 20
-0.500752
 30
0.0
 11
0.908072
 21
-0.50654
 31
0.0
  0
LINE
  5
760
100
AcDbEntity
  8
TRMODEL1
  6
CONTINUOUS
 62
     7
100
AcDbLine
 10
0.908072
 20
-0.50654
 30
0.0
 11
0.906193
 21
-0.512302
 31
0.0
  0
LINE
  5
761
100
AcDbEntity
  8
TRMODEL1
  6
CONTINUOUS
 62
     7
100
AcDbLine
 10
0.906193
 20
-0.512302
 30
0.0
 11
0.904418
 21
-0.518038
 31
0.0
  0
LINE
  5
762
100
AcDbEntity
  8
TRMODEL1
  6
CONTINUOUS
 62
     7
100
AcDbLine
 10
0.904418
 20
-0.518038
 30
0.0
 11
0.902747
 21
-0.523751
 31
0.0
  0
LINE
  5
763
100
AcDbEntity
  8
TRMODEL1
  6
CONTINUOUS
 62
     7
100
AcDbLine
 10
0.902747
 20
-0.523751
 30
0.0
 11
0.901177
 21
-0.529443
 31
0.0
  0
LINE
  5
764
100
AcDbEntity
  8
TRMODEL1
  6
CONTINUOUS
 62
     7
100
AcDbLine
 10
0.901177
 20
-0.529443
 30
0.0
 11
0.89971
 21
-0.535117
 31
0.0
  0
LINE
  5
765
100
AcDbEntity
  8
TRMODEL1
  6
CONTINUOUS
 62
     7
100
AcDbLine
 10
0.89971
 20
-0.535117
 30
0.0
 11
0.898344
 21
-0.540774
 31
0.0
  0
LINE
  5
766
100
AcDbEntity
  8
TRMODEL1
  6
CONTINUOUS
 62
     7
100
AcDbLine
 10
0.898344
 20
-0.540774
 30
0.0
 11
0.897079
 21
-0.546416
 31
0.0
  0
LINE
  5
767
100
AcDbEntity
  8
TRMODEL1
  6
CONTINUOUS
 62
     7
100
AcDbLine
 10
0.897079
 20
-0.546416
 30
0.0
 11
0.895915
 21
-0.552046
 31
0.0
  0
LINE
  5
768
100
AcDbEntity
  8
TRMODEL1
  6
CONTINUOUS
 62
     7
100
AcDbLine
 10
0.895915
 20
-0.552046
 30
0.0
 11
0.894852
 21
-0.557664
 31
0.0
  0
LINE
  5
769
100
AcDbEntity
  8
TRMODEL1
  6
CONTINUOUS
 62
     7
100
AcDbLine
 10
0.894852
 20
-0.557664
 30
0.0
 11
0.893889
 21
-0.563275
 31
0.0
  0
LINE
  5
76A
100
AcDbEntity
  8
TRMODEL1
  6
CONTINUOUS
 62
     7
100
AcDbLine
 10
0.893889
 20
-0.563275
 30
0.0
 11
0.893027
 21
-0.568878
 31
0.0
  0
LINE
  5
76B
100
AcDbEntity
  8
TRMODEL1
  6
CONTINUOUS
 62
     7
100
AcDbLine
 10
0.893027
 20
-0.568878
 30
0.0
 11
0.892265
 21
-0.574478
 31
0.0
  0
LINE
  5
76C
100
AcDbEntity
  8
TRMODEL1
  6
CONTINUOUS
 62
     7
100
AcDbLine
 10
0.892265
 20
-0.574478
 30
0.0
 11
0.891604
 21
-0.580074
 31
0.0
  0
LINE
  5
76D
100
AcDbEntity
  8
TRMODEL1
  6
CONTINUOUS
 62
     7
100
AcDbLine
 10
0.891604
 20
-0.580074
 30
0.0
 11
0.891044
 21
-0.585671
 31
0.0
  0
LINE
  5
76E
100
AcDbEntity
  8
TRMODEL1
  6
CONTINUOUS
 62
     7
100
AcDbLine
 10
0.891044
 20
-0.585671
 30
0.0
 11
0.890584
 21
-0.591269
 31
0.0
  0
LINE
  5
76F
100
AcDbEntity
  8
TRMODEL1
  6
CONTINUOUS
 62
     7
100
AcDbLine
 10
0.890584
 20
-0.591269
 30
0.0
 11
0.890226
 21
-0.59687
 31
0.0
  0
LINE
  5
770
100
AcDbEntity
  8
TRMODEL1
  6
CONTINUOUS
 62
     7
100
AcDbLine
 10
0.890226
 20
-0.59687
 30
0.0
 11
0.88997
 21
-0.602478
 31
0.0
  0
LINE
  5
771
100
AcDbEntity
  8
TRMODEL1
  6
CONTINUOUS
 62
     7
100
AcDbLine
 10
0.88997
 20
-0.602478
 30
0.0
 11
0.889815
 21
-0.608093
 31
0.0
  0
LINE
  5
772
100
AcDbEntity
  8
TRMODEL1
  6
CONTINUOUS
 62
     7
100
AcDbLine
 10
0.889815
 20
-0.608093
 30
0.0
 11
0.889764
 21
-0.613719
 31
0.0
  0
LINE
  5
773
100
AcDbEntity
  8
TRMODEL1
  6
CONTINUOUS
 62
     7
100
AcDbLine
 10
0.889764
 20
-0.613719
 30
0.0
 11
0.889764
 21
0.0
 31
0.0
  0
LINE
  5
774
100
AcDbEntity
  8
TRMODEL1
  6
CONTINUOUS
 62
     7
100
AcDbLine
 10
1.023319
 20
-0.818292
 30
0.0
 11
0.953059
 21
-0.818292
 31
0.0
  0
LINE
  5
775
100
AcDbEntity
  8
TRMODEL1
  6
CONTINUOUS
 62
     7
100
AcDbLine
 10
0.692913
 20
-0.590551
 30
0.0
 11
0.889764
 21
-0.590551
 31
0.0
  0
LINE
  5
776
100
AcDbEntity
  8
TRMODEL1
  6
CONTINUOUS
 62
     7
100
AcDbLine
 10
0.889764
 20
0.590551
 30
0.0
 11
0.692913
 21
0.590551
 31
0.0
  0
LINE
  5
777
100
AcDbEntity
  8
TRMODEL1
  6
CONTINUOUS
 62
     7
100
AcDbLine
 10
0.233071
 20
-0.590551
 30
0.0
 11
0.496063
 21
-0.590551
 31
0.0
  0
LINE
  5
778
100
AcDbEntity
  8
TRMODEL1
  6
CONTINUOUS
 62
     7
100
AcDbLine
 10
0.496063
 20
0.590551
 30
0.0
 11
0.233071
 21
0.590551
 31
0.0
  0
LINE
  5
779
100
AcDbEntity
  8
TRMODEL1
  6
CONTINUOUS
 62
     7
100
AcDbLine
 10
1.086614
 20
-0.590551
 30
0.0
 11
1.814173
 21
-0.590551
 31
0.0
  0
LINE
  5
77A
100
AcDbEntity
  8
TRMODEL1
  6
CONTINUOUS
 62
     7
100
AcDbLine
 10
1.814173
 20
0.590551
 30
0.0
 11
1.086614
 21
0.590551
 31
0.0
  0
LINE
  5
77B
100
AcDbEntity
  8
TRMODEL1
  6
CONTINUOUS
 62
     7
100
AcDbLine
 10
2.168504
 20
-0.198425
 30
0.0
 11
1.968504
 21
-0.198425
 31
0.0
  0
LINE
  5
77C
100
AcDbEntity
  8
TRMODEL1
  6
CONTINUOUS
 62
     7
100
AcDbLine
 10
1.968504
 20
-0.355906
 30
0.0
 11
2.168504
 21
-0.355906
 31
0.0
  0
LINE
  5
77D
100
AcDbEntity
  8
TRMODEL1
  6
CONTINUOUS
 62
     7
100
AcDbLine
 10
1.850394
 20
-0.554331
 30
0.0
 11
1.968504
 21
-0.554331
 31
0.0
  0
LINE
  5
77E
100
AcDbEntity
  8
TRMODEL1
  6
CONTINUOUS
 62
     7
100
AcDbLine
 10
1.968504
 20
0.554331
 30
0.0
 11
1.850394
 21
0.554331
 31
0.0
  0
LINE
  5
77F
100
AcDbEntity
  8
TRMODEL1
  6
CONTINUOUS
 62
     7
100
AcDbLine
 10
0.233071
 20
0.590551
 30
0.0
 11
0.19685
 21
0.554331
 31
0.0
  0
LINE
  5
780
100
AcDbEntity
  8
TRMODEL1
  6
CONTINUOUS
 62
     7
100
AcDbLine
 10
0.19685
 20
-0.554331
 30
0.0
 11
0.233071
 21
-0.590551
 31
0.0
  0
LINE
  5
781
100
AcDbEntity
  8
TRMODEL1
  6
CONTINUOUS
 62
     7
100
AcDbLine
 10
1.814173
 20
-0.590551
 30
0.0
 11
1.850394
 21
-0.554331
 31
0.0
  0
LINE
  5
782
100
AcDbEntity
  8
TRMODEL1
  6
CONTINUOUS
 62
     7
100
AcDbLine
 10
1.850394
 20
0.554331
 30
0.0
 11
1.814173
 21
0.590551
 31
0.0
  0
LINE
  5
783
100
AcDbEntity
  8
TRMODEL1
  6
CONTINUOUS
 62
     7
100
AcDbLine
 10
0.19685
 20
0.554331
 30
0.0
 11
0.0
 21
0.554331
 31
0.0
  0
LINE
  5
784
100
AcDbEntity
  8
TRMODEL1
  6
CONTINUOUS
 62
     7
100
AcDbLine
 10
0.0
 20
-0.554331
 30
0.0
 11
0.19685
 21
-0.554331
 31
0.0
  0
LINE
  5
785
100
AcDbEntity
  8
TRMODEL1
  6
CONTINUOUS
 62
     7
100
AcDbLine
 10
0.496063
 20
-0.708661
 30
0.0
 11
0.559358
 21
-0.818292
 31
0.0
  0
LINE
  5
786
100
AcDbEntity
  8
TRMODEL1
  6
CONTINUOUS
 62
     7
100
AcDbLine
 10
0.559358
 20
0.818292
 30
0.0
 11
0.496063
 21
0.708661
 31
0.0
  0
LINE
  5
787
100
AcDbEntity
  8
TRMODEL1
  6
CONTINUOUS
 62
     7
100
AcDbLine
 10
0.629618
 20
-0.818292
 30
0.0
 11
0.692913
 21
-0.708661
 31
0.0
  0
LINE
  5
788
100
AcDbEntity
  8
TRMODEL1
  6
CONTINUOUS
 62
     7
100
AcDbLine
 10
0.692913
 20
0.708661
 30
0.0
 11
0.629618
 21
0.818292
 31
0.0
  0
LINE
  5
789
100
AcDbEntity
  8
TRMODEL1
  6
CONTINUOUS
 62
     7
100
AcDbLine
 10
1.086614
 20
0.708661
 30
0.0
 11
1.023319
 21
0.818292
 31
0.0
  0
LINE
  5
78A
100
AcDbEntity
  8
TRMODEL1
  6
CONTINUOUS
 62
     7
100
AcDbLine
 10
1.023319
 20
-0.818292
 30
0.0
 11
1.086614
 21
-0.708661
 31
0.0
  0
LINE
  5
78B
100
AcDbEntity
  8
TRMODEL1
  6
CONTINUOUS
 62
     7
100
AcDbLine
 10
0.953059
 20
0.818292
 30
0.0
 11
0.889764
 21
0.708661
 31
0.0
  0
LINE
  5
78C
100
AcDbEntity
  8
TRMODEL1
  6
CONTINUOUS
 62
     7
100
AcDbLine
 10
0.889764
 20
-0.708661
 30
0.0
 11
0.953059
 21
-0.818292
 31
0.0
  0
LINE
  5
78D
100
AcDbEntity
  8
TRDETAIL3
  6
CENTER2
 62
     4
100
AcDbLine
 10
-0.019685
 20
0.0
 30
0.0
 11
1.980315
 21
0.0
 31
0.0
  0
LINE
  5
78E
100
AcDbEntity
  8
TRMODEL3
  6
CONTINUOUS
 62
     1
100
AcDbLine
 10
0.19685
 20
0.554331
 30
0.0
 11
0.496063
 21
0.554331
 31
0.0
  0
LINE
  5
78F
100
AcDbEntity
  8
TRMODEL3
  6
CONTINUOUS
 62
     1
100
AcDbLine
 10
0.692913
 20
0.554331
 30
0.0
 11
0.889764
 21
0.554331
 31
0.0
  0
LINE
  5
790
100
AcDbEntity
  8
TRMODEL3
  6
CONTINUOUS
 62
     1
100
AcDbLine
 10
1.086614
 20
0.554331
 30
0.0
 11
1.850394
 21
0.554331
 31
0.0
  0
LINE
  5
791
100
AcDbEntity
  8
TRMODEL3
  6
CONTINUOUS
 62
     1
100
AcDbLine
 10
1.850394
 20
-0.554331
 30
0.0
 11
1.086614
 21
-0.554331
 31
0.0
  0
LINE
  5
792
100
AcDbEntity
  8
TRMODEL3
  6
CONTINUOUS
 62
     1
100
AcDbLine
 10
0.889764
 20
-0.554331
 30
0.0
 11
0.692913
 21
-0.554331
 31
0.0
  0
LINE
  5
793
100
AcDbEntity
  8
TRMODEL3
  6
CONTINUOUS
 62
     1
100
AcDbLine
 10
0.496063
 20
-0.554331
 30
0.0
 11
0.19685
 21
-0.554331
 31
0.0
  0
ENDSEC
  0
SECTION
  2
OBJECTS
  0
DICTIONARY
  5
19
100
AcDbDictionary
  3
ACAD_GROUP
350
1A
  3
ACAD_MLINESTYLE
350
1B
  0
DICTIONARY
  5
1A
102
{ACAD_REACTORS
330
19
102
}
100
AcDbDictionary
  0
DICTIONARY
  5
1B
102
{ACAD_REACTORS
330
19
102
}
100
AcDbDictionary
  3
STANDARD
350
1C
  0
MLINESTYLE
  5
1C
102
{ACAD_REACTORS
330
1B
102
}
100
AcDbMlineStyle
  2
STANDARD
 70
     0
  3

 62
     0
 51
90.0
 52
90.0
 71
     2
 49
0.5
 62
   256
  6
BYLAYER
 49
-0.5
 62
   256
  6
BYLAYER
  0
ENDSEC
  0
EOF
