999
DXF file: C:\Users\sesa63760\Dev\_Creo\CAD\MCADID0003030_3D-CAD\drw0001_2.dxf
999
Pro/ENGINEER 2019471 by Parametric Technology Corporation
  0
SECTION
  2
HEADER
  9
$ACADVER
  1
AC1024
  9
$DWGCODEPAGE
  3
ANSI_1252
  9
$EXTMAX
 10
31.8270917276
 20
45.0126011577
 30
0.0
  9
$EXTMIN
 10
0.0
 20
0.0
 30
0.0
  9
$LIMMIN
 10
0.0
 20
0.0
  9
$LIMMAX
 10
31.8270917276
 20
45.0126011577
  9
$VIEWCTR
 10
15.9135458638
 20
22.5063005788
  9
$VIEWSIZE
 40
45.0126011577
  9
$CLAYER
  8
0
  9
$LTSCALE
 40
2.9341547421
  9
$CELTYPE
  6
BYLAYER
  9
$DIMSCALE
 40
1.0
  9
$DIMASZ
 40
0.3788939491
  9
$DIMEXO
 40
1.0
  9
$DIMDLI
 40
2.0272341855
  9
$DIMEXE
 40
1.0
  9
$DIMCEN
 40
0.4801344123
  9
$DIMLFAC
 40
1.0
  9
$DIMBLK
  1
_FILLED
  9
$DIMALT
 70
0
  9
$DIMALTF
 40
0.0393700787
  9
$DIMTXT
 40
0.5304515288
  9
$DIMTOL
 70
1
  9
$DIMLIM
 70
0
  9
$DIMTFAC
 40
1.0
  9
$DIMTP
 40
0.01
  9
$DIMTM
 40
0.01
  9
$DIMGAP
 40
0.625
  9
$DIMDSEP
 70
46
  9
$AUNITS
 70
0
  9
$PDMODE
 70
3
  9
$PDSIZE
 40
0.3125
  9
$HANDSEED
  5
22E
  9
$TILEMODE
 70
1
  9
$MEASUREMENT
 70
1
  9
$INSUNITS
 70
4
  0
ENDSEC
  0
SECTION
  2
CLASSES
  0
CLASS
  1
ACDBDICTIONARYWDFLT
  2
AcDbDictionaryWithDefault
  3
AutoCAD 2000
 90
0
 91
1
280
0
281
0
  0
CLASS
  1
ACDBPLACEHOLDER
  2
AcDbPlaceHolder
  3
AutoCAD 2000
 90
0
 91
1
280
0
281
0
  0
CLASS
  1
LAYOUT
  2
AcDbLayout
  3
AutoCAD 2000
 90
0
 91
0
280
0
281
0
  0
ENDSEC
  0
SECTION
  2
TABLES
  0
TABLE
  2
VPORT
  5
8
100
AcDbSymbolTable
 70
2
  0
VPORT
  5
1F4
100
AcDbSymbolTableRecord
100
AcDbViewportTableRecord
  2
*ACTIVE
 70
0
 10
0.0
 20
0.0
 11
1.0
 21
1.0
 12
15.9135458638
 22
22.5063005788
 13
0.0
 23
0.0
 14
1.0
 24
1.0
 15
0.0
 25
0.0
 16
0.0
 26
0.0
 36
1.0
 17
0.0
 27
0.0
 37
0.0
 40
45.0126011577
 41
0.7070707071
 42
50.0
 43
0.0
 44
0.0
 50
0.0
 51
0.0
 71
0
 72
100
 73
1
 74
1
 75
0
 76
0
 77
0
 78
0
  0
ENDTAB
  0
TABLE
  2
LTYPE
  5
5
100
AcDbSymbolTable
 70
6
  0
LTYPE
  5
14
100
AcDbSymbolTableRecord
100
AcDbLinetypeTableRecord
  2
BYBLOCK
 70
0
  3

 72
65
 73
0
 40
0.0
  0
LTYPE
  5
15
100
AcDbSymbolTableRecord
100
AcDbLinetypeTableRecord
  2
BYLAYER
 70
0
  3

 72
65
 73
0
 40
0.0
  0
LTYPE
  5
16
100
AcDbSymbolTableRecord
100
AcDbLinetypeTableRecord
  2
CONTINUOUS
 70
64
  3
Solid line
 72
65
 73
0
 40
0.0
  0
LTYPE
  5
1F5
100
AcDbSymbolTableRecord
100
AcDbLinetypeTableRecord
  2
CENTER
 70
64
  3
____ _ ____ _ ____ _ ____ _ ____ _ ____ _ ____
 72
65
 73
4
 40
0.6
 49
0.375
 74
0
 49
-0.075
 74
0
 49
0.075
 74
0
 49
-0.075
 74
0
  0
LTYPE
  5
1F6
100
AcDbSymbolTableRecord
100
AcDbLinetypeTableRecord
  2
HIDDEN
 70
64
  3
- - - - - - - - - - - - - - - - - - - -
 72
65
 73
2
 40
0.2
 49
0.1
 74
0
 49
-0.1
 74
0
  0
LTYPE
  5
1F7
100
AcDbSymbolTableRecord
100
AcDbLinetypeTableRecord
  2
PHANTOM
 70
64
  3
_____ _ _ _____ _ _ _____ _ _ _____
 72
65
 73
6
 40
0.8
 49
0.45
 74
0
 49
-0.05
 74
0
 49
0.1
 74
0
 49
-0.05
 74
0
 49
0.1
 74
0
 49
-0.05
 74
0
  0
LTYPE
  5
1F8
100
AcDbSymbolTableRecord
100
AcDbLinetypeTableRecord
  2
DOT
 70
64
  3
. . . . . . . . . . . . . . . . . . . .
 72
65
 73
2
 40
0.2
 49
0.1
 74
0
 49
-0.1
 74
0
  0
LTYPE
  5
1F9
100
AcDbSymbolTableRecord
100
AcDbLinetypeTableRecord
  2
DASHED
 70
64
  3
- - - - - - - - - - - - - - - - - - - -
 72
65
 73
2
 40
0.2
 49
0.1
 74
0
 49
-0.1
 74
0
  0
ENDTAB
  0
TABLE
  2
LAYER
  5
2
100
AcDbSymbolTable
 70
36
  0
LAYER
  5
10
100
AcDbSymbolTableRecord
100
AcDbLayerTableRecord
  2
0
 70
0
 62
7
  6
CONTINUOUS
370
-3
390
F
  0
LAYER
  5
1FA
100
AcDbSymbolTableRecord
100
AcDbLayerTableRecord
  2
DEFAULT_1
 70
0
 62
7
  6
CENTER
370
-3
390
F
  0
LAYER
  5
1FB
100
AcDbSymbolTableRecord
100
AcDbLayerTableRecord
  2
DEFAULT_2
 70
0
 62
7
  6
HIDDEN
370
-3
390
F
  0
LAYER
  5
1FC
100
AcDbSymbolTableRecord
100
AcDbLayerTableRecord
  2
DEFAULT_3
 70
0
 62
7
  6
PHANTOM
370
-3
390
F
  0
LAYER
  5
1FD
100
AcDbSymbolTableRecord
100
AcDbLayerTableRecord
  2
00_COMPONENTS
 70
0
 62
7
  6
CONTINUOUS
370
-3
390
F
  0
LAYER
  5
1FE
100
AcDbSymbolTableRecord
100
AcDbLayerTableRecord
  2
01_1_DEFAULT_DATUMS
 70
0
 62
7
  6
CONTINUOUS
370
-3
390
F
  0
LAYER
  5
1FF
100
AcDbSymbolTableRecord
100
AcDbLayerTableRecord
  2
01_PLANES
 70
0
 62
7
  6
CONTINUOUS
370
-3
390
F
  0
LAYER
  5
200
100
AcDbSymbolTableRecord
100
AcDbLayerTableRecord
  2
02_COORD_SYS
 70
0
 62
7
  6
CONTINUOUS
370
-3
390
F
  0
LAYER
  5
201
100
AcDbSymbolTableRecord
100
AcDbLayerTableRecord
  2
03_AXES
 70
0
 62
7
  6
CONTINUOUS
370
-3
390
F
  0
LAYER
  5
202
100
AcDbSymbolTableRecord
100
AcDbLayerTableRecord
  2
04_POINTS
 70
0
 62
7
  6
CONTINUOUS
370
-3
390
F
  0
LAYER
  5
203
100
AcDbSymbolTableRecord
100
AcDbLayerTableRecord
  2
05_CURVES
 70
0
 62
7
  6
CONTINUOUS
370
-3
390
F
  0
LAYER
  5
204
100
AcDbSymbolTableRecord
100
AcDbLayerTableRecord
  2
06_SURFS
 70
0
 62
7
  6
CONTINUOUS
370
-3
390
F
  0
LAYER
  5
205
100
AcDbSymbolTableRecord
100
AcDbLayerTableRecord
  2
07_COSMETICS
 70
0
 62
7
  6
CONTINUOUS
370
-3
390
F
  0
LAYER
  5
206
100
AcDbSymbolTableRecord
100
AcDbLayerTableRecord
  2
10_NOTES
 70
0
 62
7
  6
CONTINUOUS
370
-3
390
F
  0
LAYER
  5
207
100
AcDbSymbolTableRecord
100
AcDbLayerTableRecord
  2
11_NOTES_PUB
 70
0
 62
7
  6
CONTINUOUS
370
-3
390
F
  0
LAYER
  5
208
100
AcDbSymbolTableRecord
100
AcDbLayerTableRecord
  2
13_REF_GTOL
 70
0
 62
7
  6
CONTINUOUS
370
-3
390
F
  0
LAYER
  5
209
100
AcDbSymbolTableRecord
100
AcDbLayerTableRecord
  2
16_MISC
 70
0
 62
7
  6
CONTINUOUS
370
-3
390
F
  0
LAYER
  5
20A
100
AcDbSymbolTableRecord
100
AcDbLayerTableRecord
  2
17_NO_PRINT
 70
0
 62
7
  6
CONTINUOUS
370
-3
390
F
  0
LAYER
  5
20B
100
AcDbSymbolTableRecord
100
AcDbLayerTableRecord
  2
18_DATUM_CAMS_JOINTS
 70
0
 62
7
  6
CONTINUOUS
370
-3
390
F
  0
LAYER
  5
20C
100
AcDbSymbolTableRecord
100
AcDbLayerTableRecord
  2
19_DATUM_FUNCTIONAL
 70
0
 62
7
  6
CONTINUOUS
370
-3
390
F
  0
LAYER
  5
20D
100
AcDbSymbolTableRecord
100
AcDbLayerTableRecord
  2
20_DATUM_KINEMATIC_SCHEME
 70
0
 62
7
  6
CONTINUOUS
370
-3
390
F
  0
ENDTAB
  0
TABLE
  2
STYLE
  5
3
100
AcDbSymbolTable
 70
1
  0
STYLE
  5
11
100
AcDbSymbolTableRecord
100
AcDbTextStyleTableRecord
  2
STANDARD
 70
0
 40
0.0
 41
1.0
 50
0.0
 71
0
 42
0.2
  3
ARIAL.TTF
  4

  0
STYLE
  5
20E
100
AcDbSymbolTableRecord
100
AcDbTextStyleTableRecord
  2
TEXTSTYLE_1
 70
0
 40
0.0
 41
0.8
 50
0.0
 71
0
 42
0.2
  3
gdt
  4

  0
ENDTAB
  0
TABLE
  2
VIEW
  5
6
100
AcDbSymbolTable
 70
0
  0
ENDTAB
  0
TABLE
  2
UCS
  5
7
100
AcDbSymbolTable
 70
0
  0
ENDTAB
  0
TABLE
  2
APPID
  5
9
100
AcDbSymbolTable
 70
1
  0
APPID
  5
20F
100
AcDbSymbolTableRecord
100
AcDbRegAppTableRecord
  2
ACAD
 70
0
  0
ENDTAB
  0
TABLE
  2
BLOCK_RECORD
  5
1
100
AcDbSymbolTable
 70
0
  0
BLOCK_RECORD
  5
210
100
AcDbSymbolTableRecord
100
AcDbBlockTableRecord
  2
*Model_Space
  0
BLOCK_RECORD
  5
211
100
AcDbSymbolTableRecord
100
AcDbBlockTableRecord
  2
*Paper_Space
  0
BLOCK_RECORD
  5
212
100
AcDbSymbolTableRecord
100
AcDbBlockTableRecord
  2
_FILLED
  0
ENDTAB
  0
TABLE
  2
DIMSTYLE
  5
A
100
AcDbSymbolTable
 70
1
100
AcDbDimStyleTable
 71
0
  0
DIMSTYLE
105
213
100
AcDbSymbolTableRecord
100
AcDbDimStyleTableRecord
  2
STANDARD
 70
0
  3

  4

 40
1.0
 41
0.3788939491
 42
1.0
 43
0.38
 44
1.0
 45
0.0
 46
0.0
 47
0.01
 48
0.01
140
0.5304515288
141
0.09
142
0.0
143
25.4
144
1.0
145
0.0
146
1.0
147
0.625
 71
1
 72
0
 73
0
 74
0
 75
0
 76
0
 77
1
 78
8
 79
2
170
0
171
1
172
0
173
0
174
0
175
0
176
0
177
0
178
0
270
2
179
2
271
2
272
2
273
2
274
2
275
0
280
0
281
0
282
0
283
1
284
8
285
0
286
0
287
3
288
0
340
11
278
46
341
212
342
212
343
212
344
212
  0
ENDTAB
  0
ENDSEC
  0
SECTION
  2
BLOCKS
  0
BLOCK
  5
20
100
AcDbEntity
  8
0
100
AcDbBlockBegin
  2
*Model_Space
 70
0
 10
0.0
 20
0.0
 30
0.0
  3
*Model_Space
  1

  0
ENDBLK
  5
21
100
AcDbEntity
  8
0
100
AcDbBlockEnd
  0
BLOCK
  5
1C
100
AcDbEntity
  8
0
100
AcDbBlockBegin
  2
*Paper_Space
 70
0
 10
0.0
 20
0.0
 30
0.0
  3
*Paper_Space
  1

  0
ENDBLK
  5
1D
100
AcDbEntity
  8
0
100
AcDbBlockEnd
  0
BLOCK
  5
214
100
AcDbEntity
  8
0
100
AcDbBlockBegin
  2
_FILLED
 70
64
 10
0.0
 20
0.0
  3
_FILLED
  1

  0
SOLID
  5
215
100
AcDbEntity
  8
0
  6
BYBLOCK
 62
0
100
AcDbTrace
 10
0.0
 20
0.0
 11
-1.0
 21
0.25
 12
-1.0
 22
-0.25
 13
-1.0
 23
-0.25
  0
ENDBLK
  5
216
100
AcDbEntity
  8
0
  6
BYBLOCK
 62
0
100
AcDbBlockEnd
  0
ENDSEC
  0
SECTION
  2
ENTITIES
  0
LINE
  5
217
100
AcDbEntity
  8
0
100
AcDbLine
 62
7
  6
BYLAYER
 10
3.4896271844
 20
23.2174081043
 11
3.4896271844
 21
16.8674081043
  0
LINE
  5
218
100
AcDbEntity
  8
0
100
AcDbLine
 62
7
  6
BYLAYER
 10
4.2833771844
 20
21.6299081043
 11
4.2833771844
 21
29.5674081043
  0
LINE
  5
219
100
AcDbEntity
  8
0
100
AcDbLine
 62
7
  6
BYLAYER
 10
7.4583771844
 20
16.8674081043
 11
7.4583771844
 21
15.2799081043
  0
LINE
  5
21A
100
AcDbEntity
  8
0
100
AcDbLine
 62
7
  6
BYLAYER
 10
16.9833771844
 20
15.2799081043
 11
7.4583771844
 21
15.2799081043
  0
LINE
  5
21B
100
AcDbEntity
  8
0
100
AcDbLine
 62
7
  6
BYLAYER
 10
20.9521271844
 20
16.8674081043
 11
3.4896271844
 21
16.8674081043
  0
LINE
  5
21C
100
AcDbEntity
  8
0
100
AcDbLine
 62
7
  6
BYLAYER
 10
24.2880963471
 20
21.6299081043
 11
4.2833790593
 21
21.6299081043
  0
LINE
  5
21D
100
AcDbEntity
  8
0
100
AcDbLine
 62
7
  6
BYLAYER
 10
26.5331603774
 20
22.4236581043
 11
24.2880963471
 21
22.4236581043
  0
LINE
  5
21E
100
AcDbEntity
  8
0
100
AcDbLine
 62
7
  6
BYLAYER
 10
16.9833771844
 20
15.2799081043
 11
16.9833771844
 21
16.8674081043
  0
LINE
  5
21F
100
AcDbEntity
  8
0
100
AcDbLine
 62
7
  6
BYLAYER
 10
3.4896271844
 20
23.2174081043
 11
4.2833771844
 21
23.2174081043
  0
LINE
  5
220
100
AcDbEntity
  8
0
100
AcDbLine
 62
7
  6
BYLAYER
 10
17.8335372601
 20
21.6299081043
 11
17.8335372601
 21
29.5674081043
  0
LINE
  5
221
100
AcDbEntity
  8
0
100
AcDbLine
 62
7
  6
BYLAYER
 10
20.9521271844
 20
16.8674081043
 11
20.9521271844
 21
21.6299081043
  0
LINE
  5
222
100
AcDbEntity
  8
0
100
AcDbLine
 62
7
  6
BYLAYER
 10
26.5331603774
 20
28.7736581043
 11
24.2880963471
 21
28.7736581043
  0
LINE
  5
223
100
AcDbEntity
  8
0
100
AcDbLine
 62
7
  6
BYLAYER
 10
4.2833790593
 20
29.5674081043
 11
24.2880963471
 21
29.5674081043
  0
SPLINE
  5
224
100
AcDbEntity
  8
0
100
AcDbSpline
 62
7
  6
BYLAYER
 70
0
 71
3
 72
18
 73
14
 74
0
 42
0.0000001
 43
0.0000001
 44
0.0000000001
 40
0.0
 40
0.0
 40
0.0
 40
0.0
 40
0.0514878892
 40
0.1034648775
 40
0.1563867895
 40
0.210653005
 40
0.266581833
 40
0.3244060913
 40
0.4460599275
 40
0.5759021296
 40
0.7128719666
 40
0.8550711703
 40
1.0
 40
1.0
 40
1.0
 40
1.0
 10
26.5331603737
 20
22.4236819131
 30
0.0
 10
26.6066878788
 20
22.4236816426
 30
0.0
 10
26.7546466604
 20
22.4339749818
 30
0.0
 10
26.9738077383
 20
22.4802223043
 30
0.0
 10
27.1885880364
 20
22.5566107774
 30
0.0
 10
27.3967684802
 20
22.6624516873
 30
0.0
 10
27.5964365794
 20
22.796520827
 30
0.0
 10
27.8529208192
 20
23.0147878134
 30
0.0
 10
28.1411100742
 20
23.3538013207
 30
0.0
 10
28.4182762943
 20
23.8373695768
 30
0.0
 10
28.623697388
 20
24.3867009884
 30
0.0
 10
28.7499087731
 20
24.9810711214
 30
0.0
 10
28.7782244077
 20
25.3916918559
 30
0.0
 10
28.7782244077
 20
25.5986581043
 30
0.0
  0
SPLINE
  5
225
100
AcDbEntity
  8
0
100
AcDbSpline
 62
7
  6
BYLAYER
 70
0
 71
3
 72
18
 73
14
 74
0
 42
0.0000001
 43
0.0000001
 44
0.0000000001
 40
0.0
 40
0.0
 40
0.0
 40
0.0
 40
0.1449278977
 40
0.2871241992
 40
0.4240926504
 40
0.5539339526
 40
0.6755888063
 40
0.7334138668
 40
0.7893439042
 40
0.8436111069
 40
0.8965339716
 40
0.9485116128
 40
1.0
 40
1.0
 40
1.0
 40
1.0
 10
28.7782244077
 20
25.5986581043
 30
0.0
 10
28.7782244077
 20
25.8056230698
 30
0.0
 10
28.7499101442
 20
26.2162385314
 30
0.0
 10
28.623700633
 20
26.8106013557
 30
0.0
 10
28.4182871055
 20
27.3599278475
 30
0.0
 10
28.1411242889
 20
27.8434957615
 30
0.0
 10
27.8529387849
 20
28.1825148515
 30
0.0
 10
27.5964502977
 20
28.4007834746
 30
0.0
 10
27.3967813284
 20
28.5348591561
 30
0.0
 10
27.1885962038
 20
28.6407010841
 30
0.0
 10
26.973813308
 20
28.7170932638
 30
0.0
 10
26.7546490023
 20
28.7633408866
 30
0.0
 10
26.6066886144
 20
28.7736340249
 30
0.0
 10
26.5331603811
 20
28.7736342954
 30
0.0
  0
SPLINE
  5
226
100
AcDbEntity
  8
0
100
AcDbSpline
 62
7
  6
BYLAYER
 70
0
 71
3
 72
14
 73
10
 74
0
 42
0.0000001
 43
0.0000001
 44
0.0000000001
 40
0.0
 40
0.0
 40
0.0
 40
0.0
 40
0.1179871915
 40
0.2368692329
 40
0.3572239224
 40
0.4796477429
 40
0.6047324368
 40
0.7329805515
 40
1.0
 40
1.0
 40
1.0
 40
1.0
 10
24.2880963471
 20
21.6299081043
 30
0.0
 10
24.3629513278
 20
21.6299081043
 30
0.0
 10
24.5133633874
 20
21.6384993625
 30
0.0
 10
24.7371939474
 20
21.6767777486
 30
0.0
 10
24.9581607848
 20
21.7402966866
 30
0.0
 10
25.174624535
 20
21.8286722986
 30
0.0
 10
25.3852799785
 20
21.9411816415
 30
0.0
 10
25.6600956488
 20
22.1248072565
 30
0.0
 10
25.8481882245
 20
22.2932845272
 30
0.0
 10
25.9648018316
 20
22.4161651696
 30
0.0
  0
SPLINE
  5
227
100
AcDbEntity
  8
0
100
AcDbSpline
 62
7
  6
BYLAYER
 70
0
 71
3
 72
14
 73
10
 74
0
 42
0.0000001
 43
0.0000001
 44
0.0000000001
 40
0.0
 40
0.0
 40
0.0
 40
0.0
 40
0.2670445443
 40
0.3952980281
 40
0.5203838935
 40
0.6428050874
 40
0.7631535598
 40
0.8820256285
 40
1.0
 40
1.0
 40
1.0
 40
1.0
 10
25.966251604
 20
28.7796214173
 30
0.0
 10
25.8495798871
 20
28.9027269672
 30
0.0
 10
25.6613711808
 20
29.0715250796
 30
0.0
 10
25.3863322896
 20
29.255511561
 30
0.0
 10
25.1754930693
 20
29.3682436003
 30
0.0
 10
24.9588272416
 20
29.4567971099
 30
0.0
 10
24.737643943
 20
29.520442671
 30
0.0
 10
24.5135900047
 20
29.5587989885
 30
0.0
 10
24.36302592
 20
29.5674081043
 30
0.0
 10
24.2880963471
 20
29.5674081043
 30
0.0
  0
SPLINE
  5
228
100
AcDbEntity
  8
0
100
AcDbSpline
 62
7
  6
BYLAYER
 70
0
 71
3
 72
18
 73
14
 74
0
 42
0.0000001
 43
0.0000001
 44
0.0000000001
 40
0.0
 40
0.0
 40
0.0
 40
0.0
 40
0.0514878892
 40
0.1034648775
 40
0.1563867895
 40
0.210653005
 40
0.266581833
 40
0.3244060913
 40
0.4460599275
 40
0.5759021296
 40
0.7128719666
 40
0.8550711703
 40
1.0
 40
1.0
 40
1.0
 40
1.0
 10
24.2880963508
 20
22.4236819131
 30
0.0
 10
24.2145688457
 20
22.4236816426
 30
0.0
 10
24.0666100641
 20
22.4339749818
 30
0.0
 10
23.8474489862
 20
22.4802223043
 30
0.0
 10
23.6326686882
 20
22.5566107774
 30
0.0
 10
23.4244882443
 20
22.6624516873
 30
0.0
 10
23.2248201451
 20
22.796520827
 30
0.0
 10
22.9683359053
 20
23.0147878134
 30
0.0
 10
22.6801466504
 20
23.3538013207
 30
0.0
 10
22.4029804302
 20
23.8373695768
 30
0.0
 10
22.1975593365
 20
24.3867009884
 30
0.0
 10
22.0713479514
 20
24.9810711214
 30
0.0
 10
22.0430323169
 20
25.3916918559
 30
0.0
 10
22.0430323169
 20
25.5986581043
 30
0.0
  0
SPLINE
  5
229
100
AcDbEntity
  8
0
100
AcDbSpline
 62
7
  6
BYLAYER
 70
0
 71
3
 72
18
 73
14
 74
0
 42
0.0000001
 43
0.0000001
 44
0.0000000001
 40
0.0
 40
0.0
 40
0.0
 40
0.0
 40
0.1449278977
 40
0.2871241992
 40
0.4240926504
 40
0.5539339526
 40
0.6755888063
 40
0.7334138668
 40
0.7893439042
 40
0.8436111069
 40
0.8965339716
 40
0.9485116128
 40
1.0
 40
1.0
 40
1.0
 40
1.0
 10
24.2880963471
 20
25.5986581043
 30
0.0
 10
24.2880963471
 20
25.3916931387
 30
0.0
 10
24.3164106106
 20
24.9810776771
 30
0.0
 10
24.4426201218
 20
24.3867148528
 30
0.0
 10
24.6480336493
 20
23.837388361
 30
0.0
 10
24.9251964659
 20
23.353820447
 30
0.0
 10
25.2133819699
 20
23.014801357
 30
0.0
 10
25.4698704571
 20
22.7965327339
 30
0.0
 10
25.6695394264
 20
22.6624570524
 30
0.0
 10
25.877724551
 20
22.5566151244
 30
0.0
 10
26.0925074468
 20
22.4802229447
 30
0.0
 10
26.3116717525
 20
22.4339753219
 30
0.0
 10
26.4596321404
 20
22.4236821836
 30
0.0
 10
26.5331603737
 20
22.4236819131
 30
0.0
  0
SPLINE
  5
22A
100
AcDbEntity
  8
0
100
AcDbSpline
 62
7
  6
BYLAYER
 70
0
 71
3
 72
18
 73
14
 74
0
 42
0.0000001
 43
0.0000001
 44
0.0000000001
 40
0.0
 40
0.0
 40
0.0
 40
0.0
 40
0.1449278977
 40
0.2871241992
 40
0.4240926504
 40
0.5539339526
 40
0.6755888063
 40
0.7334138668
 40
0.7893439042
 40
0.8436111069
 40
0.8965339716
 40
0.9485116128
 40
1.0
 40
1.0
 40
1.0
 40
1.0
 10
22.0430323169
 20
25.5986581043
 30
0.0
 10
22.0430323169
 20
25.8056230698
 30
0.0
 10
22.0713465804
 20
26.2162385314
 30
0.0
 10
22.1975560915
 20
26.8106013557
 30
0.0
 10
22.402969619
 20
27.3599278475
 30
0.0
 10
22.6801324356
 20
27.8434957615
 30
0.0
 10
22.9683179396
 20
28.1825148515
 30
0.0
 10
23.2248064269
 20
28.4007834746
 30
0.0
 10
23.4244753961
 20
28.5348591561
 30
0.0
 10
23.6326605208
 20
28.6407010841
 30
0.0
 10
23.8474434166
 20
28.7170932638
 30
0.0
 10
24.0666077223
 20
28.7633408866
 30
0.0
 10
24.2145681101
 20
28.7736340249
 30
0.0
 10
24.2880963434
 20
28.7736342954
 30
0.0
  0
SPLINE
  5
22B
100
AcDbEntity
  8
0
100
AcDbSpline
 62
7
  6
BYLAYER
 70
0
 71
3
 72
18
 73
14
 74
0
 42
0.0000001
 43
0.0000001
 44
0.0000000001
 40
0.0
 40
0.0
 40
0.0
 40
0.0
 40
0.0514878892
 40
0.1034648775
 40
0.1563867895
 40
0.210653005
 40
0.266581833
 40
0.3244060913
 40
0.4460599275
 40
0.5759021296
 40
0.7128719666
 40
0.8550711703
 40
1.0
 40
1.0
 40
1.0
 40
1.0
 10
26.5331603811
 20
28.7736342954
 30
0.0
 10
26.459632876
 20
28.7736345659
 30
0.0
 10
26.3116740944
 20
28.7633412267
 30
0.0
 10
26.0925130165
 20
28.7170939043
 30
0.0
 10
25.8777327184
 20
28.6407054311
 30
0.0
 10
25.6695522746
 20
28.5348645212
 30
0.0
 10
25.4698841754
 20
28.4007953815
 30
0.0
 10
25.2133999356
 20
28.1825283951
 30
0.0
 10
24.9252106806
 20
27.8435148878
 30
0.0
 10
24.6480444605
 20
27.3599466317
 30
0.0
 10
24.4426233668
 20
26.8106152201
 30
0.0
 10
24.3164119817
 20
26.2162450871
 30
0.0
 10
24.2880963471
 20
25.8056243526
 30
0.0
 10
24.2880963471
 20
25.5986581043
 30
0.0
  0
ENDSEC
  0
SECTION
  2
OBJECTS
  0
DICTIONARY
  5
C
100
AcDbDictionary
280
0
281
1
  3
ACAD_GROUP
350
D
  3
ACAD_MLINESTYLE
350
17
  3
ACAD_LAYOUT
350
1A
  3
ACAD_PLOTSETTINGS
350
19
  3
ACAD_PLOTSTYLENAME
350
E
  0
DICTIONARY
  5
D
102
{ACAD_REACTORS
330
C
102
}
100
AcDbDictionary
280
0
281
1
  0
ACDBDICTIONARYWDFLT
  5
E
102
{ACAD_REACTORS
330
C
102
}
100
AcDbDictionary
281
1
  3
Normal
350
F
100
AcDbDictionaryWithDefault
340
F
  0
DICTIONARY
  5
17
102
{ACAD_REACTORS
330
C
102
}
100
AcDbDictionary
280
0
281
1
  3
Standard
350
18
  0
DICTIONARY
  5
19
102
{ACAD_REACTORS
330
C
102
}
100
AcDbDictionary
281
1
  0
DICTIONARY
  5
1A
102
{ACAD_REACTORS
330
C
102
}
100
AcDbDictionary
281
1
  3
Model
350
22C
  3
Layout1
350
22D
  0
ACDBPLACEHOLDER
  5
F
102
{ACAD_REACTORS
330
E
102
}
  0
MLINESTYLE
  5
18
102
{ACAD_REACTORS
330
17
102
}
100
AcDbMlineStyle
  2
STANDARD
 70
0
  3

 62
256
 51
90.0
 52
90.0
 71
2
 49
0.5
 62
256
  6
BYLAYER
 49
-0.5
 62
256
  6
BYLAYER
  0
LAYOUT
  5
22C
102
{ACAD_REACTORS
330
1A
102
}
100
AcDbPlotSettings
  1

  2
none_device
  4

  6

 40
0.0
 41
0.0
 42
0.0
 43
0.0
 44
210.0
 45
297.0
 46
0.0
 47
0.0
 48
0.0
 49
0.0
140
0.0
141
0.0
142
1.0
143
1.0
 70
1024
 72
1
 73
0
 74
0
  7

 75
0
147
1.0
148
0.0
149
0.0
100
AcDbLayout
  1
Model
 70
0
 71
0
 10
0.0
 20
0.0
 11
210.0
 21
297.0
 12
0.0
 22
0.0
 32
0.0
 14
0.0
 24
0.0
 34
0.0
 15
0.0
 25
0.0
 35
0.0
146
0.0
 13
0.0
 23
0.0
 33
0.0
 16
1.0
 26
0.0
 36
0.0
 17
0.0
 27
1.0
 37
0.0
 76
0
330
210
345
0
346
0
  0
LAYOUT
  5
22D
102
{ACAD_REACTORS
330
1A
102
}
100
AcDbPlotSettings
  1

  2
none_device
  4

  6

 40
0.0
 41
0.0
 42
0.0
 43
0.0
 44
210.0
 45
297.0
 46
0.0
 47
0.0
 48
0.0
 49
0.0
140
0.0
141
0.0
142
1.0
143
1.0
 70
0
 72
1
 73
0
 74
0
  7

 75
0
147
1.0
148
0.0
149
0.0
100
AcDbLayout
  1
Layout1
 70
0
 71
1
 10
0.0
 20
0.0
 11
210.0
 21
297.0
 12
0.0
 22
0.0
 32
0.0
 14
0.0
 24
0.0
 34
0.0
 15
0.0
 25
0.0
 35
0.0
146
0.0
 13
0.0
 23
0.0
 33
0.0
 16
1.0
 26
0.0
 36
0.0
 17
0.0
 27
1.0
 37
0.0
 76
0
330
211
345
0
346
0
  0
ENDSEC
  0
EOF
