999
DXF file: C:\Users\sesa63760\Dev\_Creo\CAD\MCADID0004813_3D-CAD\drw0001_6.dxf
999
Pro/ENGINEER 2019471 by Parametric Technology Corporation
  0
SECTION
  2
HEADER
  9
$ACADVER
  1
AC1024
  9
$DWGCODEPAGE
  3
ANSI_1252
  9
$EXTMAX
 10
25.9499892208
 20
36.7006990409
 30
0.0
  9
$EXTMIN
 10
0.0
 20
0.0
 30
0.0
  9
$LIMMIN
 10
0.0
 20
0.0
  9
$LIMMAX
 10
25.9499892208
 20
36.7006990409
  9
$VIEWCTR
 10
12.9749946104
 20
18.3503495205
  9
$VIEWSIZE
 40
36.7006990409
  9
$CLAYER
  8
0
  9
$LTSCALE
 40
2.3923418634
  9
$CELTYPE
  6
BYLAYER
  9
$DIMSCALE
 40
1.0
  9
$DIMASZ
 40
0.3089284431
  9
$DIMEXO
 40
1.0
  9
$DIMDLI
 40
1.652890742
  9
$DIMEXE
 40
1.0
  9
$DIMCEN
 40
0.3914741231
  9
$DIMLFAC
 40
1.0
  9
$DIMBLK
  1
_FILLED
  9
$DIMALT
 70
0
  9
$DIMALTF
 40
0.0393700787
  9
$DIMTXT
 40
0.4324998203
  9
$DIMTOL
 70
1
  9
$DIMLIM
 70
0
  9
$DIMTFAC
 40
1.0
  9
$DIMTP
 40
0.01
  9
$DIMTM
 40
0.01
  9
$DIMGAP
 40
0.625
  9
$DIMDSEP
 70
46
  9
$AUNITS
 70
0
  9
$PDMODE
 70
3
  9
$PDSIZE
 40
0.3125
  9
$HANDSEED
  5
35C
  9
$TILEMODE
 70
1
  9
$MEASUREMENT
 70
1
  9
$INSUNITS
 70
4
  0
ENDSEC
  0
SECTION
  2
CLASSES
  0
CLASS
  1
ACDBDICTIONARYWDFLT
  2
AcDbDictionaryWithDefault
  3
AutoCAD 2000
 90
0
 91
1
280
0
281
0
  0
CLASS
  1
ACDBPLACEHOLDER
  2
AcDbPlaceHolder
  3
AutoCAD 2000
 90
0
 91
1
280
0
281
0
  0
CLASS
  1
LAYOUT
  2
AcDbLayout
  3
AutoCAD 2000
 90
0
 91
0
280
0
281
0
  0
ENDSEC
  0
SECTION
  2
TABLES
  0
TABLE
  2
VPORT
  5
8
100
AcDbSymbolTable
 70
2
  0
VPORT
  5
1F4
100
AcDbSymbolTableRecord
100
AcDbViewportTableRecord
  2
*ACTIVE
 70
0
 10
0.0
 20
0.0
 11
1.0
 21
1.0
 12
12.9749946104
 22
18.3503495205
 13
0.0
 23
0.0
 14
1.0
 24
1.0
 15
0.0
 25
0.0
 16
0.0
 26
0.0
 36
1.0
 17
0.0
 27
0.0
 37
0.0
 40
36.7006990409
 41
0.7070707071
 42
50.0
 43
0.0
 44
0.0
 50
0.0
 51
0.0
 71
0
 72
100
 73
1
 74
1
 75
0
 76
0
 77
0
 78
0
  0
ENDTAB
  0
TABLE
  2
LTYPE
  5
5
100
AcDbSymbolTable
 70
6
  0
LTYPE
  5
14
100
AcDbSymbolTableRecord
100
AcDbLinetypeTableRecord
  2
BYBLOCK
 70
0
  3

 72
65
 73
0
 40
0.0
  0
LTYPE
  5
15
100
AcDbSymbolTableRecord
100
AcDbLinetypeTableRecord
  2
BYLAYER
 70
0
  3

 72
65
 73
0
 40
0.0
  0
LTYPE
  5
16
100
AcDbSymbolTableRecord
100
AcDbLinetypeTableRecord
  2
CONTINUOUS
 70
64
  3
Solid line
 72
65
 73
0
 40
0.0
  0
LTYPE
  5
1F5
100
AcDbSymbolTableRecord
100
AcDbLinetypeTableRecord
  2
CENTER
 70
64
  3
____ _ ____ _ ____ _ ____ _ ____ _ ____ _ ____
 72
65
 73
4
 40
0.6
 49
0.375
 74
0
 49
-0.075
 74
0
 49
0.075
 74
0
 49
-0.075
 74
0
  0
LTYPE
  5
1F6
100
AcDbSymbolTableRecord
100
AcDbLinetypeTableRecord
  2
HIDDEN
 70
64
  3
- - - - - - - - - - - - - - - - - - - -
 72
65
 73
2
 40
0.2
 49
0.1
 74
0
 49
-0.1
 74
0
  0
LTYPE
  5
1F7
100
AcDbSymbolTableRecord
100
AcDbLinetypeTableRecord
  2
PHANTOM
 70
64
  3
_____ _ _ _____ _ _ _____ _ _ _____
 72
65
 73
6
 40
0.8
 49
0.45
 74
0
 49
-0.05
 74
0
 49
0.1
 74
0
 49
-0.05
 74
0
 49
0.1
 74
0
 49
-0.05
 74
0
  0
LTYPE
  5
1F8
100
AcDbSymbolTableRecord
100
AcDbLinetypeTableRecord
  2
DOT
 70
64
  3
. . . . . . . . . . . . . . . . . . . .
 72
65
 73
2
 40
0.2
 49
0.1
 74
0
 49
-0.1
 74
0
  0
LTYPE
  5
1F9
100
AcDbSymbolTableRecord
100
AcDbLinetypeTableRecord
  2
DASHED
 70
64
  3
- - - - - - - - - - - - - - - - - - - -
 72
65
 73
2
 40
0.2
 49
0.1
 74
0
 49
-0.1
 74
0
  0
ENDTAB
  0
TABLE
  2
LAYER
  5
2
100
AcDbSymbolTable
 70
36
  0
LAYER
  5
10
100
AcDbSymbolTableRecord
100
AcDbLayerTableRecord
  2
0
 70
0
 62
7
  6
CONTINUOUS
370
-3
390
F
  0
LAYER
  5
1FA
100
AcDbSymbolTableRecord
100
AcDbLayerTableRecord
  2
DEFAULT_1
 70
0
 62
7
  6
CENTER
370
-3
390
F
  0
LAYER
  5
1FB
100
AcDbSymbolTableRecord
100
AcDbLayerTableRecord
  2
DEFAULT_2
 70
0
 62
7
  6
HIDDEN
370
-3
390
F
  0
LAYER
  5
1FC
100
AcDbSymbolTableRecord
100
AcDbLayerTableRecord
  2
DEFAULT_3
 70
0
 62
7
  6
PHANTOM
370
-3
390
F
  0
LAYER
  5
1FD
100
AcDbSymbolTableRecord
100
AcDbLayerTableRecord
  2
00_COMPONENTS
 70
0
 62
7
  6
CONTINUOUS
370
-3
390
F
  0
LAYER
  5
1FE
100
AcDbSymbolTableRecord
100
AcDbLayerTableRecord
  2
01_1_DEFAULT_DATUMS
 70
0
 62
7
  6
CONTINUOUS
370
-3
390
F
  0
LAYER
  5
1FF
100
AcDbSymbolTableRecord
100
AcDbLayerTableRecord
  2
01_PLANES
 70
0
 62
7
  6
CONTINUOUS
370
-3
390
F
  0
LAYER
  5
200
100
AcDbSymbolTableRecord
100
AcDbLayerTableRecord
  2
02_COORD_SYS
 70
0
 62
7
  6
CONTINUOUS
370
-3
390
F
  0
LAYER
  5
201
100
AcDbSymbolTableRecord
100
AcDbLayerTableRecord
  2
03_AXES
 70
0
 62
7
  6
CONTINUOUS
370
-3
390
F
  0
LAYER
  5
202
100
AcDbSymbolTableRecord
100
AcDbLayerTableRecord
  2
04_POINTS
 70
0
 62
7
  6
CONTINUOUS
370
-3
390
F
  0
LAYER
  5
203
100
AcDbSymbolTableRecord
100
AcDbLayerTableRecord
  2
05_CURVES
 70
0
 62
7
  6
CONTINUOUS
370
-3
390
F
  0
LAYER
  5
204
100
AcDbSymbolTableRecord
100
AcDbLayerTableRecord
  2
06_SURFS
 70
0
 62
7
  6
CONTINUOUS
370
-3
390
F
  0
LAYER
  5
205
100
AcDbSymbolTableRecord
100
AcDbLayerTableRecord
  2
07_COSMETICS
 70
0
 62
7
  6
CONTINUOUS
370
-3
390
F
  0
LAYER
  5
206
100
AcDbSymbolTableRecord
100
AcDbLayerTableRecord
  2
10_NOTES
 70
0
 62
7
  6
CONTINUOUS
370
-3
390
F
  0
LAYER
  5
207
100
AcDbSymbolTableRecord
100
AcDbLayerTableRecord
  2
11_NOTES_PUB
 70
0
 62
7
  6
CONTINUOUS
370
-3
390
F
  0
LAYER
  5
208
100
AcDbSymbolTableRecord
100
AcDbLayerTableRecord
  2
13_REF_GTOL
 70
0
 62
7
  6
CONTINUOUS
370
-3
390
F
  0
LAYER
  5
209
100
AcDbSymbolTableRecord
100
AcDbLayerTableRecord
  2
16_MISC
 70
0
 62
7
  6
CONTINUOUS
370
-3
390
F
  0
LAYER
  5
20A
100
AcDbSymbolTableRecord
100
AcDbLayerTableRecord
  2
17_NO_PRINT
 70
0
 62
7
  6
CONTINUOUS
370
-3
390
F
  0
LAYER
  5
20B
100
AcDbSymbolTableRecord
100
AcDbLayerTableRecord
  2
18_DATUM_CAMS_JOINTS
 70
0
 62
7
  6
CONTINUOUS
370
-3
390
F
  0
LAYER
  5
20C
100
AcDbSymbolTableRecord
100
AcDbLayerTableRecord
  2
19_DATUM_FUNCTIONAL
 70
0
 62
7
  6
CONTINUOUS
370
-3
390
F
  0
LAYER
  5
20D
100
AcDbSymbolTableRecord
100
AcDbLayerTableRecord
  2
20_DATUM_KINEMATIC_SCHEME
 70
0
 62
7
  6
CONTINUOUS
370
-3
390
F
  0
ENDTAB
  0
TABLE
  2
STYLE
  5
3
100
AcDbSymbolTable
 70
1
  0
STYLE
  5
11
100
AcDbSymbolTableRecord
100
AcDbTextStyleTableRecord
  2
STANDARD
 70
0
 40
0.0
 41
1.0
 50
0.0
 71
0
 42
0.2
  3
ARIAL.TTF
  4

  0
STYLE
  5
20E
100
AcDbSymbolTableRecord
100
AcDbTextStyleTableRecord
  2
TEXTSTYLE_1
 70
0
 40
0.0
 41
0.8
 50
0.0
 71
0
 42
0.2
  3
gdt
  4

  0
ENDTAB
  0
TABLE
  2
VIEW
  5
6
100
AcDbSymbolTable
 70
0
  0
ENDTAB
  0
TABLE
  2
UCS
  5
7
100
AcDbSymbolTable
 70
0
  0
ENDTAB
  0
TABLE
  2
APPID
  5
9
100
AcDbSymbolTable
 70
1
  0
APPID
  5
20F
100
AcDbSymbolTableRecord
100
AcDbRegAppTableRecord
  2
ACAD
 70
0
  0
ENDTAB
  0
TABLE
  2
BLOCK_RECORD
  5
1
100
AcDbSymbolTable
 70
0
  0
BLOCK_RECORD
  5
210
100
AcDbSymbolTableRecord
100
AcDbBlockTableRecord
  2
*Model_Space
  0
BLOCK_RECORD
  5
211
100
AcDbSymbolTableRecord
100
AcDbBlockTableRecord
  2
*Paper_Space
  0
BLOCK_RECORD
  5
212
100
AcDbSymbolTableRecord
100
AcDbBlockTableRecord
  2
_FILLED
  0
ENDTAB
  0
TABLE
  2
DIMSTYLE
  5
A
100
AcDbSymbolTable
 70
1
100
AcDbDimStyleTable
 71
0
  0
DIMSTYLE
105
213
100
AcDbSymbolTableRecord
100
AcDbDimStyleTableRecord
  2
STANDARD
 70
0
  3

  4

 40
1.0
 41
0.3089284431
 42
1.0
 43
0.38
 44
1.0
 45
0.0
 46
0.0
 47
0.01
 48
0.01
140
0.4324998203
141
0.09
142
0.0
143
25.4
144
1.0
145
0.0
146
1.0
147
0.625
 71
1
 72
0
 73
0
 74
0
 75
0
 76
0
 77
1
 78
8
 79
2
170
0
171
1
172
0
173
0
174
0
175
0
176
0
177
0
178
0
270
2
179
2
271
2
272
2
273
2
274
2
275
0
280
0
281
0
282
0
283
1
284
8
285
0
286
0
287
3
288
0
340
11
278
46
341
212
342
212
343
212
344
212
  0
ENDTAB
  0
ENDSEC
  0
SECTION
  2
BLOCKS
  0
BLOCK
  5
20
100
AcDbEntity
  8
0
100
AcDbBlockBegin
  2
*Model_Space
 70
0
 10
0.0
 20
0.0
 30
0.0
  3
*Model_Space
  1

  0
ENDBLK
  5
21
100
AcDbEntity
  8
0
100
AcDbBlockEnd
  0
BLOCK
  5
1C
100
AcDbEntity
  8
0
100
AcDbBlockBegin
  2
*Paper_Space
 70
0
 10
0.0
 20
0.0
 30
0.0
  3
*Paper_Space
  1

  0
ENDBLK
  5
1D
100
AcDbEntity
  8
0
100
AcDbBlockEnd
  0
BLOCK
  5
214
100
AcDbEntity
  8
0
100
AcDbBlockBegin
  2
_FILLED
 70
64
 10
0.0
 20
0.0
  3
_FILLED
  1

  0
SOLID
  5
215
100
AcDbEntity
  8
0
  6
BYBLOCK
 62
0
100
AcDbTrace
 10
0.0
 20
0.0
 11
-1.0
 21
0.25
 12
-1.0
 22
-0.25
 13
-1.0
 23
-0.25
  0
ENDBLK
  5
216
100
AcDbEntity
  8
0
  6
BYBLOCK
 62
0
100
AcDbBlockEnd
  0
ENDSEC
  0
SECTION
  2
ENTITIES
  0
LINE
  5
217
100
AcDbEntity
  8
0
100
AcDbLine
 62
7
  6
BYLAYER
 10
6.0141172861
 20
11.4503495205
 11
6.0141172861
 21
25.2503495205
  0
LINE
  5
218
100
AcDbEntity
  8
0
100
AcDbLine
 62
7
  6
BYLAYER
 10
6.0141172861
 20
11.4503495205
 11
16.3141172861
 21
11.4503495205
  0
LINE
  5
219
100
AcDbEntity
  8
0
100
AcDbLine
 62
7
  6
BYLAYER
 10
17.4641172861
 20
11.4503495205
 11
18.4641172861
 21
11.4503495205
  0
LINE
  5
21A
100
AcDbEntity
  8
0
100
AcDbLine
 62
7
  6
BYLAYER
 10
7.2141172861
 20
21.287610149
 11
7.2141172861
 21
15.4130888919
  0
LINE
  5
21B
100
AcDbEntity
  8
0
100
AcDbLine
 62
7
  6
BYLAYER
 10
23.4641172861
 20
12.9003495205
 11
18.4641172861
 21
12.9003495205
  0
LINE
  5
21C
100
AcDbEntity
  8
0
100
AcDbLine
 62
7
  6
BYLAYER
 10
10.3141172861
 20
13.0503495205
 11
16.3141172861
 21
13.0503495205
  0
LWPOLYLINE
  5
21D
100
AcDbEntity
  8
0
100
AcDbPolyline
 62
7
  6
BYLAYER
 90
5
 70
0
 10
15.1259765816
 20
14.0223257154
 10
15.7830129826
 20
14.0710683286
 10
16.1016829005
 20
14.0853548131
 10
16.3973308048
 20
14.0821790733
 10
16.6322836032
 20
14.0600690658
  0
LINE
  5
21E
100
AcDbEntity
  8
0
100
AcDbLine
 62
7
  6
BYLAYER
 10
14.8029367271
 20
14.0121414217
 11
15.1259765816
 21
14.0223257154
  0
LINE
  5
21F
100
AcDbEntity
  8
0
100
AcDbLine
 62
7
  6
BYLAYER
 10
13.6099268047
 20
13.8503495205
 11
10.3141172861
 21
13.8503495205
  0
LINE
  5
220
100
AcDbEntity
  8
0
100
AcDbLine
 62
7
  6
BYLAYER
 10
9.5141172861
 20
15.4130888919
 11
9.5141172861
 21
21.287610149
  0
LWPOLYLINE
  5
221
100
AcDbEntity
  8
0
100
AcDbPolyline
 62
7
  6
BYLAYER
 90
4
 70
0
 10
12.6187632744
 20
21.6394063579
 10
12.2439826112
 20
21.5290295082
 10
11.8883355908
 20
21.2948695859
 10
11.6154701092
 20
20.8499043732
  0
LINE
  5
222
100
AcDbEntity
  8
0
100
AcDbLine
 62
7
  6
BYLAYER
 10
6.0391801006
 20
14.6503495205
 11
13.5513481609
 21
14.6503495205
  0
LINE
  5
223
100
AcDbEntity
  8
0
100
AcDbLine
 62
7
  6
BYLAYER
 10
13.5513481609
 20
14.6503495205
 11
15.833588689
 21
14.6503495205
  0
LWPOLYLINE
  5
224
100
AcDbEntity
  8
0
100
AcDbPolyline
 62
7
  6
BYLAYER
 90
3
 70
0
 10
11.840123869
 20
14.8128283845
 10
12.2197300671
 20
14.4420703248
 10
12.7365221007
 20
14.3323964183
  0
LWPOLYLINE
  5
225
100
AcDbEntity
  8
0
100
AcDbPolyline
 62
7
  6
BYLAYER
 90
6
 70
0
 10
12.8510514514
 20
13.8511657009
 10
13.1966338054
 20
13.4901019508
 10
13.6758652428
 20
13.3521815198
 10
14.1144089352
 20
13.4355707426
 10
14.4743131397
 20
13.6549064307
 10
14.8134247367
 20
14.020891714
  0
LINE
  5
226
100
AcDbEntity
  8
0
100
AcDbLine
 62
7
  6
BYLAYER
 10
10.3141172861
 20
13.0503495205
 11
10.3141172861
 21
14.6503495205
  0
LINE
  5
227
100
AcDbEntity
  8
0
100
AcDbLine
 62
7
  6
BYLAYER
 10
10.3141172861
 20
22.0503495205
 11
10.3141172861
 21
23.6503495205
  0
LINE
  5
228
100
AcDbEntity
  8
0
100
AcDbLine
 62
7
  6
BYLAYER
 10
10.5141172861
 20
13.8503495205
 11
10.5141172861
 21
14.6503495205
  0
LINE
  5
229
100
AcDbEntity
  8
0
100
AcDbLine
 62
7
  6
BYLAYER
 10
10.5141172861
 20
22.0503495205
 11
10.5141172861
 21
22.8503495205
  0
LINE
  5
22A
100
AcDbEntity
  8
0
100
AcDbLine
 62
7
  6
BYLAYER
 10
9.5141172861
 20
15.4130888919
 11
7.2141172861
 21
15.4130888919
  0
LINE
  5
22B
100
AcDbEntity
  8
0
100
AcDbLine
 62
7
  6
BYLAYER
 10
14.18153584
 20
15.5866717422
 11
14.1108251619
 21
15.5866717422
  0
LWPOLYLINE
  5
22C
100
AcDbEntity
  8
0
100
AcDbPolyline
 62
7
  6
BYLAYER
 90
5
 70
0
 10
16.8131363519
 20
15.8489807599
 10
15.7713014768
 20
15.8655249672
 10
14.8975280827
 20
15.7984936333
 10
14.1589735932
 20
15.6511959511
 10
13.5167099993
 20
15.4013864446
  0
LWPOLYLINE
  5
22D
100
AcDbEntity
  8
0
100
AcDbPolyline
 62
7
  6
BYLAYER
 90
5
 70
0
 10
14.1812592335
 20
15.6116990739
 10
14.1121528304
 20
15.6197342368
 10
14.0123857524
 20
15.6521280615
 10
13.9025797787
 20
15.7161856809
 10
13.8048128638
 20
15.8077149464
  0
LWPOLYLINE
  5
22E
100
AcDbEntity
  8
0
100
AcDbPolyline
 62
7
  6
BYLAYER
 90
4
 70
0
 10
13.6990128646
 20
15.1518044321
 10
13.9651926559
 20
15.106979145
 10
14.2283201501
 20
14.9587676837
 10
14.4336140092
 20
14.708809513
  0
LWPOLYLINE
  5
22F
100
AcDbEntity
  8
0
100
AcDbPolyline
 62
7
  6
BYLAYER
 90
6
 70
0
 10
10.5655501616
 20
18.1326587901
 10
10.6263639461
 20
17.7893381536
 10
10.7921186986
 20
17.4815979211
 10
11.0465820477
 20
17.2410070582
 10
11.3640856548
 20
17.0924665196
 10
11.7123532691
 20
17.0513562165
  0
LINE
  5
230
100
AcDbEntity
  8
0
100
AcDbLine
 62
7
  6
BYLAYER
 10
11.0141172861
 20
11.4503495205
 11
11.0141172861
 21
13.0503495205
  0
LINE
  5
231
100
AcDbEntity
  8
0
100
AcDbLine
 62
7
  6
BYLAYER
 10
11.0141172861
 20
23.6503495205
 11
11.0141172861
 21
25.2503495205
  0
LWPOLYLINE
  5
232
100
AcDbEntity
  8
0
100
AcDbPolyline
 62
7
  6
BYLAYER
 90
8
 70
0
 10
11.6156248729
 20
20.8504260475
 10
11.6011714108
 20
20.3443411588
 10
11.8499201561
 20
19.8821246065
 10
12.2421671209
 20
19.5998014728
 10
12.7908751296
 20
19.4199626759
 10
13.5039920698
 20
19.311709348
 10
14.3859167172
 20
19.2569563059
 10
15.478135331
 20
19.2505123596
  0
LINE
  5
233
100
AcDbEntity
  8
0
100
AcDbLine
 62
7
  6
BYLAYER
 10
15.4701093385
 20
16.0818466362
 11
15.3993986604
 21
16.0818466362
  0
LWPOLYLINE
  5
234
100
AcDbEntity
  8
0
100
AcDbPolyline
 62
7
  6
BYLAYER
 90
12
 70
0
 10
16.8960996912
 20
15.8406079097
 10
16.4733967128
 20
15.8805971776
 10
16.0665485003
 20
15.8850164802
 10
15.696453774
 20
15.869169908
 10
15.3760116152
 20
15.8462005958
 10
15.1099881109
 20
15.825427482
 10
14.9072327806
 20
15.8134150463
 10
14.7961892997
 20
15.8128215851
 10
14.8325787333
 20
15.8053510532
 10
14.9985440121
 20
15.7382485607
 10
15.209480107
 20
15.5618272753
 10
15.3478192724
 20
15.3209583061
  0
LWPOLYLINE
  5
235
100
AcDbEntity
  8
0
100
AcDbPolyline
 62
7
  6
BYLAYER
 90
5
 70
0
 10
12.3309966782
 20
22.463939869
 10
12.3192019264
 20
22.1961381351
 10
12.357004748
 20
21.9434147147
 10
12.4593100748
 20
21.7204260934
 10
12.5896933411
 20
21.5671711145
  0
LWPOLYLINE
  5
236
100
AcDbEntity
  8
0
100
AcDbPolyline
 62
7
  6
BYLAYER
 90
6
 70
0
 10
13.140765275
 20
20.1850861879
 10
13.235726156
 20
20.3594447784
 10
13.365910171
 20
20.4910773532
 10
13.4976862012
 20
20.5678245995
 10
13.5815811433
 20
20.593284463
 10
13.5707010008
 20
20.5938294651
  0
LWPOLYLINE
  5
237
100
AcDbEntity
  8
0
100
AcDbPolyline
 62
7
  6
BYLAYER
 90
3
 70
0
 10
14.0835691472
 20
21.9687034335
 10
13.9161569572
 20
21.6781713031
 10
13.6942413243
 20
21.4727596265
  0
LWPOLYLINE
  5
238
100
AcDbEntity
  8
0
100
AcDbPolyline
 62
7
  6
BYLAYER
 90
12
 70
0
 10
13.3411212787
 20
20.33786384
 10
13.1292374096
 20
19.9911559531
 10
12.9599136516
 20
19.8776313893
 10
12.9291248446
 20
19.8664014038
 10
12.9920052817
 20
19.8692414539
 10
13.0765664276
 20
19.8568506353
 10
13.1196190241
 20
19.8412479311
 10
13.1273507746
 20
19.8367653827
 10
13.1191325994
 20
19.8458889083
 10
13.1147843028
 20
19.8526655445
 10
13.1056429635
 20
19.8961981286
 10
13.1405248123
 20
20.1844337625
  0
LWPOLYLINE
  5
239
100
AcDbEntity
  8
0
100
AcDbPolyline
 62
7
  6
BYLAYER
 90
4
 70
0
 10
15.8282528763
 20
17.9077986449
 10
16.4508816039
 20
18.0212329635
 10
16.8921377254
 20
18.3337086337
 10
17.1279772857
 20
18.7789192761
  0
LWPOLYLINE
  5
23A
100
AcDbEntity
  8
0
100
AcDbPolyline
 62
7
  6
BYLAYER
 90
12
 70
0
 10
14.4382329648
 20
17.1879638368
 10
14.5998723578
 20
17.1987500502
 10
14.7386599934
 20
17.2090226566
 10
14.8581377851
 20
17.2192412205
 10
14.9645826295
 20
17.2306015125
 10
15.0794163871
 20
17.2483365513
 10
15.2538174891
 20
17.2952624276
 10
15.4677274391
 20
17.397617592
 10
15.6793469981
 20
17.5672197861
 10
15.8495742193
 20
17.7947107941
 10
15.9584920486
 20
18.0678137314
 10
15.9911775981
 20
18.3648338646
  0
LINE
  5
23B
100
AcDbEntity
  8
0
100
AcDbLine
 62
7
  6
BYLAYER
 10
12.2235901842
 20
17.0740770539
 11
13.2351585255
 21
17.1219816728
  0
LINE
  5
23C
100
AcDbEntity
  8
0
100
AcDbLine
 62
7
  6
BYLAYER
 10
11.7123532691
 20
17.0513562165
 11
12.2235901842
 21
17.0740770539
  0
LWPOLYLINE
  5
23D
100
AcDbEntity
  8
0
100
AcDbPolyline
 62
7
  6
BYLAYER
 90
9
 70
0
 10
16.8129781944
 20
17.4489772331
 10
15.4055652781
 20
17.4483996728
 10
14.2630719008
 20
17.300661702
 10
13.2745486237
 20
17.0047882269
 10
12.4596998226
 20
16.5466776278
 10
12.0277338479
 20
16.1251100668
 10
11.7969012916
 20
15.7269615961
 10
11.713430272
 20
15.3024058454
 10
11.8402997119
 20
14.8125174602
  0
LINE
  5
23E
100
AcDbEntity
  8
0
100
AcDbLine
 62
7
  6
BYLAYER
 10
13.2199678131
 20
16.946534287
 11
13.1492571349
 21
16.946534287
  0
LWPOLYLINE
  5
23F
100
AcDbEntity
  8
0
100
AcDbPolyline
 62
7
  6
BYLAYER
 90
3
 70
0
 10
13.2218789544
 20
16.9715783637
 10
13.1318743112
 20
16.9806049037
 10
13.0306604662
 20
17.0122799046
  0
LWPOLYLINE
  5
240
100
AcDbEntity
  8
0
100
AcDbPolyline
 62
7
  6
BYLAYER
 90
6
 70
0
 10
15.4707521415
 20
16.1068851461
 10
15.4677469982
 20
16.1083073624
 10
15.3696104014
 20
16.135297627
 10
15.2159234275
 20
16.2189124263
 10
15.0596950203
 20
16.3708247309
 10
14.9529047775
 20
16.559824358
  0
LINE
  5
241
100
AcDbEntity
  8
0
100
AcDbLine
 62
7
  6
BYLAYER
 10
13.0305254976
 20
17.0123394606
 11
12.9911391969
 21
17.0318632877
  0
LWPOLYLINE
  5
242
100
AcDbEntity
  8
0
100
AcDbPolyline
 62
7
  6
BYLAYER
 90
20
 70
0
 10
12.7920388226
 20
17.1761115986
 10
12.673877099
 20
17.3707380266
 10
12.6549483951
 20
17.4494064202
 10
12.6517569645
 20
17.3905230858
 10
12.6300527783
 20
17.2487414627
 10
12.5900162869
 20
17.0647934524
 10
12.5409741793
 20
16.8693711464
 10
12.4888164479
 20
16.684042511
 10
12.4347707411
 20
16.5132994315
 10
12.3802726087
 20
16.3606655097
 10
12.3265881931
 20
16.2279198685
 10
12.2754035219
 20
16.1169206601
 10
12.229545641
 20
16.0305882049
 10
12.1936388692
 20
15.972752571
 10
12.1755908231
 20
15.9481916954
 10
12.1931711711
 20
15.9654698526
 10
12.2904143492
 20
16.0341308293
 10
12.5941853664
 20
16.1266303319
 10
13.052764241
 20
16.0374922779
 10
13.4068947616
 20
15.698972499
  0
LWPOLYLINE
  5
243
100
AcDbEntity
  8
0
100
AcDbPolyline
 62
7
  6
BYLAYER
 90
10
 70
0
 10
13.8047610074
 20
15.8077762322
 10
13.7076754339
 20
15.9765887163
 10
13.6939759061
 20
16.0356291945
 10
13.6897018038
 20
15.9707666418
 10
13.6627147278
 20
15.8246741923
 10
13.6113534944
 20
15.6386636765
 10
13.5493237533
 20
15.4581327508
 10
13.4862066418
 20
15.3064945542
 10
13.4251565027
 20
15.1856611106
 10
13.3713210314
 20
15.0986317997
  0
LINE
  5
244
100
AcDbEntity
  8
0
100
AcDbLine
 62
7
  6
BYLAYER
 10
12.7362233148
 20
14.3325998547
 11
12.8511862946
 21
13.8509170272
  0
LWPOLYLINE
  5
245
100
AcDbEntity
  8
0
100
AcDbPolyline
 62
7
  6
BYLAYER
 90
6
 70
0
 10
12.7652656323
 20
18.1680402508
 10
12.7190225324
 20
17.8343994043
 10
12.5735613456
 20
17.5297794264
 10
12.3419662235
 20
17.2830902213
 10
12.0456466695
 20
17.1181762515
 10
11.7123532691
 20
17.0513562165
  0
LWPOLYLINE
  5
246
100
AcDbEntity
  8
0
100
AcDbPolyline
 62
7
  6
BYLAYER
 90
6
 70
0
 10
14.3262466842
 20
20.6792602323
 10
14.3695892768
 20
20.7619040049
 10
14.5743362022
 20
20.9833282301
 10
14.6990091385
 20
21.0541987753
 10
14.8145723923
 20
21.090347978
 10
14.8439943363
 20
21.0944125258
  0
LWPOLYLINE
  5
247
100
AcDbEntity
  8
0
100
AcDbPolyline
 62
7
  6
BYLAYER
 90
4
 70
0
 10
14.3552219162
 20
20.7370881671
 10
14.346667243
 20
20.7212295091
 10
14.3364894936
 20
20.7011565092
 10
14.3258218852
 20
20.6784531083
  0
LINE
  5
248
100
AcDbEntity
  8
0
100
AcDbLine
 62
7
  6
BYLAYER
 10
15.8240991314
 20
17.9238904978
 11
15.7533884532
 21
17.9238904978
  0
LINE
  5
249
100
AcDbEntity
  8
0
100
AcDbLine
 62
7
  6
BYLAYER
 10
15.4701093385
 20
17.9318466362
 11
15.3993986604
 21
17.9318466362
  0
LWPOLYLINE
  5
24A
100
AcDbEntity
  8
0
100
AcDbPolyline
 62
7
  6
BYLAYER
 90
4
 70
0
 10
14.4544518476
 20
17.3271205071
 10
14.309010252
 20
17.4032283731
 10
14.1686530206
 20
17.5069360301
 10
14.0405291158
 20
17.6390072673
  0
LINE
  5
24B
100
AcDbEntity
  8
0
100
AcDbLine
 62
7
  6
BYLAYER
 10
15.0188660387
 20
17.1275935212
 11
14.8508554677
 21
17.2425694228
  0
LINE
  5
24C
100
AcDbEntity
  8
0
100
AcDbLine
 62
7
  6
BYLAYER
 10
13.407051661
 20
15.6986950052
 11
13.5104773883
 21
15.368434476
  0
LINE
  5
24D
100
AcDbEntity
  8
0
100
AcDbLine
 62
7
  6
BYLAYER
 10
13.5513481609
 20
22.8503495205
 11
13.5513481609
 21
22.0503495205
  0
LINE
  5
24E
100
AcDbEntity
  8
0
100
AcDbLine
 62
7
  6
BYLAYER
 10
13.5513481609
 20
14.6503495205
 11
13.5513481609
 21
13.8503495205
  0
LINE
  5
24F
100
AcDbEntity
  8
0
100
AcDbLine
 62
7
  6
BYLAYER
 10
13.6099268047
 20
13.8503495205
 11
13.6099268047
 21
14.65081326
  0
LINE
  5
250
100
AcDbEntity
  8
0
100
AcDbLine
 62
7
  6
BYLAYER
 10
13.6099268047
 20
22.0498857809
 11
13.6099268047
 21
22.8503495205
  0
LWPOLYLINE
  5
251
100
AcDbEntity
  8
0
100
AcDbPolyline
 62
7
  6
BYLAYER
 90
3
 70
0
 10
13.8006068413
 20
18.4754213346
 10
13.841677313
 20
18.6633667076
 10
13.9123447457
 20
18.836164466
  0
LINE
  5
252
100
AcDbEntity
  8
0
100
AcDbLine
 62
7
  6
BYLAYER
 10
15.0430448096
 20
19.3079601011
 11
15.4314590548
 21
19.4099597263
  0
LINE
  5
253
100
AcDbEntity
  8
0
100
AcDbLine
 62
7
  6
BYLAYER
 10
13.5697316304
 20
18.7938752656
 11
13.8820690075
 21
18.8186599316
  0
LINE
  5
254
100
AcDbEntity
  8
0
100
AcDbLine
 62
7
  6
BYLAYER
 10
13.5701093385
 20
18.7688524047
 11
13.4993986604
 21
18.7688524047
  0
LINE
  5
255
100
AcDbEntity
  8
0
100
AcDbLine
 62
7
  6
BYLAYER
 10
13.2199678131
 20
18.796534287
 11
13.1492571349
 21
18.796534287
  0
LWPOLYLINE
  5
256
100
AcDbEntity
  8
0
100
AcDbPolyline
 62
7
  6
BYLAYER
 90
6
 70
0
 10
11.6184624507
 20
19.2493428212
 10
11.9667300828
 20
19.2082325372
 10
12.2842337098
 20
19.0596920074
 10
12.5386970772
 20
18.8191011434
 10
12.7044518427
 20
18.5113609018
 10
12.7652656323
 20
18.1680402508
  0
LWPOLYLINE
  5
257
100
AcDbEntity
  8
0
100
AcDbPolyline
 62
7
  6
BYLAYER
 90
3
 70
0
 10
13.7081486961
 20
18.6778734968
 10
13.4711651305
 20
18.7482335839
 10
13.2197341558
 20
18.771493155
  0
LWPOLYLINE
  5
258
100
AcDbEntity
  8
0
100
AcDbPolyline
 62
7
  6
BYLAYER
 90
9
 70
0
 10
14.4337297345
 20
14.7085959615
 10
14.5341147635
 20
14.255165433
 10
14.4335353118
 20
13.9192859987
 10
14.3335817591
 20
13.795554548
 10
14.4119902525
 20
13.8366364328
 10
14.7003864745
 20
13.9329391551
 10
15.1673898737
 20
14.0185179619
 10
15.8645602141
 20
14.0673941118
 10
16.7150981472
 20
14.0517182849
  0
LINE
  5
259
100
AcDbEntity
  8
0
100
AcDbLine
 62
7
  6
BYLAYER
 10
14.8295659234
 20
19.5621819875
 11
14.8979155256
 21
19.8853697124
  0
LINE
  5
25A
100
AcDbEntity
  8
0
100
AcDbLine
 62
7
  6
BYLAYER
 10
14.7592703682
 20
19.4086673773
 11
14.8300101754
 21
19.5633860374
  0
LWPOLYLINE
  5
25B
100
AcDbEntity
  8
0
100
AcDbPolyline
 62
7
  6
BYLAYER
 90
5
 70
0
 10
15.4249825936
 20
19.2945644696
 10
15.567783124
 20
19.5305660024
 10
15.7517512473
 20
19.6688660565
 10
15.863992881
 20
19.7076400177
 10
15.8319881023
 20
19.7076728706
  0
LWPOLYLINE
  5
25C
100
AcDbEntity
  8
0
100
AcDbPolyline
 62
7
  6
BYLAYER
 90
6
 70
0
 10
11.6184624507
 20
19.2493428212
 10
11.2851690677
 20
19.1825227685
 10
10.988849534
 20
19.0176087913
 10
10.7572544307
 20
18.7709195886
 10
10.6117932569
 20
18.4662996213
 10
10.5655501616
 20
18.1326587901
  0
LINE
  5
25D
100
AcDbEntity
  8
0
100
AcDbLine
 62
7
  6
BYLAYER
 10
13.7325576154
 20
19.350586823
 11
13.0764266561
 21
19.3168057055
  0
LINE
  5
25E
100
AcDbEntity
  8
0
100
AcDbLine
 62
7
  6
BYLAYER
 10
13.0764266561
 20
19.3168057055
 11
12.2748786368
 21
19.2787028303
  0
LINE
  5
25F
100
AcDbEntity
  8
0
100
AcDbLine
 62
7
  6
BYLAYER
 10
12.2748786368
 20
19.2787028303
 11
11.6184624506
 21
19.2493428212
  0
LINE
  5
260
100
AcDbEntity
  8
0
100
AcDbLine
 62
7
  6
BYLAYER
 10
15.8240991314
 20
19.6916227103
 11
15.7533884532
 21
19.6916227103
  0
LWPOLYLINE
  5
261
100
AcDbEntity
  8
0
100
AcDbPolyline
 62
7
  6
BYLAYER
 90
5
 70
0
 10
15.2675186551
 20
19.3704672584
 10
15.086317041
 20
19.4202956994
 10
14.9590625278
 20
19.4378207472
 10
14.8601502822
 20
19.4443216695
 10
14.7473619158
 20
19.4478790765
  0
LWPOLYLINE
  5
262
100
AcDbEntity
  8
0
100
AcDbPolyline
 62
7
  6
BYLAYER
 90
3
 70
0
 10
14.3129321722
 20
20.1471688851
 10
14.3240576298
 20
20.1129879478
 10
14.3374300496
 20
20.0712930955
  0
LWPOLYLINE
  5
263
100
AcDbEntity
  8
0
100
AcDbPolyline
 62
7
  6
BYLAYER
 90
13
 70
0
 10
14.3374300496
 20
20.0712930955
 10
14.331112802
 20
20.0942747939
 10
14.3231109959
 20
20.1304101456
 10
14.3160312979
 20
20.1725726336
 10
14.3104841176
 20
20.2194847572
 10
14.3068120268
 20
20.2697857178
 10
14.305074703
 20
20.3228061018
 10
14.3051969703
 20
20.3781663917
 10
14.3070294982
 20
20.4357679732
 10
14.3103718707
 20
20.4955723497
 10
14.314962239
 20
20.5573929663
 10
14.3206827683
 20
20.6228778872
 10
14.3272737351
 20
20.6900128562
  0
LWPOLYLINE
  5
264
100
AcDbEntity
  8
0
100
AcDbPolyline
 62
7
  6
BYLAYER
 90
4
 70
0
 10
14.9528798819
 20
16.5598878046
 10
14.9011978638
 20
16.8109400287
 10
14.9222962729
 20
17.000841495
 10
14.9507017627
 20
17.0785336978
  0
LWPOLYLINE
  5
265
100
AcDbEntity
  8
0
100
AcDbPolyline
 62
7
  6
BYLAYER
 90
7
 70
0
 10
15.3478407109
 20
15.3208978954
 10
15.3941116366
 20
15.0533291252
 10
15.3648079803
 20
14.857314902
 10
15.3341818892
 20
14.7816856839
 10
15.3629146459
 20
14.8231243354
 10
15.4498345693
 20
14.9304740903
 10
15.5781581262
 20
15.07457787
  0
LWPOLYLINE
  5
266
100
AcDbEntity
  8
0
100
AcDbPolyline
 62
7
  6
BYLAYER
 90
9
 70
0
 10
16.0103201768
 20
21.342402061
 10
16.0115044954
 20
21.3536322226
 10
16.0124796879
 20
21.3651841555
 10
16.0132233585
 20
21.3769810631
 10
16.0137214289
 20
21.3890128048
 10
16.013960656
 20
21.4012979959
 10
16.0139258245
 20
21.4138553169
 10
16.0135996578
 20
21.4267035174
 10
16.012962724
 20
21.4398613713
  0
LWPOLYLINE
  5
267
100
AcDbEntity
  8
0
100
AcDbPolyline
 62
7
  6
BYLAYER
 90
49
 70
0
 10
16.008956725
 20
21.3315818572
 10
16.0117973311
 20
21.3475498781
 10
16.0129130368
 20
21.3575044569
 10
16.0138782766
 20
21.3676688582
 10
16.0146828725
 20
21.3780274117
 10
16.0153175576
 20
21.3885641357
 10
16.0157740276
 20
21.3992632054
 10
16.0160449566
 20
21.4101103858
 10
16.0161238441
 20
21.4211028693
 10
16.0160041665
 20
21.4322404846
 10
16.0156792355
 20
21.4435229159
 10
16.0151424396
 20
21.4549499829
 10
16.0143878589
 20
21.4665213993
 10
16.013409661
 20
21.4782364432
 10
16.0122019182
 20
21.4900943365
 10
16.0107586005
 20
21.5020942762
 10
16.0090735647
 20
21.5142354728
 10
16.0071405399
 20
21.5265171891
 10
16.004953109
 20
21.5389387748
 10
16.0025046886
 20
21.5514996969
 10
15.9997885
 20
21.5641995939
 10
15.996794602
 20
21.5770504221
 10
15.9935003355
 20
21.5901083683
 10
15.9898755992
 20
21.6034395604
 10
15.9858848375
 20
21.6171095541
 10
15.9814868602
 20
21.6311831715
 10
15.9766346633
 20
21.645724203
 10
15.9712784347
 20
21.6607863698
 10
15.9653839672
 20
21.6763678697
 10
15.9589257995
 20
21.6924429912
 10
15.9519053722
 20
21.7089275117
 10
15.9443886715
 20
21.725613785
 10
15.9364690886
 20
21.742280898
 10
15.92826301
 20
21.7587112815
 10
15.9199071373
 20
21.7746901101
 10
15.9115073619
 20
21.7900923261
 10
15.9030819338
 20
21.8049611454
 10
15.8946349084
 20
21.8193549323
 10
15.8861664528
 20
21.8333288865
 10
15.877673621
 20
21.8469351724
 10
15.8691510583
 20
21.8602230328
 10
15.8605916587
 20
21.8732388794
 10
15.8519900729
 20
21.8860221279
 10
15.8434410413
 20
21.8984648406
 10
15.8349263514
 20
21.9106270005
 10
15.8263537592
 20
21.922667276
 10
15.8176522748
 20
21.9347061751
 10
15.8089630316
 20
21.9465746898
 10
15.7765713858
 20
21.9901901206
  0
LWPOLYLINE
  5
268
100
AcDbEntity
  8
0
100
AcDbPolyline
 62
7
  6
BYLAYER
 90
6
 70
0
 10
16.0051715914
 20
21.3157244528
 10
16.0044385447
 20
21.310096175
 10
16.0036341313
 20
21.3045382866
 10
16.0027744085
 20
21.2991274287
 10
16.0018605206
 20
21.2938353509
 10
16.0009066501
 20
21.2887105837
  0
LWPOLYLINE
  5
269
100
AcDbEntity
  8
0
100
AcDbPolyline
 62
7
  6
BYLAYER
 90
4
 70
0
 10
16.0067911231
 20
21.3218264611
 10
16.0058474193
 20
21.3148513655
 10
16.0048267705
 20
21.3081001136
 10
16.0037396961
 20
21.3015746311
  0
LINE
  5
26A
100
AcDbEntity
  8
0
100
AcDbLine
 62
7
  6
BYLAYER
 10
16.0074509689
 20
21.3212613215
 11
16.0105421627
 21
21.3378201111
  0
LINE
  5
26B
100
AcDbEntity
  8
0
100
AcDbLine
 62
7
  6
BYLAYER
 10
15.8718998272
 20
21.175774285
 11
15.8650700914
 21
21.1310650883
  0
LWPOLYLINE
  5
26C
100
AcDbEntity
  8
0
100
AcDbPolyline
 62
7
  6
BYLAYER
 90
3
 70
0
 10
16.0026023325
 20
21.2953084379
 10
16.0058441429
 20
21.3115201393
 10
16.0091593685
 20
21.3283299623
  0
LINE
  5
26D
100
AcDbEntity
  8
0
100
AcDbLine
 62
7
  6
BYLAYER
 10
15.9999161994
 20
21.2837380053
 11
16.0041736226
 21
21.3023933782
  0
LINE
  5
26E
100
AcDbEntity
  8
0
100
AcDbLine
 62
7
  6
BYLAYER
 10
15.3907195885
 20
19.1276669055
 11
15.4248395276
 21
19.29415568
  0
LINE
  5
26F
100
AcDbEntity
  8
0
100
AcDbLine
 62
7
  6
BYLAYER
 10
16.0014212796
 20
21.2892807469
 11
15.9988853862
 21
21.2788743932
  0
LINE
  5
270
100
AcDbEntity
  8
0
100
AcDbLine
 62
7
  6
BYLAYER
 10
16.0002030371
 20
21.2834778662
 11
15.9978172552
 21
21.274116575
  0
LWPOLYLINE
  5
271
100
AcDbEntity
  8
0
100
AcDbPolyline
 62
7
  6
BYLAYER
 90
6
 70
0
 10
15.9967272856
 20
21.2695142493
 10
16.000953248
 20
21.2856381302
 10
16.0026694871
 20
21.2932995554
 10
16.0043913445
 20
21.3015206275
 10
16.0060657348
 20
21.310145442
 10
16.0076620229
 20
21.319096574
  0
LINE
  5
272
100
AcDbEntity
  8
0
100
AcDbLine
 62
7
  6
BYLAYER
 10
15.9957332598
 20
21.2655115527
 11
15.9991963475
 21
21.2782530747
  0
LWPOLYLINE
  5
273
100
AcDbEntity
  8
0
100
AcDbPolyline
 62
7
  6
BYLAYER
 90
5
 70
0
 10
15.9963214308
 20
21.2676068458
 10
15.9978570148
 20
21.2736575104
 10
15.9991325972
 20
21.2789116582
 10
16.0007892302
 20
21.2860958631
 10
16.0024772138
 20
21.2939135742
  0
LWPOLYLINE
  5
274
100
AcDbEntity
  8
0
100
AcDbPolyline
 62
7
  6
BYLAYER
 90
16
 70
0
 10
15.8650700914
 20
21.1310650883
 10
15.849462191
 20
21.0700727724
 10
15.8291170715
 20
21.0250791001
 10
15.8043117174
 20
20.9928625273
 10
15.7747699106
 20
20.9698450549
 10
15.751324841
 20
20.9580349495
 10
15.7764325607
 20
20.9642598091
 10
15.8513809594
 20
20.9748177792
 10
15.9373171426
 20
20.9802877132
 10
16.0240357021
 20
20.9814553337
 10
16.1172693328
 20
20.9792643919
 10
16.2145462691
 20
20.9740368213
 10
16.3147563262
 20
20.9661472234
 10
16.4189808376
 20
20.955697249
 10
16.5277167375
 20
20.9427400182
 10
16.6408418164
 20
20.9273534361
  0
LINE
  5
275
100
AcDbEntity
  8
0
100
AcDbLine
 62
7
  6
BYLAYER
 10
15.9965274302
 20
21.2678877544
 11
15.9947364746
 21
21.2616651676
  0
LINE
  5
276
100
AcDbEntity
  8
0
100
AcDbLine
 62
7
  6
BYLAYER
 10
15.9941922995
 20
21.2596311062
 11
15.997431483
 21
21.271227561
  0
LINE
  5
277
100
AcDbEntity
  8
0
100
AcDbLine
 62
7
  6
BYLAYER
 10
15.9953482894
 20
21.2633703341
 11
15.9955459324
 21
21.2640862383
  0
LWPOLYLINE
  5
278
100
AcDbEntity
  8
0
100
AcDbPolyline
 62
7
  6
BYLAYER
 90
5
 70
0
 10
13.8810866623
 20
15.3035863156
 10
14.0641219315
 20
15.7247516426
 10
14.2185135084
 20
16.1857445597
 10
14.3480690311
 20
16.6776186798
 10
14.4404233227
 20
17.1889682217
  0
LINE
  5
279
100
AcDbEntity
  8
0
100
AcDbLine
 62
7
  6
BYLAYER
 10
13.5701093385
 20
20.6188524047
 11
13.4993986604
 21
20.6188524047
  0
LWPOLYLINE
  5
27A
100
AcDbEntity
  8
0
100
AcDbPolyline
 62
7
  6
BYLAYER
 90
3
 70
0
 10
13.0288410973
 20
21.3471972468
 10
13.07746707
 20
21.3185701656
 10
13.195556004
 20
21.2468348016
  0
LWPOLYLINE
  5
27B
100
AcDbEntity
  8
0
100
AcDbPolyline
 62
7
  6
BYLAYER
 90
3
 70
0
 10
13.2699974038
 20
21.201184291
 10
13.3110963708
 20
21.1710042198
 10
13.3877153497
 20
21.1078859625
  0
LWPOLYLINE
  5
27C
100
AcDbEntity
  8
0
100
AcDbPolyline
 62
7
  6
BYLAYER
 90
4
 70
0
 10
16.629537649
 20
17.214807143
 10
16.3650015663
 20
17.6003869251
 10
15.9714438395
 20
17.8313575818
 10
15.4698855762
 20
17.9068082559
  0
LWPOLYLINE
  5
27D
100
AcDbEntity
  8
0
100
AcDbPolyline
 62
7
  6
BYLAYER
 90
3
 70
0
 10
14.8817420487
 20
19.87183886
 10
15.0661815228
 20
19.5843947432
 10
15.2170370573
 20
19.3460639159
  0
LWPOLYLINE
  5
27E
100
AcDbEntity
  8
0
100
AcDbPolyline
 62
7
  6
BYLAYER
 90
16
 70
0
 10
16.0509003174
 20
20.2122205274
 10
16.0120711612
 20
20.7344507076
 10
15.7903614481
 20
21.1932745841
 10
15.4822424379
 20
21.5903143383
 10
15.1244602575
 20
21.9637136576
 10
14.7582665702
 20
22.2998150252
 10
14.4418699175
 20
22.5565988772
 10
14.184942001
 20
22.740263354
 10
13.9725337766
 20
22.8731620065
 10
13.7911278866
 20
22.970633234
 10
13.6285191279
 20
23.0422205647
 10
13.4631888323
 20
23.0946694118
 10
13.2370224559
 20
23.1243284407
 10
12.9069234124
 20
23.0694391303
 10
12.5724541987
 20
22.8563305271
 10
12.3423877206
 20
22.4621144016
  0
LWPOLYLINE
  5
27F
100
AcDbEntity
  8
0
100
AcDbPolyline
 62
7
  6
BYLAYER
 90
10
 70
0
 10
16.0076737991
 20
21.3611141828
 10
16.007732922
 20
21.357563936
 10
16.0077406145
 20
21.3537849843
 10
16.0076900007
 20
21.3497787958
 10
16.0075743501
 20
21.3455478033
 10
16.0073871285
 20
21.341095356
 10
16.0071220527
 20
21.3364258936
 10
16.0067731626
 20
21.3315451979
 10
16.0063349203
 20
21.3264607233
 10
16.0058023375
 20
21.3211819493
  0
LINE
  5
280
100
AcDbEntity
  8
0
100
AcDbLine
 62
7
  6
BYLAYER
 10
16.3141172861
 20
11.4503495205
 11
16.3141172861
 21
25.2503495205
  0
LWPOLYLINE
  5
281
100
AcDbEntity
  8
0
100
AcDbPolyline
 62
7
  6
BYLAYER
 90
8
 70
0
 10
13.4534223456
 20
15.0286213396
 10
13.4622370571
 20
15.036070743
 10
13.6115680383
 20
15.158831214
 10
13.9463851188
 20
15.3348004532
 10
14.4234870608
 20
15.4912747164
 10
15.0258720162
 20
15.604768209
 10
15.7967581773
 20
15.664904302
 10
16.7152582377
 20
15.6517217069
  0
LWPOLYLINE
  5
282
100
AcDbEntity
  8
0
100
AcDbPolyline
 62
7
  6
BYLAYER
 90
10
 70
0
 10
15.450098411
 20
21.0501866687
 10
14.6869086735
 20
21.0500344883
 10
14.0214861818
 20
21.0754668509
 10
13.5320860034
 20
21.1195150438
 10
13.2038838422
 20
21.1722233081
 10
13.0347400486
 20
21.2170659055
 10
13.059737347
 20
21.2003397031
 10
13.2166399203
 20
21.0499645576
 10
13.3593118027
 20
20.728699942
 10
13.341252755
 20
20.3383067179
  0
LINE
  5
283
100
AcDbEntity
  8
0
100
AcDbLine
 62
7
  6
BYLAYER
 10
14.843544989
 20
21.1194695707
 11
14.7728343109
 21
21.1194695707
  0
LINE
  5
284
100
AcDbEntity
  8
0
100
AcDbLine
 62
7
  6
BYLAYER
 10
7.2141172861
 20
21.287610149
 11
9.5141172861
 21
21.287610149
  0
LWPOLYLINE
  5
285
100
AcDbEntity
  8
0
100
AcDbPolyline
 62
7
  6
BYLAYER
 90
5
 70
0
 10
14.5452944105
 20
20.9296088478
 10
15.2994224894
 20
20.8559446379
 10
15.7615718342
 20
20.8711400432
 10
16.2618097913
 20
20.8817193313
 10
16.7964501783
 20
20.8517508225
  0
LWPOLYLINE
  5
286
100
AcDbEntity
  8
0
100
AcDbPolyline
 62
7
  6
BYLAYER
 90
6
 70
0
 10
13.4386497557
 20
21.1411603476
 10
13.6588639229
 20
21.0859111578
 10
13.8547156779
 20
21.0520540302
 10
13.9950516175
 20
21.025647783
 10
14.2255033567
 20
20.9720219877
 10
14.5452944105
 20
20.9296088478
  0
LWPOLYLINE
  5
287
100
AcDbEntity
  8
0
100
AcDbPolyline
 62
7
  6
BYLAYER
 90
3
 70
0
 10
14.3933550317
 20
21.1161209945
 10
14.2176997969
 20
21.268909171
 10
14.0264756501
 20
21.3961633893
  0
LINE
  5
288
100
AcDbEntity
  8
0
100
AcDbLine
 62
7
  6
BYLAYER
 10
15.9911776595
 20
18.3648315539
 11
15.9630958352
 21
18.583918973
  0
LWPOLYLINE
  5
289
100
AcDbEntity
  8
0
100
AcDbPolyline
 62
7
  6
BYLAYER
 90
38
 70
0
 10
17.1019972877
 20
18.6941898727
 10
17.1233371009
 20
18.7617992661
 10
17.1399149765
 20
18.8285497958
 10
17.1521007732
 20
18.8940183365
 10
17.1602867123
 20
18.9578488001
 10
17.1648773654
 20
19.0197427889
 10
17.1662829492
 20
19.0794584115
 10
17.1649122177
 20
19.1368156899
 10
17.1611627899
 20
19.1917083745
 10
17.1553930617
 20
19.2442752052
 10
17.1478816205
 20
19.2948681989
 10
17.1388394137
 20
19.343743052
 10
17.1284601551
 20
19.3910020473
 10
17.1169063345
 20
19.4367715431
 10
17.1043436602
 20
19.4810841822
 10
17.0909573323
 20
19.5238782343
 10
17.0769146838
 20
19.5651407662
 10
17.0623713076
 20
19.6048720728
 10
17.0474710041
 20
19.6430805964
 10
17.03234623
 20
19.6797788923
 10
17.0171152508
 20
19.7149885503
 10
17.0018463777
 20
19.7488106746
 10
16.9866267347
 20
19.7812670546
 10
16.9715415115
 20
19.8123653484
 10
16.9566021275
 20
19.8422440351
 10
16.9417831356
 20
19.8710853494
 10
16.9270511528
 20
19.8990590082
 10
16.9123805815
 20
19.9262980552
 10
16.8977750054
 20
19.9528666127
 10
16.8832392797
 20
19.9788173251
 10
16.8687748338
 20
20.0042014515
 10
16.8543858328
 20
20.0290590055
 10
16.8400754488
 20
20.0534264059
 10
16.8258399013
 20
20.0773469205
 10
16.811671423
 20
20.1008647512
 10
16.7975691521
 20
20.1240085473
 10
16.7835317323
 20
20.1468050106
 10
16.7556429942
 20
20.1914558583
  0
LWPOLYLINE
  5
28A
100
AcDbEntity
  8
0
100
AcDbPolyline
 62
7
  6
BYLAYER
 90
7
 70
0
 10
15.5781581262
 20
15.07457787
 10
15.9257346479
 20
15.4458309097
 10
16.1356688108
 20
15.6772857197
 10
16.3601740005
 20
15.9531666007
 10
16.5851935533
 20
16.3251530038
 10
16.6993032606
 20
16.7738389342
 10
16.6290282563
 20
17.2161095447
  0
LINE
  5
28B
100
AcDbEntity
  8
0
100
AcDbLine
 62
7
  6
BYLAYER
 10
13.5513481609
 20
22.0503495205
 11
6.0391801006
 21
22.0503495205
  0
LINE
  5
28C
100
AcDbEntity
  8
0
100
AcDbLine
 62
7
  6
BYLAYER
 10
13.5513481609
 20
22.0503495205
 11
15.833588689
 21
22.0503495205
  0
LWPOLYLINE
  5
28D
100
AcDbEntity
  8
0
100
AcDbPolyline
 62
7
  6
BYLAYER
 90
4
 70
0
 10
15.7765713858
 20
21.9901901206
 10
15.7688704363
 20
22.0006512615
 10
15.7620937292
 20
22.0100276983
 10
15.7560016531
 20
22.0188370465
  0
LINE
  5
28E
100
AcDbEntity
  8
0
100
AcDbLine
 62
7
  6
BYLAYER
 10
16.5795622813
 20
20.4603067393
 11
16.3825190413
 21
20.7515736859
  0
LINE
  5
28F
100
AcDbEntity
  8
0
100
AcDbLine
 62
7
  6
BYLAYER
 10
16.3825190413
 20
20.7515736859
 11
16.3380304218
 21
20.8180876996
  0
LINE
  5
290
100
AcDbEntity
  8
0
100
AcDbLine
 62
7
  6
BYLAYER
 10
16.6327064937
 20
20.3808504642
 11
16.5795622813
 21
20.4603067393
  0
LINE
  5
291
100
AcDbEntity
  8
0
100
AcDbLine
 62
7
  6
BYLAYER
 10
16.3380304218
 20
20.8180876996
 11
16.3059915624
 21
20.8665104634
  0
LINE
  5
292
100
AcDbEntity
  8
0
100
AcDbLine
 62
7
  6
BYLAYER
 10
16.6732403129
 20
20.3194613986
 11
16.6327064937
 21
20.3808504642
  0
LINE
  5
293
100
AcDbEntity
  8
0
100
AcDbLine
 62
7
  6
BYLAYER
 10
16.3059915624
 20
20.8665104634
 11
16.2751272488
 21
20.9137161694
  0
LINE
  5
294
100
AcDbEntity
  8
0
100
AcDbLine
 62
7
  6
BYLAYER
 10
16.7005236275
 20
20.2776259518
 11
16.6732403129
 21
20.3194613986
  0
LINE
  5
295
100
AcDbEntity
  8
0
100
AcDbLine
 62
7
  6
BYLAYER
 10
16.2751272488
 20
20.9137161694
 11
16.2552248873
 21
20.9445171578
  0
LINE
  5
296
100
AcDbEntity
  8
0
100
AcDbLine
 62
7
  6
BYLAYER
 10
16.7279832215
 20
20.2350054496
 11
16.7005236275
 21
20.2776259518
  0
LINE
  5
297
100
AcDbEntity
  8
0
100
AcDbLine
 62
7
  6
BYLAYER
 10
16.2552248873
 20
20.9445171578
 11
16.2358797353
 21
20.9747813662
  0
LINE
  5
298
100
AcDbEntity
  8
0
100
AcDbLine
 62
7
  6
BYLAYER
 10
16.7556429942
 20
20.1914558583
 11
16.7279832215
 21
20.2350054496
  0
LINE
  5
299
100
AcDbEntity
  8
0
100
AcDbLine
 62
7
  6
BYLAYER
 10
16.2358797353
 20
20.9747813662
 11
16.2171069093
 21
21.0045062244
  0
LINE
  5
29A
100
AcDbEntity
  8
0
100
AcDbLine
 62
7
  6
BYLAYER
 10
16.2171069093
 20
21.0045062244
 11
16.1989330585
 21
21.0336672033
  0
LINE
  5
29B
100
AcDbEntity
  8
0
100
AcDbLine
 62
7
  6
BYLAYER
 10
16.1989330585
 20
21.0336672033
 11
16.1813917924
 21
21.062226854
  0
LINE
  5
29C
100
AcDbEntity
  8
0
100
AcDbLine
 62
7
  6
BYLAYER
 10
16.1813917924
 20
21.062226854
 11
16.1645202132
 21
21.0901398912
  0
LWPOLYLINE
  5
29D
100
AcDbEntity
  8
0
100
AcDbPolyline
 62
7
  6
BYLAYER
 90
82
 70
0
 10
15.7559577703
 20
22.0189049534
 10
15.7590386021
 20
22.0137602147
 10
15.7626494792
 20
22.0072883553
 10
15.7661717026
 20
22.0006125466
 10
15.7693710943
 20
21.9942607728
 10
15.7725765152
 20
21.9876299335
 10
15.7759347982
 20
21.9803981614
 10
15.7792706275
 20
21.9729246988
 10
15.7825587379
 20
21.9652710774
 10
15.7857942989
 20
21.9574556369
 10
15.7889881747
 20
21.9494571984
 10
15.7921642695
 20
21.9412153244
 10
15.7953518222
 20
21.9326452186
 10
15.798537421
 20
21.9237704681
 10
15.8016866102
 20
21.9146794368
 10
15.804787196
 20
21.9054040733
 10
15.8078402473
 20
21.8959390666
 10
15.8108484435
 20
21.8862730684
 10
15.8138090381
 20
21.8764115188
 10
15.8167160479
 20
21.8663721761
 10
15.8195675915
 20
21.8561605641
 10
15.8223622985
 20
21.8457810585
 10
15.8250991962
 20
21.83523705
 10
15.8277776553
 20
21.8245309277
 10
15.8303973346
 20
21.8136640832
 10
15.8329581242
 20
21.8026369377
 10
15.8354600897
 20
21.7914489902
 10
15.837903417
 20
21.7800988863
 10
15.8402883582
 20
21.7685845097
 10
15.8426151799
 20
21.7569030932
 10
15.8448841225
 20
21.7450513042
 10
15.847094117
 20
21.7330322508
 10
15.8492424375
 20
21.7208588547
 10
15.8513272694
 20
21.7085403998
 10
15.8533470406
 20
21.6960857804
 10
15.8553003702
 20
21.6835036216
 10
15.8571860556
 20
21.6708023603
 10
15.8590032221
 20
21.657990425
 10
15.8607512125
 20
21.6450761532
 10
15.8624297428
 20
21.632065544
 10
15.8640400491
 20
21.6189519562
 10
15.8655810789
 20
21.6057461566
 10
15.8670514566
 20
21.59246291
 10
15.8684500377
 20
21.5791165304
 10
15.8697758796
 20
21.5657208717
 10
15.8710282143
 20
21.5522893031
 10
15.8722064232
 20
21.5388346959
 10
15.8733100106
 20
21.5253694208
 10
15.8743385803
 20
21.5119053542
 10
15.8752918117
 20
21.4984538906
 10
15.8761694391
 20
21.4850259623
 10
15.8769712314
 20
21.4716320619
 10
15.8776969737
 20
21.4582822683
 10
15.8783464513
 20
21.4449862747
 10
15.8789194338
 20
21.4317534181
 10
15.879415662
 20
21.4185927092
 10
15.8798348355
 20
21.4055128614
 10
15.8801766016
 20
21.39252232
 10
15.8804405456
 20
21.3796292901
 10
15.8806262021
 20
21.3668417017
 10
15.8807333251
 20
21.3541664001
 10
15.8807618018
 20
21.3416099494
 10
15.8807114377
 20
21.3291787921
 10
15.8805819475
 20
21.316879197
 10
15.8803729516
 20
21.3047172873
 10
15.8800839736
 20
21.2926990663
 10
15.8797144379
 20
21.280830441
 10
15.8792636694
 20
21.2691172461
 10
15.8787308939
 20
21.2575652659
 10
15.878115239
 20
21.246180256
 10
15.8774157382
 20
21.2349679643
 10
15.8766313348
 20
21.2239341511
 10
15.8757608898
 20
21.2130846071
 10
15.8748031904
 20
21.2024251701
 10
15.8737569631
 20
21.1919617391
 10
15.8726208884
 20
21.1817002838
 10
15.8713936205
 20
21.1716468499
 10
15.8700738101
 20
21.1618075568
 10
15.8686601312
 20
21.1521885883
 10
15.8671513135
 20
21.1427961717
 10
15.8655461776
 20
21.1336365455
 10
15.8638436748
 20
21.1247159136
  0
LWPOLYLINE
  5
29E
100
AcDbEntity
  8
0
100
AcDbPolyline
 62
7
  6
BYLAYER
 90
63
 70
0
 10
16.1645202132
 20
21.0901398912
 10
16.1483586068
 20
21.11735288
 10
16.1405573903
 20
21.1306778727
 10
16.1329499694
 20
21.1438040124
 10
16.1255420359
 20
21.1567222437
 10
16.1183393592
 20
21.1694229777
 10
16.11134775
 20
21.181896105
 10
16.1045733994
 20
21.194130323
 10
16.0980243698
 20
21.2061103129
 10
16.0917000273
 20
21.2178359821
 10
16.0855879082
 20
21.229327762
 10
16.0796915127
 20
21.2405755879
 10
16.0740150308
 20
21.2515675514
 10
16.0685672686
 20
21.262281962
 10
16.0633596247
 20
21.2726905874
 10
16.0584024409
 20
21.2827655065
 10
16.0537048415
 20
21.2924793819
 10
16.0492745049
 20
21.3018059069
 10
16.0451123217
 20
21.3107313778
 10
16.0412098585
 20
21.3192614402
 10
16.0375583941
 20
21.3274026511
 10
16.034149964
 20
21.3351601769
 10
16.0309773688
 20
21.3425376377
 10
16.0280341992
 20
21.3495368813
 10
16.0253148645
 20
21.3561577155
 10
16.0228146836
 20
21.3623974296
 10
16.0205316159
 20
21.3682459676
 10
16.0184657094
 20
21.3736863426
 10
16.016609426
 20
21.3787199734
 10
16.0149306588
 20
21.383414668
 10
16.0134235594
 20
21.3877672009
 10
16.0120863631
 20
21.3917616412
 10
16.0109168673
 20
21.3953813423
 10
16.0099123724
 20
21.3986088971
 10
16.0090696049
 20
21.4014261199
 10
16.0083849763
 20
21.4038128036
 10
16.0078531911
 20
21.4057512547
 10
16.0074678717
 20
21.4072242461
 10
16.0072218015
 20
21.4082138888
 10
16.0070863515
 20
21.4087894865
 10
16.0070341378
 20
21.4090238198
 10
16.0070591298
 20
21.408901352
 10
16.0071546256
 20
21.4084060247
 10
16.0073129093
 20
21.4075228271
 10
16.0075255386
 20
21.4062361688
 10
16.0077834193
 20
21.4045287289
 10
16.0080766059
 20
21.4023815571
 10
16.0083941076
 20
21.3997740515
 10
16.0087236629
 20
21.3966840267
 10
16.0090516014
 20
21.3930865257
 10
16.0093572977
 20
21.389028811
 10
16.0096101463
 20
21.3847661305
 10
16.0098029103
 20
21.3803113344
 10
16.0099308153
 20
21.3756031323
 10
16.0099855588
 20
21.3706242651
 10
16.009958123
 20
21.3653799065
 10
16.0098398352
 20
21.3598752919
 10
16.0096223747
 20
21.3541163472
 10
16.0092978147
 20
21.3481100147
 10
16.0088587004
 20
21.3418647484
 10
16.0082981857
 20
21.3353911836
 10
16.0076102338
 20
21.3287028198
 10
16.0051715914
 20
21.3157244528
  0
LINE
  5
29F
100
AcDbEntity
  8
0
100
AcDbLine
 62
7
  6
BYLAYER
 10
17.4641172861
 20
25.2503495205
 11
17.4641172861
 21
11.4503495205
  0
LWPOLYLINE
  5
2A0
100
AcDbEntity
  8
0
100
AcDbPolyline
 62
7
  6
BYLAYER
 90
14
 70
0
 10
16.7276308327
 20
22.6495603063
 10
15.844925105
 20
22.6385767332
 10
15.1007122351
 20
22.6754804175
 10
14.5056842888
 20
22.7468177713
 10
14.1100241088
 20
22.8245592207
 10
13.8993132943
 20
22.8815410817
 10
13.7853849975
 20
22.9199532224
 10
13.7267507026
 20
22.9436583185
 10
13.7145462427
 20
22.9493057681
 10
13.749349426
 20
22.9276214341
 10
13.8390597919
 20
22.8545305944
 10
13.9797754881
 20
22.67955639
 10
14.0968124997
 20
22.3637151646
 10
14.0741348614
 20
21.9711046637
  0
LINE
  5
2A1
100
AcDbEntity
  8
0
100
AcDbLine
 62
7
  6
BYLAYER
 10
10.3141172861
 20
22.8503495205
 11
13.6099268047
 21
22.8503495205
  0
LWPOLYLINE
  5
2A2
100
AcDbEntity
  8
0
100
AcDbPolyline
 62
7
  6
BYLAYER
 90
5
 70
0
 10
16.8877855567
 20
22.5732869952
 10
16.1724083883
 20
22.6508481549
 10
15.5325207294
 20
22.6280721709
 10
14.9977824335
 20
22.467740454
 10
14.6065605337
 20
22.1702489131
  0
LINE
  5
2A3
100
AcDbEntity
  8
0
100
AcDbLine
 62
7
  6
BYLAYER
 10
18.4641172861
 20
25.2503495205
 11
18.4641172861
 21
11.4503495205
  0
LINE
  5
2A4
100
AcDbEntity
  8
0
100
AcDbLine
 62
7
  6
BYLAYER
 10
10.3141172861
 20
23.6503495205
 11
16.3141172861
 21
23.6503495205
  0
LINE
  5
2A5
100
AcDbEntity
  8
0
100
AcDbLine
 62
7
  6
BYLAYER
 10
23.4641172861
 20
23.8003495205
 11
18.4641172861
 21
23.8003495205
  0
LINE
  5
2A6
100
AcDbEntity
  8
0
100
AcDbLine
 62
7
  6
BYLAYER
 10
6.0141172861
 20
25.2503495205
 11
16.3141172861
 21
25.2503495205
  0
LINE
  5
2A7
100
AcDbEntity
  8
0
100
AcDbLine
 62
7
  6
BYLAYER
 10
17.4641172861
 20
25.2503495205
 11
18.4641172861
 21
25.2503495205
  0
LINE
  5
2A8
100
AcDbEntity
  8
0
100
AcDbLine
 62
7
  6
BYLAYER
 10
23.4641172861
 20
12.9003495205
 11
23.4641172861
 21
23.8003495205
  0
ARC
  5
2A9
100
AcDbEntity
  8
0
100
AcDbCircle
 62
7
  6
BYLAYER
 10
14.387542117
 20
44.2218016071
 40
24.7749329725
100
AcDbArc
 50
270.0002736064
 51
270.1635763899
  0
ARC
  5
2AA
100
AcDbEntity
  8
0
100
AcDbCircle
 62
7
  6
BYLAYER
 10
14.8671458435
 20
9.6311489868
 40
9.6478043846
100
AcDbArc
 50
89.5924974262
 51
90.0052829851
  0
ARC
  5
2AB
100
AcDbEntity
  8
0
100
AcDbCircle
 62
7
  6
BYLAYER
 10
14.0282002367
 20
13.0123725447
 40
4.4162885913
100
AcDbArc
 50
89.1575424114
 51
90.042378303
  0
CIRCLE
  5
2AC
100
AcDbEntity
  8
0
100
AcDbCircle
 62
7
  6
BYLAYER
 10
6.6349365085
 20
18.3503495205
 40
3.7
  0
ARC
  5
2AD
100
AcDbEntity
  8
0
100
AcDbCircle
 62
7
  6
BYLAYER
 10
15.1461946211
 20
15.2992344603
 40
2.5599875795
100
AcDbArc
 50
88.4703066152
 51
90.018915819
  0
ARC
  5
2AE
100
AcDbEntity
  8
0
100
AcDbCircle
 62
7
  6
BYLAYER
 10
14.7968469959
 20
19.3885994891
 40
2.0225274318
100
AcDbArc
 50
269.9947731353
 51
272.0088453557
  0
ARC
  5
2AF
100
AcDbEntity
  8
0
100
AcDbCircle
 62
7
  6
BYLAYER
 10
13.7450793335
 20
18.3507802086
 40
1.5516707596
100
AcDbArc
 50
358.3242202196
 51
359.3655993745
  0
ARC
  5
2B0
100
AcDbEntity
  8
0
100
AcDbCircle
 62
7
  6
BYLAYER
 10
15.2735370407
 20
18.3490257202
 40
1.5362412204
100
AcDbArc
 50
176.8556190283
 51
178.3108159165
  0
ARC
  5
2B1
100
AcDbEntity
  8
0
100
AcDbCircle
 62
7
  6
BYLAYER
 10
15.0660002656
 20
18.3975819419
 40
1.3225616867
100
AcDbArc
 50
158.9009082382
 51
160.5259891341
  0
ARC
  5
2B2
100
AcDbEntity
  8
0
100
AcDbCircle
 62
7
  6
BYLAYER
 10
13.9723074389
 20
18.2983187813
 40
1.3178523713
100
AcDbArc
 50
338.8397170958
 51
340.4952802987
  0
ARC
  5
2B3
100
AcDbEntity
  8
0
100
AcDbCircle
 62
7
  6
BYLAYER
 10
14.0052122582
 20
18.4147573662
 40
1.2826951277
100
AcDbArc
 50
21.1974779318
 51
22.380176121
  0
ARC
  5
2B4
100
AcDbEntity
  8
0
100
AcDbCircle
 62
7
  6
BYLAYER
 10
14.102354397
 20
20.5806845332
 40
1.2460590215
100
AcDbArc
 50
269.989904038
 51
273.2707800095
  0
ARC
  5
2B5
100
AcDbEntity
  8
0
100
AcDbCircle
 62
7
  6
BYLAYER
 10
14.9853561704
 20
18.2700348797
 40
1.2357624386
100
AcDbArc
 50
203.5742300303
 51
205.2519287426
  0
CIRCLE
  5
2B6
100
AcDbEntity
  8
0
100
AcDbCircle
 62
7
  6
BYLAYER
 10
11.6654075501
 20
18.1503710822
 40
1.0999832007
  0
ARC
  5
2B7
100
AcDbEntity
  8
0
100
AcDbCircle
 62
7
  6
BYLAYER
 10
15.228174417
 20
19.2601208183
 40
0.9290475752
100
AcDbArc
 50
269.9328225236
 51
274.2271307005
  0
ARC
  5
2B8
100
AcDbEntity
  8
0
100
AcDbCircle
 62
7
  6
BYLAYER
 10
15.1309461991
 20
17.9950851591
 40
0.886256438
100
AcDbArc
 50
85.4585729632
 51
90.0242927593
  0
ARC
  5
2B9
100
AcDbEntity
  8
0
100
AcDbCircle
 62
7
  6
BYLAYER
 10
14.6367489823
 20
18.0212538689
 40
0.8045179027
100
AcDbArc
 50
227.4912188783
 51
229.768450539
  0
ARC
  5
2BA
100
AcDbEntity
  8
0
100
AcDbCircle
 62
7
  6
BYLAYER
 10
14.4068978482
 20
18.6896388704
 40
0.7916451279
100
AcDbArc
 50
48.0826341272
 51
50.4030486941
  0
ARC
  5
2BB
100
AcDbEntity
  8
0
100
AcDbCircle
 62
7
  6
BYLAYER
 10
14.4408470723
 20
17.96800972
 40
0.7369365601
100
AcDbArc
 50
305.4003642853
 51
307.8477301981
  0
ARC
  5
2BC
100
AcDbEntity
  8
0
100
AcDbCircle
 62
7
  6
BYLAYER
 10
14.5928324428
 20
18.7349234578
 40
0.7334609926
100
AcDbArc
 50
124.875026363
 51
127.2855831379
  0
ARC
  5
2BD
100
AcDbEntity
  8
0
100
AcDbCircle
 62
7
  6
BYLAYER
 10
14.0420795787
 20
16.7394298116
 40
0.7169583962
100
AcDbArc
 50
40.0165339214
 51
45.5089274289
  0
ARC
  5
2BE
100
AcDbEntity
  8
0
100
AcDbCircle
 62
7
  6
BYLAYER
 10
14.5182657667
 20
18.900532561
 40
0.5497204546
100
AcDbArc
 50
93.299293875
 51
96.2653386774
  0
ARC
  5
2BF
100
AcDbEntity
  8
0
100
AcDbCircle
 62
7
  6
BYLAYER
 10
14.518340965
 20
17.7985317799
 40
0.5482782972
100
AcDbArc
 50
272.7370632467
 51
275.6964081229
  0
ARC
  5
2C0
100
AcDbEntity
  8
0
100
AcDbCircle
 62
7
  6
BYLAYER
 10
14.7731113332
 20
20.6519758704
 40
0.4674966379
100
AcDbArc
 50
90.0339516979
 51
101.5619507698
  0
ARC
  5
2C1
100
AcDbEntity
  8
0
100
AcDbCircle
 62
7
  6
BYLAYER
 10
14.1106100835
 20
16.0533910701
 40
0.4667214167
100
AcDbArc
 50
270.0264036242
 51
280.6315410091
  0
SPLINE
  5
2C2
100
AcDbEntity
  8
0
100
AcDbSpline
 62
7
  6
BYLAYER
 70
0
 71
3
 72
21
 73
17
 74
0
 42
0.0000001
 43
0.0000001
 44
0.0000000001
 40
0.0
 40
0.0
 40
0.0
 40
0.0
 40
0.0014098696
 40
0.0046445238
 40
0.0098664819
 40
0.0171056953
 40
0.0376713969
 40
0.0663678901
 40
0.103125055
 40
0.1478353146
 40
0.2003887961
 40
0.2606746562
 40
0.4039955973
 40
0.5764850024
 40
0.7759297709
 40
1.0
 40
1.0
 40
1.0
 40
1.0
 10
13.60991342
 20
14.6508136611
 30
0.0
 10
13.6099134218
 20
14.6508412972
 30
0.0
 10
13.609811178
 20
14.6508947557
 30
0.0
 10
13.6096433018
 20
14.650943695
 30
0.0
 10
13.6093327583
 20
14.6510113013
 30
0.0
 10
13.6086997533
 20
14.6511158263
 30
0.0
 10
13.6075966542
 20
14.6512573649
 30
0.0
 10
13.6059222641
 20
14.6514374773
 30
0.0
 10
13.6037718672
 20
14.6516438935
 30
0.0
 10
13.6011554124
 20
14.651876518
 30
0.0
 10
13.5980779759
 20
14.6521362446
 30
0.0
 10
13.5930733505
 20
14.6525437105
 30
0.0
 10
13.5857237573
 20
14.6531209867
 30
0.0
 10
13.5756537936
 20
14.6538988097
 30
0.0
 10
13.5640050804
 20
14.6547907829
 30
0.0
 10
13.5557275449
 20
14.6554236124
 30
0.0
 10
13.5513481609
 20
14.6557588801
 30
0.0
  0
SPLINE
  5
2C3
100
AcDbEntity
  8
0
100
AcDbSpline
 62
7
  6
BYLAYER
 70
0
 71
3
 72
21
 73
17
 74
0
 42
0.0000001
 43
0.0000001
 44
0.0000000001
 40
0.0
 40
0.0
 40
0.0
 40
0.0
 40
0.0014099015
 40
0.004645017
 40
0.0098677432
 40
0.0171080048
 40
0.0376766054
 40
0.0663774198
 40
0.1031404832
 40
0.1478570789
 40
0.2004161651
 40
0.260705731
 40
0.4040241643
 40
0.5765056879
 40
0.7759414449
 40
1.0
 40
1.0
 40
1.0
 40
1.0
 10
13.6099174293
 20
22.0498852811
 30
0.0
 10
13.6099174259
 20
22.0498576425
 30
0.0
 10
13.6098151416
 20
22.0498042087
 30
0.0
 10
13.6096472393
 20
22.0497552681
 30
0.0
 10
13.609336619
 20
22.0496876742
 30
0.0
 10
13.6087034804
 20
22.0495831511
 30
0.0
 10
13.6076001401
 20
22.0494416075
 30
0.0
 10
13.605925382
 20
22.0492614647
 30
0.0
 10
13.6037745165
 20
22.0490550027
 30
0.0
 10
13.6011575376
 20
22.0488223253
 30
0.0
 10
13.5980795881
 20
22.0485625525
 30
0.0
 10
13.5930744915
 20
22.0481550584
 30
0.0
 10
13.5857245264
 20
22.0475778401
 30
0.0
 10
13.5756542523
 20
22.0468001291
 30
0.0
 10
13.5640053038
 20
22.0459082451
 30
0.0
 10
13.5557276121
 20
22.0452754337
 30
0.0
 10
13.5513481609
 20
22.0449401608
 30
0.0
  0
SPLINE
  5
2C4
100
AcDbEntity
  8
0
100
AcDbSpline
 62
7
  6
BYLAYER
 70
0
 71
3
 72
20
 73
16
 74
0
 42
0.0000001
 43
0.0000001
 44
0.0000000001
 40
0.0
 40
0.0
 40
0.0
 40
0.0
 40
0.0513368048
 40
0.1034078277
 40
0.1565611475
 40
0.2111462622
 40
0.2674341865
 40
0.3256011435
 40
0.447758929
 40
0.5118593045
 40
0.5778039922
 40
0.7144250092
 40
0.8558939495
 40
0.9278093606
 40
1.0
 40
1.0
 40
1.0
 40
1.0
 10
13.5513481609
 20
22.0449401608
 30
0.0
 10
13.4685528669
 20
22.0386016926
 30
0.0
 10
13.3024399397
 20
22.0145485816
 30
0.0
 10
13.0580770555
 20
21.9455775542
 30
0.0
 10
12.8195983663
 20
21.8441053195
 30
0.0
 10
12.5892556621
 20
21.7112383878
 30
0.0
 10
12.3690226539
 20
21.5482289929
 30
0.0
 10
12.0870131011
 20
21.2886237407
 30
0.0
 10
11.8382965138
 20
20.9777366327
 30
0.0
 10
11.6264101395
 20
20.6287849523
 30
0.0
 10
11.4335031071
 20
20.2424734599
 30
0.0
 10
11.2446714191
 20
19.7166478146
 30
0.0
 10
11.1307054013
 20
19.1601479654
 30
0.0
 10
11.0842978025
 20
18.7002967486
 30
0.0
 10
11.0764744268
 20
18.4671182752
 30
0.0
 10
11.0764744268
 20
18.3503495205
 30
0.0
  0
SPLINE
  5
2C5
100
AcDbEntity
  8
0
100
AcDbSpline
 62
7
  6
BYLAYER
 70
0
 71
3
 72
20
 73
16
 74
0
 42
0.0000001
 43
0.0000001
 44
0.0000000001
 40
0.0
 40
0.0
 40
0.0
 40
0.0
 40
0.0721906373
 40
0.1441060429
 40
0.2855749774
 40
0.4221959917
 40
0.488140679
 40
0.5522410549
 40
0.6743988423
 40
0.7325658009
 40
0.7888537271
 40
0.8434388436
 40
0.8965921667
 40
0.9486631936
 40
1.0
 40
1.0
 40
1.0
 40
1.0
 10
11.0764744268
 20
18.3503495205
 30
0.0
 10
11.0764744268
 20
18.2335807691
 30
0.0
 10
11.0842977993
 20
18.000402308
 30
0.0
 10
11.1307053973
 20
17.5405511131
 30
0.0
 10
11.2446714032
 20
16.9840512849
 30
0.0
 10
11.4335030793
 20
16.4582256509
 30
0.0
 10
11.6264101
 20
16.0719141575
 30
0.0
 10
11.8382964703
 20
15.7229624713
 30
0.0
 10
12.0870130515
 20
15.4120753499
 30
0.0
 10
12.3690226094
 20
15.1524700904
 30
0.0
 10
12.5892556171
 20
14.9894606805
 30
0.0
 10
12.8195983299
 20
14.8565937411
 30
0.0
 10
13.0580770301
 20
14.7551214941
 30
0.0
 10
13.3024399289
 20
14.6861504648
 30
0.0
 10
13.4685528645
 20
14.6620973485
 30
0.0
 10
13.5513481609
 20
14.6557588801
 30
0.0
  0
SPLINE
  5
2C6
100
AcDbEntity
  8
0
100
AcDbSpline
 62
7
  6
BYLAYER
 70
0
 71
3
 72
16
 73
12
 74
0
 42
0.0000001
 43
0.0000001
 44
0.0000000001
 40
0.0
 40
0.0
 40
0.0
 40
0.0
 40
0.1654244997
 40
0.3175527175
 40
0.4564954486
 40
0.5830253076
 40
0.6984200364
 40
0.8045807754
 40
0.9040437761
 40
0.9522675199
 40
1.0
 40
1.0
 40
1.0
 40
1.0
 10
9.5141172861
 20
15.5464998677
 30
0.0
 10
9.5478494893
 20
15.4763799567
 30
0.0
 10
9.6172626761
 20
15.3439288993
 30
0.0
 10
9.7322820431
 20
15.1622891512
 30
0.0
 10
9.8530173673
 20
15.0068947289
 30
0.0
 10
9.9785456158
 20
14.878444051
 30
0.0
 10
10.1081816208
 20
14.7774613479
 30
0.0
 10
10.2412222901
 20
14.7045063834
 30
0.0
 10
10.3555878257
 20
14.667307189
 30
0.0
 10
10.4464909912
 20
14.6527644553
 30
0.0
 10
10.4916650721
 20
14.6503495205
 30
0.0
 10
10.5141172861
 20
14.6503495205
 30
0.0
  0
SPLINE
  5
2C7
100
AcDbEntity
  8
0
100
AcDbSpline
 62
7
  6
BYLAYER
 70
0
 71
3
 72
21
 73
17
 74
0
 42
0.0000001
 43
0.0000001
 44
0.0000000001
 40
0.0
 40
0.0
 40
0.0
 40
0.0
 40
0.2243567337
 40
0.4239819026
 40
0.5965623819
 40
0.7398991633
 40
0.8001663026
 40
0.8526842384
 40
0.8973428673
 40
0.9340330728
 40
0.9626480389
 40
0.9831168215
 40
0.9903015376
 40
0.9954652122
 40
0.9986391559
 40
1.0
 40
1.0
 40
1.0
 40
1.0
 10
13.5513481609
 20
14.6503495205
 30
0.0
 10
13.5557306322
 20
14.6503495205
 30
0.0
 10
13.5640124796
 20
14.6503487334
 30
0.0
 10
13.575665433
 20
14.6503492492
 30
0.0
 10
13.5857357641
 20
14.6503566033
 30
0.0
 10
13.5930839818
 20
14.650371665
 30
0.0
 10
13.5980868355
 20
14.6503963328
 30
0.0
 10
13.6011622781
 20
14.6504206974
 30
0.0
 10
13.6037766611
 20
14.6504531729
 30
0.0
 10
13.6059251295
 20
14.6504952291
 30
0.0
 10
13.6075975963
 20
14.6505469892
 30
0.0
 10
13.6087000401
 20
14.6506047044
 30
0.0
 10
13.609332544
 20
14.6506600273
 30
0.0
 10
13.6096431654
 20
14.650705111
 30
0.0
 10
13.60980981
 20
14.6507386988
 30
0.0
 10
13.6099134183
 20
14.650787079
 30
0.0
 10
13.60991342
 20
14.6508136611
 30
0.0
  0
SPLINE
  5
2C8
100
AcDbEntity
  8
0
100
AcDbSpline
 62
7
  6
BYLAYER
 70
0
 71
3
 72
13
 73
9
 74
0
 42
0.0000001
 43
0.0000001
 44
0.0000000001
 40
0.0
 40
0.0
 40
0.0
 40
0.0
 40
0.3113127038
 40
0.4396330476
 40
0.5544517943
 40
0.661221769
 40
0.7667315149
 40
1.0
 40
1.0
 40
1.0
 40
1.0
 10
6.0141172861
 20
22.0164138789
 30
0.0
 10
6.0141172861
 20
22.0213904899
 30
0.0
 10
6.014633775
 20
22.0284970032
 30
0.0
 10
6.0173568626
 20
22.0369753166
 30
0.0
 10
6.0201045618
 20
22.041900028
 30
0.0
 10
6.0237200437
 20
22.0457601736
 30
0.0
 10
6.0298686184
 20
22.0495128866
 30
0.0
 10
6.035451096
 20
22.0503495205
 30
0.0
 10
6.0391801006
 20
22.0503495205
 30
0.0
  0
SPLINE
  5
2C9
100
AcDbEntity
  8
0
100
AcDbSpline
 62
7
  6
BYLAYER
 70
0
 71
3
 72
16
 73
12
 74
0
 42
0.0000001
 43
0.0000001
 44
0.0000000001
 40
0.0
 40
0.0
 40
0.0
 40
0.0
 40
0.0477324658
 40
0.0959561843
 40
0.1954192177
 40
0.3015801643
 40
0.4169750361
 40
0.5435048192
 40
0.6824473752
 40
0.8345754926
 40
1.0
 40
1.0
 40
1.0
 40
1.0
 10
10.5141172861
 20
22.0503495205
 30
0.0
 10
10.4916650793
 20
22.0503495205
 30
0.0
 10
10.4464910179
 20
22.0479345835
 30
0.0
 10
10.3555878616
 20
22.0333918201
 30
0.0
 10
10.2412222521
 20
21.9961925442
 30
0.0
 10
10.1081814066
 20
21.9232375436
 30
0.0
 10
9.9785452553
 20
21.822254811
 30
0.0
 10
9.8530171661
 20
21.693804044
 30
0.0
 10
9.7322820894
 20
21.5384096549
 30
0.0
 10
9.6172627104
 20
21.3567700762
 30
0.0
 10
9.5478494901
 20
21.2243190858
 30
0.0
 10
9.5141172861
 20
21.1541991732
 30
0.0
  0
SPLINE
  5
2CA
100
AcDbEntity
  8
0
100
AcDbSpline
 62
7
  6
BYLAYER
 70
0
 71
3
 72
13
 73
9
 74
0
 42
0.0000001
 43
0.0000001
 44
0.0000000001
 40
0.0
 40
0.0
 40
0.0
 40
0.0
 40
0.2333303038
 40
0.3388464371
 40
0.4456068966
 40
0.560407234
 40
0.6887093154
 40
1.0
 40
1.0
 40
1.0
 40
1.0
 10
6.0391968365
 20
14.6503495205
 30
0.0
 10
6.0354654866
 20
14.6503495205
 30
0.0
 10
6.0298800104
 20
14.6511852281
 30
0.0
 10
6.023726763
 20
14.6549371086
 30
0.0
 10
6.0201086646
 20
14.6587970214
 30
0.0
 10
6.01735899
 20
14.6637221925
 30
0.0
 10
6.0146340207
 20
14.6722023685
 30
0.0
 10
6.0141172861
 20
14.6793108949
 30
0.0
 10
6.0141172861
 20
14.6842889645
 30
0.0
  0
SPLINE
  5
2CB
100
AcDbEntity
  8
0
100
AcDbSpline
 62
7
  6
BYLAYER
 70
0
 71
3
 72
21
 73
17
 74
0
 42
0.0000001
 43
0.0000001
 44
0.0000000001
 40
0.0
 40
0.0
 40
0.0
 40
0.0
 40
0.2243453192
 40
0.4239617899
 40
0.596534691
 40
0.7398693469
 40
0.8001404943
 40
0.8526643123
 40
0.8973294472
 40
0.9340255304
 40
0.9626445222
 40
0.9831156966
 40
0.9903011682
 40
0.9954653001
 40
0.9986393864
 40
1.0
 40
1.0
 40
1.0
 40
1.0
 10
13.5513481609
 20
22.0503495205
 30
0.0
 10
13.5557307074
 20
22.0503495205
 30
0.0
 10
13.5640127253
 20
22.0503502745
 30
0.0
 10
13.5756659307
 20
22.0503496581
 30
0.0
 10
13.5857365873
 20
22.0503422234
 30
0.0
 10
13.5930851937
 20
22.0503271582
 30
0.0
 10
13.5980885394
 20
22.0503024829
 30
0.0
 10
13.6011645117
 20
22.050278117
 30
0.0
 10
13.6037794291
 20
22.0502456453
 30
0.0
 10
13.6059283654
 20
22.0502036002
 30
0.0
 10
13.6076011846
 20
22.0501518596
 30
0.0
 10
13.6087038498
 20
22.0500941678
 30
0.0
 10
13.6093364632
 20
22.050038868
 30
0.0
 10
13.6096471454
 20
22.049993799
 30
0.0
 10
13.6098137939
 20
22.0499602266
 30
0.0
 10
13.6099174327
 20
22.0499118604
 30
0.0
 10
13.6099174293
 20
22.0498852811
 30
0.0
  0
SPLINE
  5
2CC
100
AcDbEntity
  8
0
100
AcDbSpline
 62
7
  6
BYLAYER
 70
0
 71
3
 72
23
 73
19
 74
0
 42
0.0000001
 43
0.0000001
 44
0.0000000001
 40
0.0
 40
0.0
 40
0.0
 40
0.0
 40
0.0725417103
 40
0.1437823549
 40
0.2123614819
 40
0.2769531289
 40
0.3378776999
 40
0.3948311113
 40
0.4483641929
 40
0.4998845019
 40
0.5513356585
 40
0.6046586842
 40
0.6613364448
 40
0.7220819669
 40
0.7867066896
 40
0.8555054638
 40
0.9270941379
 40
1.0
 40
1.0
 40
1.0
 40
1.0
 10
11.83310357
 20
18.3503495205
 30
0.0
 10
11.83310357
 20
18.5916407663
 30
0.0
 10
11.8661306999
 20
19.0705797039
 30
0.0
 10
12.0134716634
 20
19.7637928158
 30
0.0
 10
12.2527560387
 20
20.4031651661
 30
0.0
 10
12.5754423437
 20
20.9659756351
 30
0.0
 10
12.9707292732
 20
21.4316945532
 30
0.0
 10
13.4266609863
 20
21.7821734259
 30
0.0
 10
13.9259483802
 20
22.0003442536
 30
0.0
 10
14.4480007216
 20
22.074669379
 30
0.0
 10
14.9694434046
 20
22.0011935403
 30
0.0
 10
15.4674199244
 20
21.7847745448
 30
0.0
 10
15.922484743
 20
21.4368720522
 30
0.0
 10
16.3181855152
 20
20.9733559601
 30
0.0
 10
16.6424183694
 20
20.4111255868
 30
0.0
 10
16.8835959983
 20
19.7702915579
 30
0.0
 10
17.0323369299
 20
19.0741702466
 30
0.0
 10
17.0656937508
 20
18.5928520229
 30
0.0
 10
17.0656937508
 20
18.3503495205
 30
0.0
  0
SPLINE
  5
2CD
100
AcDbEntity
  8
0
100
AcDbSpline
 62
7
  6
BYLAYER
 70
0
 71
3
 72
23
 73
19
 74
0
 42
0.0000001
 43
0.0000001
 44
0.0000000001
 40
0.0
 40
0.0
 40
0.0
 40
0.0
 40
0.0725417103
 40
0.1437823549
 40
0.2123614819
 40
0.2769531289
 40
0.3378776999
 40
0.3948311113
 40
0.4483641929
 40
0.4998845019
 40
0.5513356585
 40
0.6046586842
 40
0.6613364448
 40
0.7220819669
 40
0.7867066896
 40
0.8555054638
 40
0.9270941379
 40
1.0
 40
1.0
 40
1.0
 40
1.0
 10
17.0656937508
 20
18.3503495205
 30
0.0
 10
17.0656937508
 20
18.1090582746
 30
0.0
 10
17.0326666209
 20
17.630119337
 30
0.0
 10
16.8853256573
 20
16.9369062251
 30
0.0
 10
16.646041282
 20
16.2975338748
 30
0.0
 10
16.3233549771
 20
15.7347234058
 30
0.0
 10
15.9280680475
 20
15.2690044877
 30
0.0
 10
15.4721363344
 20
14.918525615
 30
0.0
 10
14.9728489405
 20
14.7003547873
 30
0.0
 10
14.4507965992
 20
14.6260296619
 30
0.0
 10
13.9293539162
 20
14.6995055006
 30
0.0
 10
13.4313773963
 20
14.9159244961
 30
0.0
 10
12.9763125778
 20
15.2638269887
 30
0.0
 10
12.5806118055
 20
15.7273430808
 30
0.0
 10
12.2563789513
 20
16.2895734541
 30
0.0
 10
12.0152013224
 20
16.930407483
 30
0.0
 10
11.8664603908
 20
17.6265287943
 30
0.0
 10
11.83310357
 20
18.107847018
 30
0.0
 10
11.83310357
 20
18.3503495205
 30
0.0
  0
SPLINE
  5
2CE
100
AcDbEntity
  8
0
100
AcDbSpline
 62
7
  6
BYLAYER
 70
0
 71
3
 72
11
 73
7
 74
0
 42
0.0000001
 43
0.0000001
 44
0.0000000001
 40
0.0
 40
0.0
 40
0.0
 40
0.0
 40
0.2783662878
 40
0.5352886908
 40
0.7732945588
 40
1.0
 40
1.0
 40
1.0
 40
1.0
 10
13.6733987613
 20
18.4248661143
 30
0.0
 10
13.6442314219
 20
18.4801234335
 30
0.0
 10
13.5777087929
 20
18.581446829
 30
0.0
 10
13.4504382827
 20
18.7021014096
 30
0.0
 10
13.3051617045
 20
18.7787571972
 30
0.0
 10
13.2001440415
 20
18.796534287
 30
0.0
 10
13.1492571349
 20
18.796534287
 30
0.0
  0
SPLINE
  5
2CF
100
AcDbEntity
  8
0
100
AcDbSpline
 62
7
  6
BYLAYER
 70
0
 71
3
 72
13
 73
9
 74
0
 42
0.0000001
 43
0.0000001
 44
0.0000000001
 40
0.0
 40
0.0
 40
0.0
 40
0.0
 40
0.1325991624
 40
0.2666167371
 40
0.4476560197
 40
0.6305404021
 40
0.8148129796
 40
1.0
 40
1.0
 40
1.0
 40
1.0
 10
13.7534478623
 20
18.8414774837
 30
0.0
 10
13.7471807448
 20
18.8237346333
 30
0.0
 10
13.73533355
 20
18.7877957717
 30
0.0
 10
13.7179602929
 20
18.7266800236
 30
0.0
 10
13.7019095583
 20
18.6578359852
 30
0.0
 10
13.688270109
 20
18.5812201928
 30
0.0
 10
13.6785264663
 20
18.5034197743
 30
0.0
 10
13.6746704831
 20
18.4511143409
 30
0.0
 10
13.6733987613
 20
18.4248661143
 30
0.0
  0
SPLINE
  5
2D0
100
AcDbEntity
  8
0
100
AcDbSpline
 62
7
  6
BYLAYER
 70
0
 71
3
 72
10
 73
6
 74
0
 42
0.0000001
 43
0.0000001
 44
0.0000000001
 40
0.0
 40
0.0
 40
0.0
 40
0.0
 40
0.3260690103
 40
0.6577625133
 40
1.0
 40
1.0
 40
1.0
 40
1.0
 10
13.4993986604
 20
18.7688524047
 30
0.0
 10
13.5284311184
 20
18.7688524047
 30
0.0
 10
13.5871448845
 20
18.7744270284
 30
0.0
 10
13.6731265817
 20
18.7992236798
 30
0.0
 10
13.7272733252
 20
18.8258749123
 30
0.0
 10
13.7534478623
 20
18.8414774837
 30
0.0
  0
SPLINE
  5
2D1
100
AcDbEntity
  8
0
100
AcDbSpline
 62
7
  6
BYLAYER
 70
0
 71
3
 72
14
 73
10
 74
0
 42
0.0000001
 43
0.0000001
 44
0.0000000001
 40
0.0
 40
0.0
 40
0.0
 40
0.0
 40
0.1598408615
 40
0.3210720032
 40
0.4779000051
 40
0.6254054664
 40
0.7606536424
 40
0.883962099
 40
1.0
 40
1.0
 40
1.0
 40
1.0
 10
12.8966624889
 20
20.05307826
 30
0.0
 10
12.8721840706
 20
19.9709347959
 30
0.0
 10
12.8410596459
 20
19.800115449
 30
0.0
 10
12.8456289138
 20
19.5423418166
 30
0.0
 10
12.899391455
 20
19.2967385271
 30
0.0
 10
12.9984898029
 20
19.0805954698
 30
0.0
 10
13.1371081294
 20
18.9090903938
 30
0.0
 10
13.3076507695
 20
18.7960179284
 30
0.0
 10
13.4371744439
 20
18.7688524047
 30
0.0
 10
13.4993986604
 20
18.7688524047
 30
0.0
  0
SPLINE
  5
2D2
100
AcDbEntity
  8
0
100
AcDbSpline
 62
7
  6
BYLAYER
 70
0
 71
3
 72
12
 73
8
 74
0
 42
0.0000001
 43
0.0000001
 44
0.0000000001
 40
0.0
 40
0.0
 40
0.0
 40
0.0
 40
0.1747731766
 40
0.3578791112
 40
0.5555258707
 40
0.7699676015
 40
1.0
 40
1.0
 40
1.0
 40
1.0
 10
13.4993986604
 20
20.6188524047
 30
0.0
 10
13.4479694842
 20
20.6188524047
 30
0.0
 10
13.3419304889
 20
20.6006979056
 30
0.0
 10
13.1956490737
 20
20.5226886337
 30
0.0
 10
13.0678693498
 20
20.4001618605
 30
0.0
 10
12.9643727996
 20
20.2404316239
 30
0.0
 10
12.915993731
 20
20.1179490855
 30
0.0
 10
12.8966624889
 20
20.05307826
 30
0.0
  0
SPLINE
  5
2D3
100
AcDbEntity
  8
0
100
AcDbSpline
 62
7
  6
BYLAYER
 70
0
 71
3
 72
14
 73
10
 74
0
 42
0.0000001
 43
0.0000001
 44
0.0000000001
 40
0.0
 40
0.0
 40
0.0
 40
0.0
 40
0.1598408615
 40
0.3210720032
 40
0.4779000051
 40
0.6254054664
 40
0.7606536424
 40
0.883962099
 40
1.0
 40
1.0
 40
1.0
 40
1.0
 10
14.1021348319
 20
19.3346265494
 30
0.0
 10
14.1266132501
 20
19.4167700135
 30
0.0
 10
14.1577376748
 20
19.5875893605
 30
0.0
 10
14.1531684069
 20
19.8453629928
 30
0.0
 10
14.0994058658
 20
20.0909662823
 30
0.0
 10
14.0003075178
 20
20.3071093396
 30
0.0
 10
13.8616891913
 20
20.4786144157
 30
0.0
 10
13.6911465512
 20
20.591686881
 30
0.0
 10
13.5616228769
 20
20.6188524047
 30
0.0
 10
13.4993986604
 20
20.6188524047
 30
0.0
  0
SPLINE
  5
2D4
100
AcDbEntity
  8
0
100
AcDbSpline
 62
7
  6
BYLAYER
 70
0
 71
3
 72
13
 73
9
 74
0
 42
0.0000001
 43
0.0000001
 44
0.0000000001
 40
0.0
 40
0.0
 40
0.0
 40
0.0
 40
0.2216091638
 40
0.44634619
 40
0.6755990709
 40
0.9105913894
 40
0.9551742966
 40
1.0
 40
1.0
 40
1.0
 40
1.0
 10
14.3876604255
 20
19.4468686371
 30
0.0
 10
14.3648886755
 20
19.4443023549
 30
0.0
 10
14.3193879322
 20
19.4362413988
 30
0.0
 10
14.252457286
 20
19.4158878396
 30
0.0
 10
14.1870864965
 20
19.3873741729
 30
0.0
 10
14.1414420816
 20
19.3610718593
 30
0.0
 10
14.113513203
 20
19.3425525752
 30
0.0
 10
14.105917634
 20
19.3372979103
 30
0.0
 10
14.1021348319
 20
19.3346265494
 30
0.0
  0
SPLINE
  5
2D5
100
AcDbEntity
  8
0
100
AcDbSpline
 62
7
  6
BYLAYER
 70
0
 71
3
 72
16
 73
12
 74
0
 42
0.0000001
 43
0.0000001
 44
0.0000000001
 40
0.0
 40
0.0
 40
0.0
 40
0.0
 40
0.0908865531
 40
0.1892064468
 40
0.2967230393
 40
0.4125635759
 40
0.5340163369
 40
0.6573067307
 40
0.7783497422
 40
0.8934311308
 40
1.0
 40
1.0
 40
1.0
 40
1.0
 10
14.6794123589
 20
21.1099856426
 30
0.0
 10
14.6211080137
 20
21.0980865489
 30
0.0
 10
14.5038035317
 20
21.0497161018
 30
0.0
 10
14.355374632
 20
20.9203265162
 30
0.0
 10
14.2372011545
 20
20.7434848096
 30
0.0
 10
14.1557181676
 20
20.5312200508
 30
0.0
 10
14.1153793878
 20
20.2971810578
 30
0.0
 10
14.1186066772
 20
20.0563750028
 30
0.0
 10
14.1653517821
 20
19.8242489483
 30
0.0
 10
14.2528332001
 20
19.6159650948
 30
0.0
 10
14.3390676446
 20
19.4969399235
 30
0.0
 10
14.3876604255
 20
19.4468686371
 30
0.0
  0
SPLINE
  5
2D6
100
AcDbEntity
  8
0
100
AcDbSpline
 62
7
  6
BYLAYER
 70
0
 71
3
 72
18
 73
14
 74
0
 42
0.0000001
 43
0.0000001
 44
0.0000000001
 40
0.0
 40
0.0
 40
0.0
 40
0.0
 40
0.077247696
 40
0.161146615
 40
0.2531429873
 40
0.3522419989
 40
0.4557752349
 40
0.560181801
 40
0.6617437745
 40
0.7572809646
 40
0.8449147416
 40
0.92486101
 40
1.0
 40
1.0
 40
1.0
 40
1.0
 10
14.866256263
 20
19.2789534989
 30
0.0
 10
14.9267422172
 20
19.2912978282
 30
0.0
 10
15.0485186426
 20
19.3425497148
 30
0.0
 10
15.2008530093
 20
19.4800065006
 30
0.0
 10
15.3200022767
 20
19.6673401023
 30
0.0
 10
15.399074749
 20
19.8909712023
 30
0.0
 10
15.4334957397
 20
20.1354642011
 30
0.0
 10
15.4211086737
 20
20.3839878102
 30
0.0
 10
15.3627139438
 20
20.61942549
 30
0.0
 10
15.2619236668
 20
20.8256026458
 30
0.0
 10
15.1244171607
 20
20.9881341521
 30
0.0
 10
14.9579007634
 20
21.0942357249
 30
0.0
 10
14.8328818871
 20
21.1194695707
 30
0.0
 10
14.7728343109
 20
21.1194695707
 30
0.0
  0
SPLINE
  5
2D7
100
AcDbEntity
  8
0
100
AcDbSpline
 62
7
  6
BYLAYER
 70
0
 71
3
 72
13
 73
9
 74
0
 42
0.0000001
 43
0.0000001
 44
0.0000000001
 40
0.0
 40
0.0
 40
0.0
 40
0.0
 40
0.1694631266
 40
0.3353312619
 40
0.4973020684
 40
0.6551366765
 40
0.8303221158
 40
1.0
 40
1.0
 40
1.0
 40
1.0
 10
15.1305704365
 20
18.8813414512
 30
0.0
 10
15.1206755656
 20
18.9066862397
 30
0.0
 10
15.0995183633
 20
18.9562394612
 30
0.0
 10
15.0633553111
 20
19.0274870624
 30
0.0
 10
15.023320357
 20
19.094477156
 30
0.0
 10
14.977644205
 20
19.1595975702
 30
0.0
 10
14.9258802443
 20
19.2216764382
 30
0.0
 10
14.8865406578
 20
19.2607387364
 30
0.0
 10
14.866256263
 20
19.2789534989
 30
0.0
  0
SPLINE
  5
2D8
100
AcDbEntity
  8
0
100
AcDbSpline
 62
7
  6
BYLAYER
 70
0
 71
3
 72
13
 73
9
 74
0
 42
0.0000001
 43
0.0000001
 44
0.0000000001
 40
0.0
 40
0.0
 40
0.0
 40
0.0
 40
0.1397275437
 40
0.2868621153
 40
0.4465249629
 40
0.620144734
 40
0.8059771953
 40
1.0
 40
1.0
 40
1.0
 40
1.0
 10
15.7533884532
 20
19.6916227103
 30
0.0
 10
15.701354044
 20
19.6916227103
 30
0.0
 10
15.5937183316
 20
19.6720475452
 30
0.0
 10
15.4469555908
 20
19.5885375547
 30
0.0
 10
15.3211222901
 20
19.4585190798
 30
0.0
 10
15.2223586287
 20
19.2905444304
 30
0.0
 10
15.1554678508
 20
19.0943080046
 30
0.0
 10
15.1348313443
 20
18.9534696208
 30
0.0
 10
15.1305704365
 20
18.8813414512
 30
0.0
  0
SPLINE
  5
2D9
100
AcDbEntity
  8
0
100
AcDbSpline
 62
7
  6
BYLAYER
 70
0
 71
3
 72
11
 73
7
 74
0
 42
0.0000001
 43
0.0000001
 44
0.0000000001
 40
0.0
 40
0.0
 40
0.0
 40
0.0
 40
0.2806509372
 40
0.538619848
 40
0.7757115793
 40
1.0
 40
1.0
 40
1.0
 40
1.0
 10
16.279691771
 20
19.2844419606
 30
0.0
 10
16.2526397742
 20
19.3441776141
 30
0.0
 10
16.1891181647
 20
19.4541892462
 30
0.0
 10
16.0624701774
 20
19.586670946
 30
0.0
 10
15.9144214229
 20
19.6717196465
 30
0.0
 10
15.8057946453
 20
19.6916227103
 30
0.0
 10
15.7533884532
 20
19.6916227103
 30
0.0
  0
SPLINE
  5
2DA
100
AcDbEntity
  8
0
100
AcDbSpline
 62
7
  6
BYLAYER
 70
0
 71
3
 72
15
 73
11
 74
0
 42
0.0000001
 43
0.0000001
 44
0.0000000001
 40
0.0
 40
0.0
 40
0.0
 40
0.0
 40
0.1004876812
 40
0.2071266962
 40
0.3237680547
 40
0.4509038259
 40
0.5863285398
 40
0.7261196145
 40
0.8655636066
 40
1.0
 40
1.0
 40
1.0
 40
1.0
 10
15.7533884532
 20
17.9238904978
 30
0.0
 10
15.809655819
 20
17.9238904978
 30
0.0
 10
15.926620303
 20
17.9470100533
 30
0.0
 10
16.083193403
 20
18.0445055333
 30
0.0
 10
16.213558363
 20
18.1943512827
 30
0.0
 10
16.3106302715
 20
18.3852051119
 30
0.0
 10
16.3690940083
 20
18.6043147342
 30
0.0
 10
16.3853354087
 20
18.8373207239
 30
0.0
 10
16.3582401302
 20
19.0686611683
 30
0.0
 10
16.3107457811
 20
19.2158691449
 30
0.0
 10
16.279691771
 20
19.2844419606
 30
0.0
  0
SPLINE
  5
2DB
100
AcDbEntity
  8
0
100
AcDbSpline
 62
7
  6
BYLAYER
 70
0
 71
3
 72
11
 73
7
 74
0
 42
0.0000001
 43
0.0000001
 44
0.0000000001
 40
0.0
 40
0.0
 40
0.0
 40
0.0
 40
0.2806509372
 40
0.538619848
 40
0.7757115793
 40
1.0
 40
1.0
 40
1.0
 40
1.0
 10
15.2270851355
 20
18.3310712474
 30
0.0
 10
15.2541371323
 20
18.2713355939
 30
0.0
 10
15.3176587418
 20
18.1613239619
 30
0.0
 10
15.4443067291
 20
18.028842262
 30
0.0
 10
15.5923554836
 20
17.9437935615
 30
0.0
 10
15.7009822612
 20
17.9238904978
 30
0.0
 10
15.7533884532
 20
17.9238904978
 30
0.0
  0
SPLINE
  5
2DC
100
AcDbEntity
  8
0
100
AcDbSpline
 62
7
  6
BYLAYER
 70
0
 71
3
 72
13
 73
9
 74
0
 42
0.0000001
 43
0.0000001
 44
0.0000000001
 40
0.0
 40
0.0
 40
0.0
 40
0.0
 40
0.1173671248
 40
0.2359897249
 40
0.4244236447
 40
0.6150157349
 40
0.8071027544
 40
1.0
 40
1.0
 40
1.0
 40
1.0
 10
15.1453494584
 20
17.8592215572
 30
0.0
 10
15.1516166941
 20
17.876964672
 30
0.0
 10
15.1634637707
 20
17.9129032692
 30
0.0
 10
15.1820728822
 20
17.9783667911
 30
0.0
 10
15.1998240395
 20
18.0562021402
 30
0.0
 10
15.2146403012
 20
18.1466058972
 30
0.0
 10
15.2240635006
 20
18.2384487483
 30
0.0
 10
15.2266872029
 20
18.3001469241
 30
0.0
 10
15.2270851355
 20
18.3310712474
 30
0.0
  0
SPLINE
  5
2DD
100
AcDbEntity
  8
0
100
AcDbSpline
 62
7
  6
BYLAYER
 70
0
 71
3
 72
10
 73
6
 74
0
 42
0.0000001
 43
0.0000001
 44
0.0000000001
 40
0.0
 40
0.0
 40
0.0
 40
0.0
 40
0.3260690103
 40
0.6577625133
 40
1.0
 40
1.0
 40
1.0
 40
1.0
 10
15.3993986604
 20
17.9318466362
 30
0.0
 10
15.3703662024
 20
17.9318466362
 30
0.0
 10
15.3116524362
 20
17.9262720125
 30
0.0
 10
15.225670739
 20
17.9014753611
 30
0.0
 10
15.1715239956
 20
17.8748241286
 30
0.0
 10
15.1453494584
 20
17.8592215572
 30
0.0
  0
SPLINE
  5
2DE
100
AcDbEntity
  8
0
100
AcDbSpline
 62
7
  6
BYLAYER
 70
0
 71
3
 72
14
 73
10
 74
0
 42
0.0000001
 43
0.0000001
 44
0.0000000001
 40
0.0
 40
0.0
 40
0.0
 40
0.0
 40
0.1598408615
 40
0.3210720032
 40
0.4779000051
 40
0.6254054664
 40
0.7606536424
 40
0.883962099
 40
1.0
 40
1.0
 40
1.0
 40
1.0
 10
16.0021348319
 20
16.6476207809
 30
0.0
 10
16.0266132501
 20
16.729764245
 30
0.0
 10
16.0577376748
 20
16.9005835919
 30
0.0
 10
16.0531684069
 20
17.1583572243
 30
0.0
 10
15.9994058658
 20
17.4039605138
 30
0.0
 10
15.9003075178
 20
17.6201035711
 30
0.0
 10
15.7616891913
 20
17.7916086471
 30
0.0
 10
15.5911465512
 20
17.9046811125
 30
0.0
 10
15.4616228769
 20
17.9318466362
 30
0.0
 10
15.3993986604
 20
17.9318466362
 30
0.0
  0
SPLINE
  5
2DF
100
AcDbEntity
  8
0
100
AcDbSpline
 62
7
  6
BYLAYER
 70
0
 71
3
 72
12
 73
8
 74
0
 42
0.0000001
 43
0.0000001
 44
0.0000000001
 40
0.0
 40
0.0
 40
0.0
 40
0.0
 40
0.1747731766
 40
0.3578791112
 40
0.5555258707
 40
0.7699676015
 40
1.0
 40
1.0
 40
1.0
 40
1.0
 10
15.3993986604
 20
16.0818466362
 30
0.0
 10
15.4508278365
 20
16.0818466362
 30
0.0
 10
15.5568668319
 20
16.1000011353
 30
0.0
 10
15.703148247
 20
16.1780104072
 30
0.0
 10
15.8309279709
 20
16.3005371804
 30
0.0
 10
15.9344245211
 20
16.460267417
 30
0.0
 10
15.9828035897
 20
16.5827499554
 30
0.0
 10
16.0021348319
 20
16.6476207809
 30
0.0
  0
SPLINE
  5
2E0
100
AcDbEntity
  8
0
100
AcDbSpline
 62
7
  6
BYLAYER
 70
0
 71
3
 72
14
 73
10
 74
0
 42
0.0000001
 43
0.0000001
 44
0.0000000001
 40
0.0
 40
0.0
 40
0.0
 40
0.0
 40
0.1598408615
 40
0.3210720032
 40
0.4779000051
 40
0.6254054664
 40
0.7606536424
 40
0.883962099
 40
1.0
 40
1.0
 40
1.0
 40
1.0
 10
14.7966624889
 20
17.3660724915
 30
0.0
 10
14.7721840706
 20
17.2839290274
 30
0.0
 10
14.7410596459
 20
17.1131096804
 30
0.0
 10
14.7456289138
 20
16.8553360481
 30
0.0
 10
14.799391455
 20
16.6097327586
 30
0.0
 10
14.8984898029
 20
16.3935897013
 30
0.0
 10
15.0371081294
 20
16.2220846252
 30
0.0
 10
15.2076507695
 20
16.1090121599
 30
0.0
 10
15.3371744439
 20
16.0818466362
 30
0.0
 10
15.3993986604
 20
16.0818466362
 30
0.0
  0
SPLINE
  5
2E1
100
AcDbEntity
  8
0
100
AcDbSpline
 62
7
  6
BYLAYER
 70
0
 71
3
 72
14
 73
10
 74
0
 42
0.0000001
 43
0.0000001
 44
0.0000000001
 40
0.0
 40
0.0
 40
0.0
 40
0.0
 40
0.1108548072
 40
0.2222764227
 40
0.4475309502
 40
0.6773781457
 40
0.9131371435
 40
0.9564506302
 40
1.0
 40
1.0
 40
1.0
 40
1.0
 10
14.5021226678
 20
17.2528852902
 30
0.0
 10
14.5138594266
 20
17.2540179129
 30
0.0
 10
14.5373119112
 20
17.2570470734
 30
0.0
 10
14.5840520902
 20
17.2661186696
 30
0.0
 10
14.6420087824
 20
17.2831326795
 30
0.0
 10
14.7096492319
 20
17.3121871548
 30
0.0
 10
14.7566944553
 20
17.3391890118
 30
0.0
 10
14.7852841177
 20
17.3581464658
 30
0.0
 10
14.7928796616
 20
17.3634011173
 30
0.0
 10
14.7966624889
 20
17.3660724915
 30
0.0
  0
SPLINE
  5
2E2
100
AcDbEntity
  8
0
100
AcDbSpline
 62
7
  6
BYLAYER
 70
0
 71
3
 72
16
 73
12
 74
0
 42
0.0000001
 43
0.0000001
 44
0.0000000001
 40
0.0
 40
0.0
 40
0.0
 40
0.0
 40
0.0906882364
 40
0.1886702744
 40
0.2958386476
 40
0.4114225896
 40
0.5327745416
 40
0.6561488445
 40
0.7774568335
 40
0.892947985
 40
1.0
 40
1.0
 40
1.0
 40
1.0
 10
14.1967165556
 20
15.5946819184
 30
0.0
 10
14.2550423008
 20
15.6056082764
 30
0.0
 10
14.3727148796
 20
15.6519903693
 30
0.0
 10
14.5223130259
 20
15.7790157017
 30
0.0
 10
14.6419651343
 20
15.9539890071
 30
0.0
 10
14.7251762182
 20
16.1649538682
 30
0.0
 10
14.7674070179
 20
16.3983375907
 30
0.0
 10
14.7661260315
 20
16.6391788435
 30
0.0
 10
14.7212651542
 20
16.8720295926
 30
0.0
 10
14.6354919712
 20
17.0816801017
 30
0.0
 10
14.5502910313
 20
17.2020277186
 30
0.0
 10
14.5021226678
 20
17.2528852902
 30
0.0
  0
SPLINE
  5
2E3
100
AcDbEntity
  8
0
100
AcDbSpline
 62
7
  6
BYLAYER
 70
0
 71
3
 72
18
 73
14
 74
0
 42
0.0000001
 43
0.0000001
 44
0.0000000001
 40
0.0
 40
0.0
 40
0.0
 40
0.0
 40
0.07709557
 40
0.1607598542
 40
0.2525523027
 40
0.3515402768
 40
0.4550713551
 40
0.559568773
 40
0.6612799176
 40
0.7569821925
 40
0.8447580913
 40
0.9248012083
 40
1.0
 40
1.0
 40
1.0
 40
1.0
 10
14.0249337681
 20
17.428661566
 30
0.0
 10
13.9641847805
 20
17.4172812539
 30
0.0
 10
13.8415123134
 20
17.3677771781
 30
0.0
 10
13.6875046091
 20
17.231836088
 30
0.0
 10
13.5666963993
 20
17.0452119681
 30
0.0
 10
13.4860913236
 20
16.8215771387
 30
0.0
 10
13.4503757859
 20
16.5764842906
 30
0.0
 10
13.4618014392
 20
16.3269257879
 30
0.0
 10
13.5196248558
 20
16.0902145257
 30
0.0
 10
13.6202443972
 20
15.8827304785
 30
0.0
 10
13.757952807
 20
15.7190484882
 30
0.0
 10
13.9249937327
 20
15.6121196571
 30
0.0
 10
14.0505400134
 20
15.5866717422
 30
0.0
 10
14.1108251619
 20
15.5866717422
 30
0.0
  0
SPLINE
  5
2E4
100
AcDbEntity
  8
0
100
AcDbSpline
 62
7
  6
BYLAYER
 70
0
 71
3
 72
13
 73
9
 74
0
 42
0.0000001
 43
0.0000001
 44
0.0000000001
 40
0.0
 40
0.0
 40
0.0
 40
0.0
 40
0.1559046777
 40
0.3090652393
 40
0.4593321437
 40
0.6065879815
 40
0.8062339592
 40
1.0
 40
1.0
 40
1.0
 40
1.0
 10
13.7976659678
 20
17.7500560131
 30
0.0
 10
13.8062834249
 20
17.7313609445
 30
0.0
 10
13.8242956736
 20
17.6947210038
 30
0.0
 10
13.8538821847
 20
17.6417473937
 30
0.0
 10
13.8857002747
 20
17.5914243964
 30
0.0
 10
13.923906708
 20
17.5380033959
 30
0.0
 10
13.9695341611
 20
17.4829778913
 30
0.0
 10
14.0061038967
 20
17.4460037279
 30
0.0
 10
14.0249337681
 20
17.428661566
 30
0.0
  0
SPLINE
  5
2E5
100
AcDbEntity
  8
0
100
AcDbSpline
 62
7
  6
BYLAYER
 70
0
 71
3
 72
12
 73
8
 74
0
 42
0.0000001
 43
0.0000001
 44
0.0000000001
 40
0.0
 40
0.0
 40
0.0
 40
0.0
 40
0.1691524514
 40
0.3499400392
 40
0.5493783898
 40
0.767680266
 40
1.0
 40
1.0
 40
1.0
 40
1.0
 10
13.1492571349
 20
16.946534287
 30
0.0
 10
13.2126096911
 20
16.946534287
 30
0.0
 10
13.3449011011
 20
16.9748250956
 30
0.0
 10
13.5184620188
 20
17.0925573611
 30
0.0
 10
13.6585665244
 20
17.2713072075
 30
0.0
 10
13.7568297537
 20
17.4963688031
 30
0.0
 10
13.7895508557
 20
17.6634247141
 30
0.0
 10
13.7976659678
 20
17.7500560131
 30
0.0
  0
SPLINE
  5
2E6
100
AcDbEntity
  8
0
100
AcDbSpline
 62
7
  6
BYLAYER
 70
0
 71
3
 72
11
 73
7
 74
0
 42
0.0000001
 43
0.0000001
 44
0.0000000001
 40
0.0
 40
0.0
 40
0.0
 40
0.0
 40
0.2783662878
 40
0.5352886908
 40
0.7732945588
 40
1.0
 40
1.0
 40
1.0
 40
1.0
 10
12.6251155086
 20
17.3182024597
 30
0.0
 10
12.654282848
 20
17.2629451405
 30
0.0
 10
12.720805477
 20
17.161621745
 30
0.0
 10
12.8480759872
 20
17.0409671644
 30
0.0
 10
12.9933525654
 20
16.9643113769
 30
0.0
 10
13.0983702284
 20
16.946534287
 30
0.0
 10
13.1492571349
 20
16.946534287
 30
0.0
  0
SPLINE
  5
2E7
100
AcDbEntity
  8
0
100
AcDbSpline
 62
7
  6
BYLAYER
 70
0
 71
3
 72
15
 73
11
 74
0
 42
0.0000001
 43
0.0000001
 44
0.0000000001
 40
0.0
 40
0.0
 40
0.0
 40
0.0
 40
0.1004753989
 40
0.2074713127
 40
0.3249101093
 40
0.4530389642
 40
0.5892387887
 40
0.7291409235
 40
0.8676689041
 40
1.0
 40
1.0
 40
1.0
 40
1.0
 10
13.1492571349
 20
18.796534287
 30
0.0
 10
13.0883623185
 20
18.796534287
 30
0.0
 10
12.9615017648
 20
18.7705399317
 30
0.0
 10
12.7931951932
 20
18.6615493259
 30
0.0
 10
12.6550195997
 20
18.4950396746
 30
0.0
 10
12.5548122899
 20
18.2842640072
 30
0.0
 10
12.4983821251
 20
18.0441439836
 30
0.0
 10
12.489458345
 20
17.7914181555
 30
0.0
 10
12.5287368452
 20
17.5440659525
 30
0.0
 10
12.5876769978
 20
17.3891294549
 30
0.0
 10
12.6251155086
 20
17.3182024597
 30
0.0
  0
SPLINE
  5
2E8
100
AcDbEntity
  8
0
100
AcDbSpline
 62
7
  6
BYLAYER
 70
0
 71
3
 72
23
 73
19
 74
0
 42
0.0000001
 43
0.0000001
 44
0.0000000001
 40
0.0
 40
0.0
 40
0.0
 40
0.0
 40
0.0725125904
 40
0.1436522423
 40
0.2121827066
 40
0.2771463858
 40
0.338014309
 40
0.3948364803
 40
0.4483559497
 40
0.5
 40
0.5516440503
 40
0.6051635197
 40
0.661985691
 40
0.7228536142
 40
0.7878172934
 40
0.8563477577
 40
0.9274874096
 40
1.0
 40
1.0
 40
1.0
 40
1.0
 10
8.4120397004
 20
18.3503495205
 30
0.0
 10
8.4120397004
 20
18.109155313
 30
0.0
 10
8.4450233429
 20
17.6306505262
 30
0.0
 10
8.5921299089
 20
16.9380042994
 30
0.0
 10
8.8314475296
 20
16.2978649987
 30
0.0
 10
9.1545837606
 20
15.7342339668
 30
0.0
 10
9.5505184619
 20
15.2682617513
 30
0.0
 10
10.0060033897
 20
14.9183480205
 30
0.0
 10
10.5052173757
 20
14.7002006786
 30
0.0
 10
11.0283347907
 20
14.6258684483
 30
0.0
 10
11.5514522058
 20
14.7002006786
 30
0.0
 10
12.0506661918
 20
14.9183480205
 30
0.0
 10
12.5061511195
 20
15.2682617513
 30
0.0
 10
12.9020858209
 20
15.7342339668
 30
0.0
 10
13.2252220519
 20
16.2978649987
 30
0.0
 10
13.4645396726
 20
16.9380042994
 30
0.0
 10
13.6116462386
 20
17.6306505262
 30
0.0
 10
13.6446298811
 20
18.109155313
 30
0.0
 10
13.6446298811
 20
18.3503495205
 30
0.0
  0
SPLINE
  5
2E9
100
AcDbEntity
  8
0
100
AcDbSpline
 62
7
  6
BYLAYER
 70
0
 71
3
 72
23
 73
19
 74
0
 42
0.0000001
 43
0.0000001
 44
0.0000000001
 40
0.0
 40
0.0
 40
0.0
 40
0.0
 40
0.066933905
 40
0.1332240761
 40
0.1983080323
 40
0.2617814624
 40
0.3234642995
 40
0.3834453578
 40
0.4420905787
 40
0.5
 40
0.5579094213
 40
0.6165546422
 40
0.6765357005
 40
0.7382185376
 40
0.8016919677
 40
0.8667759239
 40
0.933066095
 40
1.0
 40
1.0
 40
1.0
 40
1.0
 10
11.8865787705
 20
18.3503495205
 30
0.0
 10
11.8865787705
 20
18.1088711471
 30
0.0
 10
11.8458945518
 20
17.6272288452
 30
0.0
 10
11.6647329006
 20
16.9316001696
 30
0.0
 10
11.3700887966
 20
16.28918815
 30
0.0
 10
10.9726340429
 20
15.7246766319
 30
0.0
 10
10.4868501164
 20
15.2597997256
 30
0.0
 10
9.9307135151
 20
14.9130505767
 30
0.0
 10
9.3253755875
 20
14.6987850928
 30
0.0
 10
8.6946386261
 20
14.6262846191
 30
0.0
 10
8.0639016647
 20
14.6987850928
 30
0.0
 10
7.4585637371
 20
14.9130505767
 30
0.0
 10
6.9024271359
 20
15.2597997256
 30
0.0
 10
6.4166432093
 20
15.7246766319
 30
0.0
 10
6.0191884556
 20
16.28918815
 30
0.0
 10
5.7245443517
 20
16.9316001696
 30
0.0
 10
5.5433827004
 20
17.6272288452
 30
0.0
 10
5.5026984818
 20
18.1088711471
 30
0.0
 10
5.5026984818
 20
18.3503495205
 30
0.0
  0
SPLINE
  5
2EA
100
AcDbEntity
  8
0
100
AcDbSpline
 62
7
  6
BYLAYER
 70
0
 71
3
 72
23
 73
19
 74
0
 42
0.0000001
 43
0.0000001
 44
0.0000000001
 40
0.0
 40
0.0
 40
0.0
 40
0.0
 40
0.0725125904
 40
0.1436522423
 40
0.2121827066
 40
0.2771463858
 40
0.338014309
 40
0.3948364803
 40
0.4483559497
 40
0.5
 40
0.5516440503
 40
0.6051635197
 40
0.661985691
 40
0.7228536142
 40
0.7878172934
 40
0.8563477577
 40
0.9274874096
 40
1.0
 40
1.0
 40
1.0
 40
1.0
 10
13.6446298811
 20
18.3503495205
 30
0.0
 10
13.6446298811
 20
18.5915437279
 30
0.0
 10
13.6116462386
 20
19.0700485147
 30
0.0
 10
13.4645396726
 20
19.7626947415
 30
0.0
 10
13.2252220519
 20
20.4028340422
 30
0.0
 10
12.9020858209
 20
20.9664650741
 30
0.0
 10
12.5061511195
 20
21.4324372896
 30
0.0
 10
12.0506661918
 20
21.7823510204
 30
0.0
 10
11.5514522058
 20
22.0004983623
 30
0.0
 10
11.0283347907
 20
22.0748305926
 30
0.0
 10
10.5052173757
 20
22.0004983623
 30
0.0
 10
10.0060033897
 20
21.7823510204
 30
0.0
 10
9.5505184619
 20
21.4324372896
 30
0.0
 10
9.1545837606
 20
20.9664650741
 30
0.0
 10
8.8314475296
 20
20.4028340422
 30
0.0
 10
8.5921299089
 20
19.7626947415
 30
0.0
 10
8.4450233429
 20
19.0700485147
 30
0.0
 10
8.4120397004
 20
18.5915437279
 30
0.0
 10
8.4120397004
 20
18.3503495205
 30
0.0
  0
SPLINE
  5
2EB
100
AcDbEntity
  8
0
100
AcDbSpline
 62
7
  6
BYLAYER
 70
0
 71
3
 72
23
 73
19
 74
0
 42
0.0000001
 43
0.0000001
 44
0.0000000001
 40
0.0
 40
0.0
 40
0.0
 40
0.0
 40
0.066933905
 40
0.1332240761
 40
0.1983080323
 40
0.2617814624
 40
0.3234642995
 40
0.3834453578
 40
0.4420905787
 40
0.5
 40
0.5579094213
 40
0.6165546422
 40
0.6765357005
 40
0.7382185376
 40
0.8016919677
 40
0.8667759239
 40
0.933066095
 40
1.0
 40
1.0
 40
1.0
 40
1.0
 10
5.5026984818
 20
18.3503495205
 30
0.0
 10
5.5026984818
 20
18.5918278938
 30
0.0
 10
5.5433827004
 20
19.0734701957
 30
0.0
 10
5.7245443517
 20
19.7690988713
 30
0.0
 10
6.0191884556
 20
20.4115108909
 30
0.0
 10
6.4166432093
 20
20.976022409
 30
0.0
 10
6.9024271359
 20
21.4408993153
 30
0.0
 10
7.4585637371
 20
21.7876484642
 30
0.0
 10
8.0639016647
 20
22.0019139481
 30
0.0
 10
8.6946386261
 20
22.0744144218
 30
0.0
 10
9.3253755875
 20
22.0019139481
 30
0.0
 10
9.9307135151
 20
21.7876484642
 30
0.0
 10
10.4868501164
 20
21.4408993153
 30
0.0
 10
10.9726340429
 20
20.976022409
 30
0.0
 10
11.3700887966
 20
20.4115108909
 30
0.0
 10
11.6647329006
 20
19.7690988713
 30
0.0
 10
11.8458945518
 20
19.0734701957
 30
0.0
 10
11.8865787705
 20
18.5918278938
 30
0.0
 10
11.8865787705
 20
18.3503495205
 30
0.0
  0
SPLINE
  5
2EC
100
AcDbEntity
  8
0
100
AcDbSpline
 62
7
  6
BYLAYER
 70
0
 71
3
 72
23
 73
19
 74
0
 42
0.0000001
 43
0.0000001
 44
0.0000000001
 40
0.0
 40
0.0
 40
0.0
 40
0.0
 40
0.0805661508
 40
0.1589239108
 40
0.2328100988
 40
0.3000681773
 40
0.3603617901
 40
0.4129390111
 40
0.4585626266
 40
0.4999077515
 40
0.5411899684
 40
0.5866082577
 40
0.6388850126
 40
0.6989491675
 40
0.7662001028
 40
0.8402987755
 40
0.9190303892
 40
1.0
 40
1.0
 40
1.0
 40
1.0
 10
17.7048230717
 20
18.3503495205
 30
0.0
 10
17.7048230717
 20
18.5913559161
 30
0.0
 10
17.6814602431
 20
19.0671152309
 30
0.0
 10
17.5771407146
 20
19.7569164118
 30
0.0
 10
17.4079420125
 20
20.3929341902
 30
0.0
 10
17.1801784794
 20
20.9528535016
 30
0.0
 10
16.9015621365
 20
21.4172330223
 30
0.0
 10
16.5790108548
 20
21.7703249951
 30
0.0
 10
16.2199015814
 20
21.9962316917
 30
0.0
 10
15.8346257761
 20
22.0758676139
 30
0.0
 10
15.4498183183
 20
21.9971494578
 30
0.0
 10
15.091631144
 20
21.7730709416
 30
0.0
 10
14.7696115828
 20
21.4225050727
 30
0.0
 10
14.4906436565
 20
20.960207234
 30
0.0
 10
14.2617759335
 20
20.4007973853
 30
0.0
 10
14.0912480007
 20
19.7633195062
 30
0.0
 10
13.9859477354
 20
19.0706527737
 30
0.0
 10
13.9623543063
 20
18.5925628303
 30
0.0
 10
13.9623543063
 20
18.3503495205
 30
0.0
  0
SPLINE
  5
2ED
100
AcDbEntity
  8
0
100
AcDbSpline
 62
7
  6
BYLAYER
 70
0
 71
3
 72
23
 73
19
 74
0
 42
0.0000001
 43
0.0000001
 44
0.0000000001
 40
0.0
 40
0.0
 40
0.0
 40
0.0
 40
0.0805661508
 40
0.1589239108
 40
0.2328100988
 40
0.3000681773
 40
0.3603617901
 40
0.4129390111
 40
0.4585626266
 40
0.4999077515
 40
0.5411899684
 40
0.5866082577
 40
0.6388850126
 40
0.6989491675
 40
0.7662001028
 40
0.8402987755
 40
0.9190303892
 40
1.0
 40
1.0
 40
1.0
 40
1.0
 10
13.9623543063
 20
18.3503495205
 30
0.0
 10
13.9623543063
 20
18.1093431248
 30
0.0
 10
13.9857171349
 20
17.63358381
 30
0.0
 10
14.0900366633
 20
16.9437826291
 30
0.0
 10
14.2592353655
 20
16.3077648507
 30
0.0
 10
14.4869988985
 20
15.7478455393
 30
0.0
 10
14.7656152414
 20
15.2834660186
 30
0.0
 10
15.0881665232
 20
14.9303740458
 30
0.0
 10
15.4472757966
 20
14.7044673492
 30
0.0
 10
15.8325516019
 20
14.624831427
 30
0.0
 10
16.2173590597
 20
14.7035495832
 30
0.0
 10
16.575546234
 20
14.9276280993
 30
0.0
 10
16.8975657952
 20
15.2781939682
 30
0.0
 10
17.1765337214
 20
15.7404918069
 30
0.0
 10
17.4054014444
 20
16.2999016556
 30
0.0
 10
17.5759293773
 20
16.9373795347
 30
0.0
 10
17.6812296425
 20
17.6300462672
 30
0.0
 10
17.7048230717
 20
18.1081362106
 30
0.0
 10
17.7048230717
 20
18.3503495205
 30
0.0
  0
SPLINE
  5
2EE
100
AcDbEntity
  8
0
100
AcDbSpline
 62
7
  6
BYLAYER
 70
0
 71
3
 72
10
 73
6
 74
0
 42
0.0000001
 43
0.0000001
 44
0.0000000001
 40
0.0
 40
0.0
 40
0.0
 40
0.0
 40
0.3629869006
 40
0.6955126736
 40
1.0
 40
1.0
 40
1.0
 40
1.0
 10
13.6733987613
 20
18.4248661143
 30
0.0
 10
13.6815000683
 20
18.4248661143
 30
0.0
 10
13.6970331267
 20
18.4253961424
 30
0.0
 10
13.7192176783
 20
18.4280956687
 30
0.0
 10
13.7331074705
 20
18.4313132063
 30
0.0
 10
13.7396086754
 20
18.433292018
 30
0.0
  0
SPLINE
  5
2EF
100
AcDbEntity
  8
0
100
AcDbSpline
 62
7
  6
BYLAYER
 70
0
 71
3
 72
10
 73
6
 74
0
 42
0.0000001
 43
0.0000001
 44
0.0000000001
 40
0.0
 40
0.0
 40
0.0
 40
0.0
 40
0.3232530409
 40
0.6560838892
 40
1.0
 40
1.0
 40
1.0
 40
1.0
 10
13.8676821902
 20
17.742859615
 30
0.0
 10
13.8602607477
 20
17.7444844319
 30
0.0
 10
13.8450614541
 20
17.7471869324
 30
0.0
 10
13.8216603513
 20
17.7495599421
 30
0.0
 10
13.8057488255
 20
17.7500560131
 30
0.0
 10
13.7976659678
 20
17.7500560131
 30
0.0
  0
SPLINE
  5
2F0
100
AcDbEntity
  8
0
100
AcDbSpline
 62
7
  6
BYLAYER
 70
0
 71
3
 72
54
 73
50
 74
0
 42
0.0000001
 43
0.0000001
 44
0.0000000001
 40
0.0
 40
0.0
 40
0.0
 40
0.0
 40
0.0091044022
 40
0.0212546256
 40
0.0388916402
 40
0.0908002899
 40
0.1630292904
 40
0.2518156439
 40
0.3524904436
 40
0.4602369122
 40
0.5702542209
 40
0.6246198176
 40
0.6777800594
 40
0.7291542899
 40
0.7781347975
 40
0.8240791783
 40
0.8456787436
 40
0.8662328496
 40
0.8856323186
 40
0.9037220126
 40
0.9203355867
 40
0.935307233
 40
0.9484487555
 40
0.954247304
 40
0.9594809446
 40
0.9641126801
 40
0.9681063522
 40
0.9714274236
 40
0.9740449299
 40
0.9750826995
 40
0.975937473
 40
0.9766115836
 40
0.977116994
 40
0.9774924957
 40
0.9776621854
 40
0.977841276
 40
0.9780455111
 40
0.9782862566
 40
0.9789037175
 40
0.9797294711
 40
0.9807798979
 40
0.9820649661
 40
0.9835920077
 40
0.9873952087
 40
0.9922315399
 40
0.9940078149
 40
0.9958944805
 40
0.9978917941
 40
1.0
 40
1.0
 40
1.0
 40
1.0
 10
12.7652656323
 20
18.1680402508
 30
0.0
 10
12.7752983811
 20
18.1684705157
 30
0.0
 10
12.7987195568
 20
18.1694913119
 30
0.0
 10
12.8415737104
 20
18.1714008782
 30
0.0
 10
12.9315926815
 20
18.1754248676
 30
0.0
 10
13.0878100161
 20
18.1824343326
 30
0.0
 10
13.3224208799
 20
18.1930473293
 30
0.0
 10
13.6107464977
 20
18.206492144
 30
0.0
 10
13.9381820929
 20
18.2222380284
 30
0.0
 10
14.2889774008
 20
18.2397342667
 30
0.0
 10
14.588722822
 20
18.255380045
 30
0.0
 10
14.828311924
 20
18.2684566747
 30
0.0
 10
15.0032956523
 20
18.2783577035
 30
0.0
 10
15.172325035
 20
18.2883431646
 30
0.0
 10
15.333377833
 20
18.2983792674
 30
0.0
 10
15.4616191968
 20
18.306908388
 30
0.0
 10
15.5585452376
 20
18.3137965463
 30
0.0
 10
15.6262487502
 20
18.3188521152
 30
0.0
 10
15.6900707074
 20
18.3238936649
 30
0.0
 10
15.7495332456
 20
18.3289194803
 30
0.0
 10
15.8040955036
 20
18.3339216262
 30
0.0
 10
15.8531780247
 20
18.3388907162
 30
0.0
 10
15.8903426464
 20
18.343132134
 30
0.0
 10
15.9167846838
 20
18.3465625205
 30
0.0
 10
15.9338886969
 20
18.3490059643
 30
0.0
 10
15.9489833038
 20
18.351423613
 30
0.0
 10
15.9619449374
 20
18.3538068964
 30
0.0
 10
15.9726475991
 20
18.3561514234
 30
0.0
 10
15.9800796113
 20
18.3581777004
 30
0.0
 10
15.984767352
 20
18.3598502553
 30
0.0
 10
15.9873628685
 20
18.3609892506
 30
0.0
 10
15.989309304
 20
18.3621204094
 30
0.0
 10
15.9906271669
 20
18.3632376607
 30
0.0
 10
15.9911988282
 20
18.3643146558
 30
0.0
 10
15.9911768734
 20
18.3651298436
 30
0.0
 10
15.9909598566
 20
18.3657096092
 30
0.0
 10
15.9905534378
 20
18.3662726044
 30
0.0
 10
15.9896918441
 20
18.3670744749
 30
0.0
 10
15.9880773222
 20
18.3680251192
 30
0.0
 10
15.985532767
 20
18.3690751711
 30
0.0
 10
15.9822006709
 20
18.3701157891
 30
0.0
 10
15.9780653285
 20
18.3711452283
 30
0.0
 10
15.9709151198
 20
18.3726079241
 30
0.0
 10
15.9598278599
 20
18.374320196
 30
0.0
 10
15.9484170398
 20
18.375663526
 30
0.0
 10
15.9390906648
 20
18.376612982
 30
0.0
 10
15.9328750046
 20
18.3771987661
 30
0.0
 10
15.9262908984
 20
18.3777752332
 30
0.0
 10
15.9217775154
 20
18.3781429405
 30
0.0
 10
15.9194594118
 20
18.3783257891
 30
0.0
  0
SPLINE
  5
2F1
100
AcDbEntity
  8
0
100
AcDbSpline
 62
7
  6
BYLAYER
 70
0
 71
3
 72
34
 73
30
 74
0
 42
0.0000001
 43
0.0000001
 44
0.0000000001
 40
0.0
 40
0.0
 40
0.0
 40
0.0
 40
0.097528784
 40
0.1739705083
 40
0.2275179392
 40
0.2615429674
 40
0.2805675269
 40
0.2877705096
 40
0.2905270881
 40
0.3006379171
 40
0.3168388532
 40
0.3379272893
 40
0.3629312293
 40
0.3904114498
 40
0.4193647088
 40
0.4489419177
 40
0.4794042403
 40
0.5105667396
 40
0.5431812342
 40
0.5771194612
 40
0.6123059856
 40
0.6483196708
 40
0.6854980555
 40
0.7245209572
 40
0.7664653581
 40
0.8128586112
 40
0.8657150107
 40
0.9274820792
 40
1.0
 40
1.0
 40
1.0
 40
1.0
 10
14.5445226763
 20
17.250879003
 30
0.0
 10
14.5791866459
 20
17.2508700465
 30
0.0
 10
14.6407232703
 20
17.250664353
 30
0.0
 10
14.722580618
 20
17.2496926557
 30
0.0
 10
14.7786566886
 20
17.24811518
 30
0.0
 10
14.8208187621
 20
17.2465508938
 30
0.0
 10
14.8351811624
 20
17.244633109
 30
0.0
 10
14.8536969547
 20
17.2434476167
 30
0.0
 10
14.845269108
 20
17.2395330568
 30
0.0
 10
14.835864616
 20
17.2407332747
 30
0.0
 10
14.8185068741
 20
17.239598306
 30
0.0
 10
14.7965755888
 20
17.2406406366
 30
0.0
 10
14.7704004176
 20
17.2421135401
 30
0.0
 10
14.7416018085
 20
17.2448912536
 30
0.0
 10
14.7112713157
 20
17.2487985544
 30
0.0
 10
14.680060509
 20
17.2539662752
 30
0.0
 10
14.6482897564
 20
17.2604390582
 30
0.0
 10
14.6157448495
 20
17.2683955408
 30
0.0
 10
14.5823577008
 20
17.2779955379
 30
0.0
 10
14.5480312724
 20
17.289396226
 30
0.0
 10
14.5130371358
 20
17.3025270327
 30
0.0
 10
14.4774100814
 20
17.3171843425
 30
0.0
 10
14.4408068008
 20
17.3330249155
 30
0.0
 10
14.4022275355
 20
17.3496080347
 30
0.0
 10
14.3601135597
 20
17.3662452551
 30
0.0
 10
14.3123672798
 20
17.3818407693
 30
0.0
 10
14.2565899171
 20
17.3949929517
 30
0.0
 10
14.1906405565
 20
17.4042902907
 30
0.0
 10
14.1429041426
 20
17.4067528184
 30
0.0
 10
14.117131318
 20
17.4070497678
 30
0.0
  0
SPLINE
  5
2F2
100
AcDbEntity
  8
0
100
AcDbSpline
 62
7
  6
BYLAYER
 70
0
 71
3
 72
42
 73
38
 74
0
 42
0.0000001
 43
0.0000001
 44
0.0000000001
 40
0.0
 40
0.0
 40
0.0
 40
0.0
 40
0.0921732705
 40
0.1670499604
 40
0.226765848
 40
0.2737125879
 40
0.3110226519
 40
0.3428160248
 40
0.37245643
 40
0.4016486166
 40
0.4309806899
 40
0.4605012309
 40
0.4900864576
 40
0.5195888517
 40
0.5488310212
 40
0.577618401
 40
0.6057644111
 40
0.6321103622
 40
0.6563142357
 40
0.6782696761
 40
0.6988041562
 40
0.7180636672
 40
0.7361891559
 40
0.7528060589
 40
0.767736224
 40
0.7809117454
 40
0.79246253
 40
0.8026968189
 40
0.8122711882
 40
0.8222600675
 40
0.8341622786
 40
0.8497566599
 40
0.8690442862
 40
0.8914604325
 40
0.9185099857
 40
0.9532997379
 40
1.0
 40
1.0
 40
1.0
 40
1.0
 10
15.2013003039
 20
17.8225971026
 30
0.0
 10
15.2434034415
 20
17.8212536586
 30
0.0
 10
15.3197042712
 20
17.8155870741
 30
0.0
 10
15.4216707544
 20
17.7952972904
 30
0.0
 10
15.4997140245
 20
17.7656117197
 30
0.0
 10
15.5546427054
 20
17.7278005452
 30
0.0
 10
15.5871058472
 20
17.6844725118
 30
0.0
 10
15.5998115455
 20
17.6402070179
 30
0.0
 10
15.5978955831
 20
17.5982626054
 30
0.0
 10
15.5860438065
 20
17.5594306094
 30
0.0
 10
15.5672463518
 20
17.5236547279
 30
0.0
 10
15.5434752968
 20
17.4908357896
 30
0.0
 10
15.5161416566
 20
17.4608648647
 30
0.0
 10
15.4862976013
 20
17.4336131992
 30
0.0
 10
15.4547519575
 20
17.4089591224
 30
0.0
 10
15.422160877
 20
17.3868031655
 30
0.0
 10
15.3894589267
 20
17.3672921319
 30
0.0
 10
15.357621436
 20
17.3505298564
 30
0.0
 10
15.3275775915
 20
17.3365243557
 30
0.0
 10
15.2993930202
 20
17.3248948712
 30
0.0
 10
15.2728578825
 20
17.315262934
 30
0.0
 10
15.2475947209
 20
17.3073312641
 30
0.0
 10
15.2237153671
 20
17.3010566635
 30
0.0
 10
15.2014700414
 20
17.2964676489
 30
0.0
 10
15.1812129706
 20
17.2936219603
 30
0.0
 10
15.1630942137
 20
17.2925642973
 30
0.0
 10
15.1470942048
 20
17.2934011284
 30
0.0
 10
15.1329973683
 20
17.2964271032
 30
0.0
 10
15.1205363648
 20
17.3022854309
 30
0.0
 10
15.1095109101
 20
17.3117384558
 30
0.0
 10
15.0988720044
 20
17.3252062941
 30
0.0
 10
15.0861248298
 20
17.3423635682
 30
0.0
 10
15.0671503574
 20
17.3607791312
 30
0.0
 10
15.0389840538
 20
17.3756722075
 30
0.0
 10
15.0011998733
 20
17.3844379024
 30
0.0
 10
14.9516036916
 20
17.3877262557
 30
0.0
 10
14.9143422886
 20
17.3869603678
 30
0.0
 10
14.8930168864
 20
17.3861007774
 30
0.0
  0
SPLINE
  5
2F3
100
AcDbEntity
  8
0
100
AcDbSpline
 62
7
  6
BYLAYER
 70
0
 71
3
 72
17
 73
13
 74
0
 42
0.0000001
 43
0.0000001
 44
0.0000000001
 40
0.0
 40
0.0
 40
0.0
 40
0.0
 40
0.0290198729
 40
0.1042336568
 40
0.2108401667
 40
0.3382688988
 40
0.4785115558
 40
0.6247431569
 40
0.7703323285
 40
0.9086277311
 40
0.9553810633
 40
1.0
 40
1.0
 40
1.0
 40
1.0
 10
10.5655501616
 20
18.1326587901
 30
0.0
 10
10.5900385726
 20
18.133719012
 30
0.0
 10
10.6779960344
 20
18.1375290099
 30
0.0
 10
10.8559115877
 20
18.1452750607
 30
0.0
 10
11.1168567105
 20
18.1569068488
 30
0.0
 10
11.4326555629
 20
18.1713777502
 30
0.0
 10
11.7818740606
 20
18.187687828
 30
0.0
 10
12.1463933576
 20
18.2051705175
 30
0.0
 10
12.5092394484
 20
18.2231973351
 30
0.0
 10
12.7881331199
 20
18.2377008684
 30
0.0
 10
12.9818330912
 20
18.2482426413
 30
0.0
 10
13.0588896248
 20
18.2525479398
 30
0.0
 10
13.0965161566
 20
18.2546812817
 30
0.0
  0
SPLINE
  5
2F4
100
AcDbEntity
  8
0
100
AcDbSpline
 62
7
  6
BYLAYER
 70
0
 71
3
 72
56
 73
52
 74
0
 42
0.0000001
 43
0.0000001
 44
0.0000000001
 40
0.0
 40
0.0
 40
0.0
 40
0.0
 40
0.0207064996
 40
0.0345397066
 40
0.0428879372
 40
0.0485220037
 40
0.0548963744
 40
0.0635595179
 40
0.0747490364
 40
0.0890265647
 40
0.1071677454
 40
0.1299918368
 40
0.1579615879
 40
0.1905546616
 40
0.2269223993
 40
0.2628598086
 40
0.2933618972
 40
0.3177973526
 40
0.3375538029
 40
0.3535024311
 40
0.3664917019
 40
0.377338793
 40
0.386910572
 40
0.3960647457
 40
0.4055617475
 40
0.4159968614
 40
0.4277983495
 40
0.4411666051
 40
0.4559627366
 40
0.4720126473
 40
0.4894647684
 40
0.5083597046
 40
0.5291183337
 40
0.5518555297
 40
0.5764671802
 40
0.6023096191
 40
0.6292529206
 40
0.6573076135
 40
0.6865165353
 40
0.7168821343
 40
0.7483616431
 40
0.7808479321
 40
0.8141154997
 40
0.8477907929
 40
0.8812176602
 40
0.9132999114
 40
0.9421316274
 40
0.9645848231
 40
0.9758416789
 40
0.982165108
 40
1.0
 40
1.0
 40
1.0
 40
1.0
 10
13.8321139525
 20
18.8737058009
 30
0.0
 10
13.8454609194
 20
18.8721135975
 30
0.0
 10
13.8678617633
 20
18.8690986714
 30
0.0
 10
13.8945072107
 20
18.8624106281
 30
0.0
 10
13.9116568497
 20
18.8537410357
 30
0.0
 10
13.9155921883
 20
18.839363837
 30
0.0
 10
13.9066798744
 20
18.8277099706
 30
0.0
 10
13.8914018841
 20
18.8198379396
 30
0.0
 10
13.8691046085
 20
18.8163830241
 30
0.0
 10
13.8407343627
 20
18.8202143525
 30
0.0
 10
13.8072058238
 20
18.8339349225
 30
0.0
 10
13.7705954631
 20
18.8602797822
 30
0.0
 10
13.7335010977
 20
18.9001077132
 30
0.0
 10
13.6987046322
 20
18.9528187346
 30
0.0
 10
13.6690054769
 20
19.0142691275
 30
0.0
 10
13.6461031122
 20
19.0770445145
 30
0.0
 10
13.630188116
 20
19.1338984986
 30
0.0
 10
13.6203268522
 20
19.1814123059
 30
0.0
 10
13.6153306915
 20
19.2201788627
 30
0.0
 10
13.6144127982
 20
19.2518437292
 30
0.0
 10
13.6172077106
 20
19.2776294029
 30
0.0
 10
13.6236102241
 20
19.2985243025
 30
0.0
 10
13.6335503105
 20
19.3151951843
 30
0.0
 10
13.6468932117
 20
19.3280507279
 30
0.0
 10
13.6633986907
 20
19.337530413
 30
0.0
 10
13.6829889966
 20
19.3441922016
 30
0.0
 10
13.7057478376
 20
19.3485086991
 30
0.0
 10
13.7316143081
 20
19.3508363618
 30
0.0
 10
13.7603208365
 20
19.3515236474
 30
0.0
 10
13.7916736351
 20
19.3509261121
 30
0.0
 10
13.8256534392
 20
19.3493627939
 30
0.0
 10
13.8626535904
 20
19.3470749919
 30
0.0
 10
13.903057
 20
19.3442655101
 30
0.0
 10
13.9471583951
 20
19.3411419701
 30
0.0
 10
13.994565109
 20
19.337975526
 30
0.0
 10
14.0447229417
 20
19.3350467974
 30
0.0
 10
14.097144194
 20
19.3325877503
 30
0.0
 10
14.1517793773
 20
19.3307868828
 30
0.0
 10
14.2086585042
 20
19.3298259234
 30
0.0
 10
14.2677692971
 20
19.3298928263
 30
0.0
 10
14.3289965751
 20
19.3312045992
 30
0.0
 10
14.3920537
 20
19.3340128117
 30
0.0
 10
14.4564651937
 20
19.3386123363
 30
0.0
 10
14.5212095926
 20
19.3452309834
 30
0.0
 10
14.5852956706
 20
19.3542520615
 30
0.0
 10
14.6444572168
 20
19.3652499506
 30
0.0
 10
14.7002540261
 20
19.3794439546
 30
0.0
 10
14.7305845765
 20
19.3908281319
 30
0.0
 10
14.7670472649
 20
19.4073721866
 30
0.0
 10
14.74133497
 20
19.4234857917
 30
0.0
 10
14.7266792416
 20
19.4177113992
 30
0.0
 10
14.7151623514
 20
19.4165282893
 30
0.0
  0
SPLINE
  5
2F5
100
AcDbEntity
  8
0
100
AcDbSpline
 62
7
  6
BYLAYER
 70
0
 71
3
 72
49
 73
45
 74
0
 42
0.0000001
 43
0.0000001
 44
0.0000000001
 40
0.0
 40
0.0
 40
0.0
 40
0.0
 40
0.0355834607
 40
0.0730893544
 40
0.1128730872
 40
0.1534097974
 40
0.1934595715
 40
0.2330555582
 40
0.2718145527
 40
0.3095334987
 40
0.3460573933
 40
0.381206595
 40
0.4148395298
 40
0.4468073321
 40
0.4767797629
 40
0.5043885292
 40
0.5293189785
 40
0.5517647571
 40
0.5719046417
 40
0.5902072186
 40
0.6067617104
 40
0.621386636
 40
0.6336275143
 40
0.6433177234
 40
0.6504959375
 40
0.6555839448
 40
0.6599145939
 40
0.665674098
 40
0.6743802125
 40
0.6870044935
 40
0.7042879414
 40
0.7263128979
 40
0.7510653536
 40
0.7767583365
 40
0.8023826818
 40
0.8276885893
 40
0.8525233996
 40
0.8764321806
 40
0.8989138117
 40
0.9195720741
 40
0.938721037
 40
0.9572613241
 40
0.9770085276
 40
1.0
 40
1.0
 40
1.0
 40
1.0
 10
15.9194594118
 20
18.3783257891
 30
0.0
 10
15.9355730479
 20
18.3959778933
 30
0.0
 10
15.9620872479
 20
18.4389664261
 30
0.0
 10
15.9750919312
 20
18.5152389128
 30
0.0
 10
15.9636253557
 20
18.5945179655
 30
0.0
 10
15.9343187906
 20
18.670362515
 30
0.0
 10
15.8936845655
 20
18.7403814414
 30
0.0
 10
15.8461515671
 20
18.8042974724
 30
0.0
 10
15.7945408045
 20
18.8628203208
 30
0.0
 10
15.7409107216
 20
18.9165801588
 30
0.0
 10
15.6866659724
 20
18.9661697856
 30
0.0
 10
15.632834141
 20
19.0120678749
 30
0.0
 10
15.5802157712
 20
19.0546299413
 30
0.0
 10
15.529546034
 20
19.0940493182
 30
0.0
 10
15.4815850155
 20
19.1303494638
 30
0.0
 10
15.4371328719
 20
19.1634489926
 30
0.0
 10
15.3966582416
 20
19.1934245786
 30
0.0
 10
15.3602808784
 20
19.2205035451
 30
0.0
 10
15.3276682298
 20
19.245182735
 30
0.0
 10
15.2985219165
 20
19.2678824398
 30
0.0
 10
15.2727550228
 20
19.2888780603
 30
0.0
 10
15.2507880091
 20
19.3080867457
 30
0.0
 10
15.233214648
 20
19.3252310452
 30
0.0
 10
15.2204647456
 20
19.3401887829
 30
0.0
 10
15.212790174
 20
19.3527270288
 30
0.0
 10
15.2100249012
 20
19.3642555463
 30
0.0
 10
15.2159438604
 20
19.3737753218
 30
0.0
 10
15.2287392663
 20
19.3774207978
 30
0.0
 10
15.246954482
 20
19.3768364455
 30
0.0
 10
15.2722397798
 20
19.3698607074
 30
0.0
 10
15.3032241529
 20
19.3532388577
 30
0.0
 10
15.3355434952
 20
19.3241188954
 30
0.0
 10
15.3628899348
 20
19.2832838729
 30
0.0
 10
15.381423187
 20
19.2352936959
 30
0.0
 10
15.3909366104
 20
19.1844621855
 30
0.0
 10
15.3921920149
 20
19.1333978676
 30
0.0
 10
15.3865212985
 20
19.0838455713
 30
0.0
 10
15.3751208414
 20
19.0372454093
 30
0.0
 10
15.3583744679
 20
18.9952536885
 30
0.0
 10
15.3365690118
 20
18.9592810286
 30
0.0
 10
15.3096273875
 20
18.9303367083
 30
0.0
 10
15.2762674356
 20
18.909806049
 30
0.0
 10
15.2355851095
 20
18.9002426339
 30
0.0
 10
15.206631374
 20
18.9013580431
 30
0.0
 10
15.1912920585
 20
18.9031441115
 30
0.0
  0
SPLINE
  5
2F6
100
AcDbEntity
  8
0
100
AcDbSpline
 62
7
  6
BYLAYER
 70
0
 71
3
 72
15
 73
11
 74
0
 42
0.0000001
 43
0.0000001
 44
0.0000000001
 40
0.0
 40
0.0
 40
0.0
 40
0.0
 40
0.1340947625
 40
0.2645634713
 40
0.3947431969
 40
0.5266495836
 40
0.6582621709
 40
0.7831383408
 40
0.8970664637
 40
1.0
 40
1.0
 40
1.0
 40
1.0
 10
15.2960871381
 20
18.3054321473
 30
0.0
 10
15.3247728188
 20
18.3082614623
 30
0.0
 10
15.381611945
 20
18.3118973225
 30
0.0
 10
15.4665242703
 20
18.3093141163
 30
0.0
 10
15.5505602843
 20
18.3016297343
 30
0.0
 10
15.6349086358
 20
18.2945675737
 30
0.0
 10
15.7185713918
 20
18.2942835325
 30
0.0
 10
15.7977918054
 20
18.3060441893
 30
0.0
 10
15.8670341227
 20
18.3328070623
 30
0.0
 10
15.9045419675
 20
18.3619840844
 30
0.0
 10
15.9194594118
 20
18.3783257891
 30
0.0
  0
SPLINE
  5
2F7
100
AcDbEntity
  8
0
100
AcDbSpline
 62
7
  6
BYLAYER
 70
0
 71
3
 72
114
 73
110
 74
0
 42
0.0000001
 43
0.0000001
 44
0.0000000001
 40
0.0
 40
0.0
 40
0.0
 40
0.0
 40
0.0015901089
 40
0.0032817297
 40
0.0056652316
 40
0.0075965964
 40
0.009793324
 40
0.0122813358
 40
0.014986502
 40
0.0176847542
 40
0.0202255584
 40
0.0226374473
 40
0.0248258851
 40
0.0267251656
 40
0.0288824163
 40
0.0306684595
 40
0.0320134564
 40
0.033001447
 40
0.0337168553
 40
0.0342325781
 40
0.0347756201
 40
0.0354436458
 40
0.0366502611
 40
0.0376054725
 40
0.0387605696
 40
0.0402379003
 40
0.0413248292
 40
0.0424250415
 40
0.0437028578
 40
0.0451891113
 40
0.0469190165
 40
0.0487901155
 40
0.049676171
 40
0.0506541218
 40
0.0517270014
 40
0.0528978203
 40
0.0541695181
 40
0.0555449215
 40
0.0570267055
 40
0.0586173598
 40
0.0603191599
 40
0.0621341195
 40
0.0640636012
 40
0.0661082539
 40
0.0682682377
 40
0.0705432152
 40
0.07293234
 40
0.0754342507
 40
0.0780470691
 40
0.0807684034
 40
0.0835953554
 40
0.0865245788
 40
0.0895527948
 40
0.0926766096
 40
0.095892169
 40
0.0991951591
 40
0.1025808142
 40
0.1060439279
 40
0.109578866
 40
0.1131795812
 40
0.11683964
 40
0.1205523061
 40
0.1243104991
 40
0.1281067738
 40
0.1319333425
 40
0.1357820986
 40
0.1396446408
 40
0.1435122986
 40
0.1473761575
 40
0.1512270844
 40
0.1550557532
 40
0.1588526704
 40
0.1626082
 40
0.165307232
 40
0.1674030045
 40
0.1696077014
 40
0.1720159783
 40
0.1747249208
 40
0.1778345021
 40
0.1814481974
 40
0.1856737167
 40
0.1906238135
 40
0.1964172531
 40
0.2031796805
 40
0.2110442127
 40
0.2201518038
 40
0.2306511557
 40
0.2426979741
 40
0.2564533283
 40
0.2720808382
 40
0.2897427815
 40
0.3095975849
 40
0.3317922053
 40
0.3564512491
 40
0.3836645434
 40
0.4134769765
 40
0.445874997
 40
0.4807618567
 40
0.5179372074
 40
0.5570784893
 40
0.5977181456
 40
0.6366738033
 40
0.6763113789
 40
0.7173651061
 40
0.7599386876
 40
0.8032823126
 40
0.8526045543
 40
0.9165608319
 40
1.0
 40
1.0
 40
1.0
 40
1.0
 10
15.8787549724
 20
21.4175577844
 30
0.0
 10
15.8801284187
 20
21.4159737709
 30
0.0
 10
15.8847734666
 20
21.41487975
 30
0.0
 10
15.8920022897
 20
21.4139833988
 30
0.0
 10
15.9000078947
 20
21.4139421933
 30
0.0
 10
15.908564623
 20
21.4143920355
 30
0.0
 10
15.9172547558
 20
21.4152415439
 30
0.0
 10
15.9269084776
 20
21.4165641728
 30
0.0
 10
15.9371592393
 20
21.4183658057
 30
0.0
 10
15.9474009961
 20
21.420572312
 30
0.0
 10
15.9571735795
 20
21.423086316
 30
0.0
 10
15.9661784871
 20
21.4258479254
 30
0.0
 10
15.9742563968
 20
21.4287160259
 30
0.0
 10
15.9819109674
 20
21.4317540195
 30
0.0
 10
15.9889579205
 20
21.4348720327
 30
0.0
 10
15.9952423984
 20
21.4378897378
 30
0.0
 10
16.0001232902
 20
21.4402792324
 30
0.0
 10
16.0037682605
 20
21.4419547258
 30
0.0
 10
16.0065068516
 20
21.4430456864
 30
0.0
 10
16.008721092
 20
21.4436563486
 30
0.0
 10
16.0111698649
 20
21.4439945861
 30
0.0
 10
16.0134564224
 20
21.4410805956
 30
0.0
 10
16.012906499
 20
21.4372291225
 30
0.0
 10
16.0125704087
 20
21.4329082042
 30
0.0
 10
16.0118877859
 20
21.4282124195
 30
0.0
 10
16.0112015208
 20
21.4233617906
 30
0.0
 10
16.0105416334
 20
21.4185744014
 30
0.0
 10
16.0099644839
 20
21.4140426825
 30
0.0
 10
16.0093856905
 20
21.4089803929
 30
0.0
 10
16.0088157441
 20
21.4030822852
 30
0.0
 10
16.0083080397
 20
21.3963935535
 30
0.0
 10
16.0079828996
 20
21.3904859151
 30
0.0
 10
16.0077852943
 20
21.3855651487
 30
0.0
 10
16.0076675554
 20
21.3816946316
 30
0.0
 10
16.0075824581
 20
21.3774477101
 30
0.0
 10
16.0075405958
 20
21.3728128047
 30
0.0
 10
16.0075535916
 20
21.3677788345
 30
0.0
 10
16.0076340988
 20
21.3623354175
 30
0.0
 10
16.0077957785
 20
21.3564730696
 30
0.0
 10
16.008053312
 20
21.3501833869
 30
0.0
 10
16.0084221805
 20
21.3434592246
 30
0.0
 10
16.0089192815
 20
21.3362954107
 30
0.0
 10
16.0095588174
 20
21.3286891509
 30
0.0
 10
16.0103526908
 20
21.3206401887
 30
0.0
 10
16.0113131017
 20
21.312150781
 30
0.0
 10
16.0124517951
 20
21.303225371
 30
0.0
 10
16.0137801867
 20
21.2938706265
 30
0.0
 10
16.015309226
 20
21.2840954493
 30
0.0
 10
16.0170493179
 20
21.2739109663
 30
0.0
 10
16.0190102859
 20
21.2633305125
 30
0.0
 10
16.0212010926
 20
21.2523694765
 30
0.0
 10
16.0236307308
 20
21.2410447141
 30
0.0
 10
16.0263034882
 20
21.2293729683
 30
0.0
 10
16.0292207552
 20
21.2173710497
 30
0.0
 10
16.0323832325
 20
21.2050570062
 30
0.0
 10
16.0357902011
 20
21.1924503922
 30
0.0
 10
16.0394396761
 20
21.1795722532
 30
0.0
 10
16.0433283376
 20
21.1664450439
 30
0.0
 10
16.0474515654
 20
21.1530925656
 30
0.0
 10
16.0518033228
 20
21.1395398318
 30
0.0
 10
16.0563766268
 20
21.1258130391
 30
0.0
 10
16.0611604349
 20
21.1119383913
 30
0.0
 10
16.0661418165
 20
21.0979426852
 30
0.0
 10
16.071306874
 20
21.0838536769
 30
0.0
 10
16.0766405475
 20
21.0696999778
 30
0.0
 10
16.0821267427
 20
21.0555109988
 30
0.0
 10
16.087748379
 20
21.0413168656
 30
0.0
 10
16.0934874624
 20
21.0271483411
 30
0.0
 10
16.0993251532
 20
21.013036746
 30
0.0
 10
16.1052418379
 20
20.9990138812
 30
0.0
 10
16.1112172006
 20
20.9851119499
 30
0.0
 10
16.1172302955
 20
20.9713634858
 30
0.0
 10
16.1227211378
 20
20.9590125222
 30
0.0
 10
16.1273517712
 20
20.9487339375
 30
0.0
 10
16.1311726003
 20
20.94033328
 30
0.0
 10
16.1348600037
 20
20.9322931295
 30
0.0
 10
16.138913358
 20
20.9235314428
 30
0.0
 10
16.1435028217
 20
20.9137032797
 30
0.0
 10
16.1488093671
 20
20.9024559964
 30
0.0
 10
16.1550271921
 20
20.8894278351
 30
0.0
 10
16.162366607
 20
20.8742462728
 30
0.0
 10
16.1710577265
 20
20.8565263066
 30
0.0
 10
16.1813525554
 20
20.8358678336
 30
0.0
 10
16.1935275697
 20
20.8118536276
 30
0.0
 10
16.2078868532
 20
20.7840485553
 30
0.0
 10
16.2247629955
 20
20.7519991401
 30
0.0
 10
16.2445167649
 20
20.7152344811
 30
0.0
 10
16.2675343618
 20
20.6732688469
 30
0.0
 10
16.2942217471
 20
20.625606667
 30
0.0
 10
16.3249948649
 20
20.571749787
 30
0.0
 10
16.3602692118
 20
20.5112054534
 30
0.0
 10
16.4004284164
 20
20.4434889476
 30
0.0
 10
16.4458003029
 20
20.36814039
 30
0.0
 10
16.4966205966
 20
20.2847492661
 30
0.0
 10
16.5529903845
 20
20.1929790299
 30
0.0
 10
16.6148051535
 20
20.0925786559
 30
0.0
 10
16.6816638058
 20
19.9834023491
 30
0.0
 10
16.7528040578
 20
19.8654664781
 30
0.0
 10
16.8269729451
 20
19.7389820335
 30
0.0
 10
16.9022276592
 20
19.6043698015
 30
0.0
 10
16.9743542131
 20
19.4653757976
 30
0.0
 10
17.0401581086
 20
19.3225266579
 30
0.0
 10
17.0965153635
 20
19.1749793795
 30
0.0
 10
17.1376977833
 20
19.0173009358
 30
0.0
 10
17.1504814605
 20
18.8487535191
 30
0.0
 10
17.1004935706
 20
18.6710816949
 30
0.0
 10
16.9459942819
 20
18.5211315753
 30
0.0
 10
16.6974456364
 20
18.4323679973
 30
0.0
 10
16.5033714282
 20
18.4108451858
 30
0.0
 10
16.3934767379
 20
18.4057393132
 30
0.0
  0
SPLINE
  5
2F8
100
AcDbEntity
  8
0
100
AcDbSpline
 62
7
  6
BYLAYER
 70
0
 71
3
 72
79
 73
75
 74
0
 42
0.0000001
 43
0.0000001
 44
0.0000000001
 40
0.0
 40
0.0
 40
0.0
 40
0.0
 40
0.0284208226
 40
0.0537654546
 40
0.0764535184
 40
0.0969164267
 40
0.1153786167
 40
0.1319866364
 40
0.1469259971
 40
0.1603780211
 40
0.172506569
 40
0.1834449474
 40
0.193287368
 40
0.202018216
 40
0.2096686992
 40
0.2190600632
 40
0.2275765823
 40
0.2369085963
 40
0.2472933658
 40
0.258068853
 40
0.2686526333
 40
0.2879118725
 40
0.302690872
 40
0.3079643036
 40
0.3107259552
 40
0.3146005331
 40
0.318988353
 40
0.3235022044
 40
0.3278720571
 40
0.331938866
 40
0.335621432
 40
0.3388910987
 40
0.3417524628
 40
0.3442288105
 40
0.3463512212
 40
0.3481510418
 40
0.3496722786
 40
0.3521244688
 40
0.3544161673
 40
0.3558892257
 40
0.3577796673
 40
0.360253073
 40
0.3628540082
 40
0.367165825
 40
0.3721966956
 40
0.3779164799
 40
0.3841017564
 40
0.3906876517
 40
0.397903998
 40
0.4059176273
 40
0.4145845938
 40
0.4239502645
 40
0.4341066728
 40
0.4450972946
 40
0.4569896553
 40
0.4698563079
 40
0.4837756429
 40
0.498832636
 40
0.5151193435
 40
0.5327353928
 40
0.5517886066
 40
0.5723959134
 40
0.5946841731
 40
0.6187909116
 40
0.6448652177
 40
0.6730687364
 40
0.7035767466
 40
0.7365793055
 40
0.7722830608
 40
0.8109133769
 40
0.8527164975
 40
0.8979619649
 40
0.946930678
 40
1.0
 40
1.0
 40
1.0
 40
1.0
 10
15.8787549724
 20
21.4175577844
 30
0.0
 10
15.8793627831
 20
21.4072778129
 30
0.0
 10
15.8804213488
 20
21.3878226514
 30
0.0
 10
15.8827568583
 20
21.3602206523
 30
0.0
 10
15.8847041018
 20
21.3354690701
 30
0.0
 10
15.8848436343
 20
21.3131265993
 30
0.0
 10
15.8839826905
 20
21.2930214286
 30
0.0
 10
15.8829730151
 20
21.2749293275
 30
0.0
 10
15.8819465525
 20
21.2586561663
 30
0.0
 10
15.881003689
 20
21.2440060546
 30
0.0
 10
15.8801720408
 20
21.2307953931
 30
0.0
 10
15.8794004234
 20
21.2189109247
 30
0.0
 10
15.8790124723
 20
21.2081741748
 30
0.0
 10
15.8786138142
 20
21.1988368124
 30
0.0
 10
15.8818197988
 20
21.1889459978
 30
0.0
 10
15.8732624442
 20
21.1823337921
 30
0.0
 10
15.8716673765
 20
21.1723244331
 30
0.0
 10
15.8708139946
 20
21.1621874383
 30
0.0
 10
15.8684234742
 20
21.1513755018
 30
0.0
 10
15.8667300369
 20
21.1399370258
 30
0.0
 10
15.8641449669
 20
21.1257623368
 30
0.0
 10
15.8603171385
 20
21.1080422616
 30
0.0
 10
15.8583619486
 20
21.0991227051
 30
0.0
 10
15.8542754632
 20
21.0846346562
 30
0.0
 10
15.8562192128
 20
21.0906292153
 30
0.0
 10
15.8570771616
 20
21.0939234504
 30
0.0
 10
15.8583202612
 20
21.0985874303
 30
0.0
 10
15.8594457872
 20
21.1032051394
 30
0.0
 10
15.8605049011
 20
21.1077915035
 30
0.0
 10
15.8614362163
 20
21.1120793715
 30
0.0
 10
15.8622425515
 20
21.1159906095
 30
0.0
 10
15.8629296434
 20
21.1194792645
 30
0.0
 10
15.8635107354
 20
21.1225435306
 30
0.0
 10
15.8640021031
 20
21.1252014337
 30
0.0
 10
15.8644136471
 20
21.1274834875
 30
0.0
 10
15.864771989
 20
21.1294217994
 30
0.0
 10
15.8651235448
 20
21.1314885741
 30
0.0
 10
15.8657091965
 20
21.1336632809
 30
0.0
 10
15.8657237778
 20
21.1360358592
 30
0.0
 10
15.8679755558
 20
21.1374400322
 30
0.0
 10
15.8692343014
 20
21.1350691494
 30
0.0
 10
15.8709328857
 20
21.1334504796
 30
0.0
 10
15.8741258787
 20
21.1316751123
 30
0.0
 10
15.8785496193
 20
21.1333728136
 30
0.0
 10
15.8830053142
 20
21.1364961481
 30
0.0
 10
15.8893721557
 20
21.1368677926
 30
0.0
 10
15.8960026426
 20
21.1366522533
 30
0.0
 10
15.9032627769
 20
21.1371005597
 30
0.0
 10
15.9110939496
 20
21.1381338476
 30
0.0
 10
15.9197224287
 20
21.1389170664
 30
0.0
 10
15.9291481129
 20
21.1393910813
 30
0.0
 10
15.9393451364
 20
21.1399823207
 30
0.0
 10
15.9503922923
 20
21.1404318628
 30
0.0
 10
15.9623572807
 20
21.1408258544
 30
0.0
 10
15.9753075488
 20
21.141122461
 30
0.0
 10
15.9893209928
 20
21.1413162851
 30
0.0
 10
16.0044823097
 20
21.1413878121
 30
0.0
 10
16.0208828651
 20
21.1413180285
 30
0.0
 10
16.0386214972
 20
21.1410835452
 30
0.0
 10
16.057804958
 20
21.1406577714
 30
0.0
 10
16.0785485377
 20
21.1400091299
 30
0.0
 10
16.1009771213
 20
21.1391089912
 30
0.0
 10
16.1252260209
 20
21.1379261745
 30
0.0
 10
16.1514416996
 20
21.1364246788
 30
0.0
 10
16.1797826429
 20
21.134563668
 30
0.0
 10
16.2104203075
 20
21.1322966797
 30
0.0
 10
16.2435401494
 20
21.1295709772
 30
0.0
 10
16.2793429114
 20
21.1263265836
 30
0.0
 10
16.3180462932
 20
21.1224957306
 30
0.0
 10
16.3598874938
 20
21.1180068
 30
0.0
 10
16.4051250474
 20
21.1127786558
 30
0.0
 10
16.454035974
 20
21.1067203644
 30
0.0
 10
16.5069425986
 20
21.0997265979
 30
0.0
 10
16.5435552579
 20
21.0945794762
 30
0.0
 10
16.5625861756
 20
21.0918265791
 30
0.0
  0
SPLINE
  5
2F9
100
AcDbEntity
  8
0
100
AcDbSpline
 62
7
  6
BYLAYER
 70
0
 71
3
 72
15
 73
11
 74
0
 42
0.0000001
 43
0.0000001
 44
0.0000000001
 40
0.0
 40
0.0
 40
0.0
 40
0.0
 40
0.1062320113
 40
0.2165347414
 40
0.3322148153
 40
0.4507180047
 40
0.5729455094
 40
0.702416774
 40
0.8439507638
 40
1.0
 40
1.0
 40
1.0
 40
1.0
 10
14.3381127292
 20
21.1608979605
 30
0.0
 10
14.3401232729
 20
21.183122419
 30
0.0
 10
14.3468026671
 20
21.2282048428
 30
0.0
 10
14.3628020538
 20
21.2961834407
 30
0.0
 10
14.3834410922
 20
21.3655623148
 30
0.0
 10
14.406365428
 20
21.4368318352
 30
0.0
 10
14.4299450973
 20
21.5109388197
 30
0.0
 10
14.4536832954
 20
21.5900581419
 30
0.0
 10
14.4811083214
 20
21.6754842547
 30
0.0
 10
14.4955665014
 20
21.7364177875
 30
0.0
 10
14.5059681598
 20
21.7675035702
 30
0.0
  0
SPLINE
  5
2FA
100
AcDbEntity
  8
0
100
AcDbSpline
 62
7
  6
BYLAYER
 70
0
 71
3
 72
30
 73
26
 74
0
 42
0.0000001
 43
0.0000001
 44
0.0000000001
 40
0.0
 40
0.0
 40
0.0
 40
0.0
 40
0.0637771967
 40
0.1280825117
 40
0.1915795818
 40
0.2535406874
 40
0.3134528601
 40
0.3710269716
 40
0.4262025205
 40
0.4790531119
 40
0.5296791983
 40
0.5783039871
 40
0.6251699044
 40
0.6703473001
 40
0.7137162566
 40
0.7546930786
 40
0.7924753142
 40
0.826887798
 40
0.8587465102
 40
0.8884630959
 40
0.9164881126
 40
0.942622739
 40
0.9660443653
 40
0.985563026
 40
1.0
 40
1.0
 40
1.0
 40
1.0
 10
14.8379655476
 20
19.9950828103
 30
0.0
 10
14.8307770378
 20
20.0215991718
 30
0.0
 10
14.8177556632
 20
20.0752315314
 30
0.0
 10
14.7999983233
 20
20.1558236687
 30
0.0
 10
14.7826027606
 20
20.2356969129
 30
0.0
 10
14.7648756359
 20
20.313559204
 30
0.0
 10
14.7463966383
 20
20.3886246327
 30
0.0
 10
14.7269717501
 20
20.4604292086
 30
0.0
 10
14.7065433408
 20
20.5287868562
 30
0.0
 10
14.6851632949
 20
20.5937092041
 30
0.0
 10
14.662889173
 20
20.6553378681
 30
0.0
 10
14.6397615741
 20
20.7138880474
 30
0.0
 10
14.6157948593
 20
20.7695535463
 30
0.0
 10
14.591034024
 20
20.8223807202
 30
0.0
 10
14.5656773918
 20
20.8720934929
 30
0.0
 10
14.5401256594
 20
20.9180943355
 30
0.0
 10
14.5149002017
 20
20.9598249501
 30
0.0
 10
14.4902970141
 20
20.9973050217
 30
0.0
 10
14.4662971125
 20
21.0309888793
 30
0.0
 10
14.4426473436
 20
21.0615062581
 30
0.0
 10
14.4192764061
 20
21.0890780937
 30
0.0
 10
14.3964279776
 20
21.1134895355
 30
0.0
 10
14.3748373579
 20
21.1339942966
 30
0.0
 10
14.3557734033
 20
21.1497618741
 30
0.0
 10
14.343559282
 20
21.157896009
 30
0.0
 10
14.3381127292
 20
21.1608979605
 30
0.0
  0
SPLINE
  5
2FB
100
AcDbEntity
  8
0
100
AcDbSpline
 62
7
  6
BYLAYER
 70
0
 71
3
 72
13
 73
9
 74
0
 42
0.0000001
 43
0.0000001
 44
0.0000000001
 40
0.0
 40
0.0
 40
0.0
 40
0.0
 40
0.0545172545
 40
0.1486108253
 40
0.2971905034
 40
0.4928729349
 40
0.7294595954
 40
1.0
 40
1.0
 40
1.0
 40
1.0
 10
15.4298029228
 20
19.4093695232
 30
0.0
 10
15.4131951251
 20
19.4032348365
 30
0.0
 10
15.3598824102
 20
19.4203055787
 30
0.0
 10
15.3047846883
 20
19.5007612848
 30
0.0
 10
15.2246842751
 20
19.6178606917
 30
0.0
 10
15.1249887361
 20
19.7783283047
 30
0.0
 10
14.9995083213
 20
19.9686397316
 30
0.0
 10
14.9141603466
 20
20.1103322095
 30
0.0
 10
14.8588744429
 20
20.1786155447
 30
0.0
  0
SPLINE
  5
2FC
100
AcDbEntity
  8
0
100
AcDbSpline
 62
7
  6
BYLAYER
 70
0
 71
3
 72
13
 73
9
 74
0
 42
0.0000001
 43
0.0000001
 44
0.0000000001
 40
0.0
 40
0.0
 40
0.0
 40
0.0
 40
0.1939982153
 40
0.3798514825
 40
0.5535049026
 40
0.7131860047
 40
0.8603082274
 40
1.0
 40
1.0
 40
1.0
 40
1.0
 10
15.2011198606
 20
18.8785587943
 30
0.0
 10
15.2052287574
 20
18.9508660918
 30
0.0
 10
15.2256239298
 20
19.0920976158
 30
0.0
 10
15.2923191615
 20
19.2889579107
 30
0.0
 10
15.3910597629
 20
19.45754135
 30
0.0
 10
15.5170281244
 20
19.5880802228
 30
0.0
 10
15.6640616561
 20
19.6719554972
 30
0.0
 10
15.7719490138
 20
19.6916227103
 30
0.0
 10
15.8240991314
 20
19.6916227103
 30
0.0
  0
SPLINE
  5
2FD
100
AcDbEntity
  8
0
100
AcDbSpline
 62
7
  6
BYLAYER
 70
0
 71
3
 72
11
 73
7
 74
0
 42
0.0000001
 43
0.0000001
 44
0.0000000001
 40
0.0
 40
0.0
 40
0.0
 40
0.0
 40
0.2448720806
 40
0.4937796047
 40
0.7458087268
 40
1.0
 40
1.0
 40
1.0
 40
1.0
 10
15.2547214524
 20
19.2097738928
 30
0.0
 10
15.2461929026
 20
19.1855983508
 30
0.0
 10
15.2307241959
 20
19.1362538184
 30
0.0
 10
15.2124450857
 20
19.0603109508
 30
0.0
 10
15.1989718048
 20
18.9823857477
 30
0.0
 10
15.1933027476
 20
18.9296739057
 30
0.0
 10
15.1912920585
 20
18.9031441115
 30
0.0
  0
SPLINE
  5
2FE
100
AcDbEntity
  8
0
100
AcDbSpline
 62
7
  6
BYLAYER
 70
0
 71
3
 72
37
 73
33
 74
0
 42
0.0000001
 43
0.0000001
 44
0.0000000001
 40
0.0
 40
0.0
 40
0.0
 40
0.0
 40
0.0348481237
 40
0.0703136928
 40
0.106237869
 40
0.1424546749
 40
0.1787975518
 40
0.2150948872
 40
0.2511704063
 40
0.2868511037
 40
0.3219782583
 40
0.3564161658
 40
0.39003947
 40
0.4227381589
 40
0.4850285939
 40
0.5146582669
 40
0.5432830775
 40
0.5709823166
 40
0.5978957091
 40
0.624193824
 40
0.6500778449
 40
0.6757845535
 40
0.7015651806
 40
0.7276552977
 40
0.7542734756
 40
0.781617992
 40
0.8098344378
 40
0.8691431176
 40
0.9004003302
 40
0.9326782663
 40
0.9659080687
 40
1.0
 40
1.0
 40
1.0
 40
1.0
 10
16.3934761755
 20
18.4057393115
 30
0.0
 10
16.4028672802
 20
18.4323674811
 30
0.0
 10
16.4197231799
 20
18.4868130341
 30
0.0
 10
16.439035723
 20
18.5707413388
 30
0.0
 10
16.4525021267
 20
18.6569184256
 30
0.0
 10
16.4599573343
 20
18.7445369432
 30
0.0
 10
16.4612436066
 20
18.8327637707
 30
0.0
 10
16.4564379172
 20
18.9207527085
 30
0.0
 10
16.4456161277
 20
19.0076666278
 30
0.0
 10
16.4288522962
 20
19.0926710396
 30
0.0
 10
16.4062139497
 20
19.1749328198
 30
0.0
 10
16.3780047691
 20
19.253685417
 30
0.0
 10
16.344511576
 20
19.328210185
 30
0.0
 10
16.294053392
 20
19.4194272615
 30
0.0
 10
16.2336194265
 20
19.5011641738
 30
0.0
 10
16.1642524121
 20
19.5700757667
 30
0.0
 10
16.1097556804
 20
19.6136371811
 30
0.0
 10
16.0523980121
 20
19.6493685397
 30
0.0
 10
15.9927859494
 20
19.6769993952
 30
0.0
 10
15.9315026892
 20
19.6962855948
 30
0.0
 10
15.8691279279
 20
19.7069785059
 30
0.0
 10
15.8062850915
 20
19.7088246622
 30
0.0
 10
15.7436341909
 20
19.7019314054
 30
0.0
 10
15.6817888833
 20
19.686421354
 30
0.0
 10
15.6213630654
 20
19.6624174958
 30
0.0
 10
15.5629957675
 20
19.6300666233
 30
0.0
 10
15.4873954496
 20
19.5755496647
 30
0.0
 10
15.4192995307
 20
19.5064144083
 30
0.0
 10
15.3603548122
 20
19.426153001
 30
0.0
 10
15.3197938157
 20
19.3589634022
 30
0.0
 10
15.2840523857
 20
19.2865515747
 30
0.0
 10
15.2639212648
 20
19.2358092023
 30
0.0
 10
15.2547212021
 20
19.2097738966
 30
0.0
  0
SPLINE
  5
2FF
100
AcDbEntity
  8
0
100
AcDbSpline
 62
7
  6
BYLAYER
 70
0
 71
3
 72
27
 73
23
 74
0
 42
0.0000001
 43
0.0000001
 44
0.0000000001
 40
0.0
 40
0.0
 40
0.0
 40
0.0
 40
0.0335238352
 40
0.066439323
 40
0.1671767971
 40
0.2150945642
 40
0.2613872471
 40
0.3061830762
 40
0.3497080179
 40
0.3922379196
 40
0.4340981393
 40
0.4756716053
 40
0.5173646132
 40
0.559558134
 40
0.6026056452
 40
0.6468278054
 40
0.6924600673
 40
0.7883753745
 40
0.838925227
 40
0.8911258148
 40
0.9448657808
 40
1.0
 40
1.0
 40
1.0
 40
1.0
 10
15.2960871381
 20
18.3054321473
 30
0.0
 10
15.3033004145
 20
18.2902602771
 30
0.0
 10
15.3183407364
 20
18.2605723845
 30
0.0
 10
15.3601221389
 20
18.1880028717
 30
0.0
 10
15.4145797851
 20
18.1143466109
 30
0.0
 10
15.4839450156
 20
18.0454378704
 30
0.0
 10
15.5384421092
 20
18.0018759213
 30
0.0
 10
15.5957997124
 20
17.9661446996
 30
0.0
 10
15.6554118187
 20
17.9385138094
 30
0.0
 10
15.7166950939
 20
17.9192276191
 30
0.0
 10
15.7790698769
 20
17.9085347057
 30
0.0
 10
15.8419127322
 20
17.9066885501
 30
0.0
 10
15.9045636513
 20
17.9135818065
 30
0.0
 10
15.9664089761
 20
17.9290918577
 30
0.0
 10
16.02683481
 20
17.9530957155
 30
0.0
 10
16.0852021225
 20
17.9854465877
 30
0.0
 10
16.1608024566
 20
18.039963545
 30
0.0
 10
16.2288983897
 20
18.1090988009
 30
0.0
 10
16.2878431186
 20
18.1893602091
 30
0.0
 10
16.3284041204
 20
18.2565498076
 30
0.0
 10
16.3641455535
 20
18.3289616349
 30
0.0
 10
16.3842766752
 20
18.3797040074
 30
0.0
 10
16.3934767379
 20
18.4057393132
 30
0.0
  0
SPLINE
  5
300
100
AcDbEntity
  8
0
100
AcDbSpline
 62
7
  6
BYLAYER
 70
0
 71
3
 72
11
 73
7
 74
0
 42
0.0000001
 43
0.0000001
 44
0.0000000001
 40
0.0
 40
0.0
 40
0.0
 40
0.0
 40
0.2241758524
 40
0.4612273644
 40
0.7192470999
 40
1.0
 40
1.0
 40
1.0
 40
1.0
 10
15.8240991314
 20
17.9238904978
 30
0.0
 10
15.7715135405
 20
17.9238904978
 30
0.0
 10
15.6624919652
 20
17.9439384945
 30
0.0
 10
15.5140154431
 20
18.0295674031
 30
0.0
 10
15.3871519077
 20
18.1628847573
 30
0.0
 10
15.323654655
 20
18.2735318591
 30
0.0
 10
15.2966549698
 20
18.333599872
 30
0.0
  0
SPLINE
  5
301
100
AcDbEntity
  8
0
100
AcDbSpline
 62
7
  6
BYLAYER
 70
0
 71
3
 72
13
 73
9
 74
0
 42
0.0000001
 43
0.0000001
 44
0.0000000001
 40
0.0
 40
0.0
 40
0.0
 40
0.0
 40
0.1939982153
 40
0.3798514825
 40
0.5535049026
 40
0.7131860047
 40
0.8603082274
 40
1.0
 40
1.0
 40
1.0
 40
1.0
 10
16.4470784021
 20
18.7369544138
 30
0.0
 10
16.4429695053
 20
18.6646471162
 30
0.0
 10
16.4225743329
 20
18.5234155923
 30
0.0
 10
16.3558791013
 20
18.3265552973
 30
0.0
 10
16.2571384998
 20
18.1579718581
 30
0.0
 10
16.1311701384
 20
18.0274329853
 30
0.0
 10
15.9841366066
 20
17.9435577109
 30
0.0
 10
15.876249249
 20
17.9238904978
 30
0.0
 10
15.8240991314
 20
17.9238904978
 30
0.0
  0
SPLINE
  5
302
100
AcDbEntity
  8
0
100
AcDbSpline
 62
7
  6
BYLAYER
 70
0
 71
3
 72
13
 73
9
 74
0
 42
0.0000001
 43
0.0000001
 44
0.0000000001
 40
0.0
 40
0.0
 40
0.0
 40
0.0
 40
0.137666238
 40
0.2841251005
 40
0.4448124316
 40
0.6202887263
 40
0.8072722757
 40
1.0
 40
1.0
 40
1.0
 40
1.0
 10
15.8240991314
 20
19.6916227103
 30
0.0
 10
15.8819533206
 20
19.6916227103
 30
0.0
 10
16.0024112239
 20
19.6670913967
 30
0.0
 10
16.1624808592
 20
19.5641436818
 30
0.0
 10
16.2942806349
 20
19.4066504216
 30
0.0
 10
16.3904128526
 20
19.2068001642
 30
0.0
 10
16.4452419822
 20
18.9784506042
 30
0.0
 10
16.4516734982
 20
18.8178177197
 30
0.0
 10
16.4470784021
 20
18.7369544138
 30
0.0
  0
SPLINE
  5
303
100
AcDbEntity
  8
0
100
AcDbSpline
 62
7
  6
BYLAYER
 70
0
 71
3
 72
27
 73
23
 74
0
 42
0.0000001
 43
0.0000001
 44
0.0000000001
 40
0.0
 40
0.0
 40
0.0
 40
0.0
 40
0.085302603
 40
0.1670710956
 40
0.2458470056
 40
0.3222570661
 40
0.3969547034
 40
0.4705821492
 40
0.5437266957
 40
0.6166790305
 40
0.6531442232
 40
0.6894597234
 40
0.7254530096
 40
0.7609607635
 40
0.7958177177
 40
0.8298149763
 40
0.8627404523
 40
0.8943973877
 40
0.924630492
 40
0.9533765776
 40
0.9772882908
 40
1.0
 40
1.0
 40
1.0
 40
1.0
 10
16.965648068
 20
22.4088725113
 30
0.0
 10
16.8958352514
 20
22.4196329576
 30
0.0
 10
16.7588751989
 20
22.4393367668
 30
0.0
 10
16.5567030192
 20
22.463472869
 30
0.0
 10
16.361273981
 20
22.4814318097
 30
0.0
 10
16.1712194005
 20
22.4929307839
 30
0.0
 10
15.9851314236
 20
22.4977097698
 30
0.0
 10
15.8016937183
 20
22.4948487104
 30
0.0
 10
15.6200174856
 20
22.4834760294
 30
0.0
 10
15.4698082573
 20
22.4654208541
 30
0.0
 10
15.3508406308
 20
22.4450229931
 30
0.0
 10
15.2626273352
 20
22.4266972063
 30
0.0
 10
15.1759269018
 20
22.405283046
 30
0.0
 10
15.0913135463
 20
22.3807361742
 30
0.0
 10
15.0094196586
 20
22.3530341033
 30
0.0
 10
14.9308882853
 20
22.322338462
 30
0.0
 10
14.8564110588
 20
22.2888204436
 30
0.0
 10
14.7866690934
 20
22.252648729
 30
0.0
 10
14.7223017412
 20
22.2139429476
 30
0.0
 10
14.6658760061
 20
22.1747615211
 30
0.0
 10
14.6169963052
 20
22.1358860446
 30
0.0
 10
14.588300073
 20
22.1100247039
 30
0.0
 10
14.5747345981
 20
22.0969890935
 30
0.0
  0
SPLINE
  5
304
100
AcDbEntity
  8
0
100
AcDbSpline
 62
7
  6
BYLAYER
 70
0
 71
3
 72
22
 73
18
 74
0
 42
0.0000001
 43
0.0000001
 44
0.0000000001
 40
0.0
 40
0.0
 40
0.0
 40
0.0
 40
0.0571163795
 40
0.0631281897
 40
0.115276933
 40
0.1638728077
 40
0.1722990606
 40
0.1906050935
 40
0.2370814776
 40
0.3179753
 40
0.4407391565
 40
0.5114083396
 40
0.5770690167
 40
0.6556607992
 40
0.750005214
 40
0.8634655741
 40
1.0
 40
1.0
 40
1.0
 40
1.0
 10
15.9454157754
 20
21.1097467833
 30
0.0
 10
15.94658841
 20
21.1258352378
 30
0.0
 10
15.9702975032
 20
21.154533116
 30
0.0
 10
15.9356720215
 20
21.1612151854
 30
0.0
 10
15.9120531806
 20
21.1317391779
 30
0.0
 10
15.8871697686
 20
21.1253860415
 30
0.0
 10
15.8582505461
 20
21.1247883653
 30
0.0
 10
15.8955025532
 20
21.1318453171
 30
0.0
 10
15.9229154192
 20
21.1340713193
 30
0.0
 10
16.0016191267
 20
21.1386205036
 30
0.0
 10
16.075880731
 20
21.1372022705
 30
0.0
 10
16.1495521696
 20
21.1340978622
 30
0.0
 10
16.2100206561
 20
21.1303065031
 30
0.0
 10
16.2772387991
 20
21.1250153603
 30
0.0
 10
16.3577452641
 20
21.1172847566
 30
0.0
 10
16.4543861222
 20
21.1063328055
 30
0.0
 10
16.5243949348
 20
21.0971527445
 30
0.0
 10
16.5625861577
 20
21.0918265816
 30
0.0
  0
SPLINE
  5
305
100
AcDbEntity
  8
0
100
AcDbSpline
 62
7
  6
BYLAYER
 70
0
 71
3
 72
13
 73
9
 74
0
 42
0.0000001
 43
0.0000001
 44
0.0000000001
 40
0.0
 40
0.0
 40
0.0
 40
0.0
 40
0.0908861105
 40
0.2585563085
 40
0.4834626655
 40
0.6968553192
 40
0.8788915156
 40
1.0
 40
1.0
 40
1.0
 40
1.0
 10
15.9639758802
 20
21.1780188844
 30
0.0
 10
15.9635500622
 20
21.1759172384
 30
0.0
 10
15.9612812179
 20
21.1702130148
 30
0.0
 10
15.958075168
 20
21.1592783188
 30
0.0
 10
15.9542019235
 20
21.1455081523
 30
0.0
 10
15.9509350388
 20
21.1312356885
 30
0.0
 10
15.9481976912
 20
21.1193717627
 30
0.0
 10
15.9464204151
 20
21.1124217594
 30
0.0
 10
15.9454157754
 20
21.1097467833
 30
0.0
  0
SPLINE
  5
306
100
AcDbEntity
  8
0
100
AcDbSpline
 62
7
  6
BYLAYER
 70
0
 71
3
 72
21
 73
17
 74
0
 42
0.0000001
 43
0.0000001
 44
0.0000000001
 40
0.0
 40
0.0
 40
0.0
 40
0.0
 40
0.0484829914
 40
0.0946453161
 40
0.1994371804
 40
0.2919846432
 40
0.3741833436
 40
0.4481300514
 40
0.5161645898
 40
0.5805838307
 40
0.6430271501
 40
0.7051191165
 40
0.7684011792
 40
0.8358466991
 40
0.9111361162
 40
1.0
 40
1.0
 40
1.0
 40
1.0
 10
15.4297977916
 20
19.4094004832
 30
0.0
 10
15.4306454773
 20
19.4042796148
 30
0.0
 10
15.4321184521
 20
19.3942536766
 30
0.0
 10
15.4343238909
 20
19.3730158455
 30
0.0
 10
15.4349880453
 20
19.3468868289
 30
0.0
 10
15.4316941071
 20
19.3170402546
 30
0.0
 10
15.4246031291
 20
19.2912493013
 30
0.0
 10
15.414064468
 20
19.2695156241
 30
0.0
 10
15.4004389059
 20
19.2519236178
 30
0.0
 10
15.3845627503
 20
19.2381997511
 30
0.0
 10
15.3670860197
 20
19.2278355477
 30
0.0
 10
15.3483713652
 20
19.2203204755
 30
0.0
 10
15.3283774107
 20
19.2150256975
 30
0.0
 10
15.3065541473
 20
19.211644886
 30
0.0
 10
15.2818184353
 20
19.2097615716
 30
0.0
 10
15.2642260684
 20
19.209623977
 30
0.0
 10
15.2547212021
 20
19.2097738966
 30
0.0
  0
SPLINE
  5
307
100
AcDbEntity
  8
0
100
AcDbSpline
 62
7
  6
BYLAYER
 70
0
 71
3
 72
32
 73
28
 74
0
 42
0.0000001
 43
0.0000001
 44
0.0000000001
 40
0.0
 40
0.0
 40
0.0
 40
0.0
 40
0.087055527
 40
0.1521297639
 40
0.199856573
 40
0.2327339505
 40
0.2543796517
 40
0.2686905848
 40
0.2812277687
 40
0.2969348976
 40
0.3172658522
 40
0.3418968376
 40
0.3694810241
 40
0.3984454762
 40
0.4281532329
 40
0.4590541828
 40
0.4917065935
 40
0.527234676
 40
0.5662164887
 40
0.6082755188
 40
0.6526265061
 40
0.6995646479
 40
0.7496472273
 40
0.8037571411
 40
0.8628541529
 40
0.9279488371
 40
1.0
 40
1.0
 40
1.0
 40
1.0
 10
14.9121632348
 20
19.2951316921
 30
0.0
 10
14.9396125058
 20
19.2974986283
 30
0.0
 10
14.9875902287
 20
19.3014922083
 30
0.0
 10
15.0504909909
 20
19.3083358299
 30
0.0
 10
15.0958950074
 20
19.3167472146
 30
0.0
 10
15.1267611731
 20
19.3270281783
 30
0.0
 10
15.1458047127
 20
19.337870176
 30
0.0
 10
15.1554785206
 20
19.3512576616
 30
0.0
 10
15.1527748592
 20
19.3656262231
 30
0.0
 10
15.1420326153
 20
19.3771258512
 30
0.0
 10
15.1261438284
 20
19.387966705
 30
0.0
 10
15.1054103815
 20
19.3980019303
 30
0.0
 10
15.0813390959
 20
19.4070276751
 30
0.0
 10
15.055175733
 20
19.4148790962
 30
0.0
 10
15.0276369771
 20
19.4216405599
 30
0.0
 10
14.9986978917
 20
19.4274807051
 30
0.0
 10
14.9677517689
 20
19.4325768075
 30
0.0
 10
14.9341217999
 20
19.4370023776
 30
0.0
 10
14.89741409
 20
19.4407289166
 30
0.0
 10
14.8578367098
 20
19.4436868007
 30
0.0
 10
14.8156893788
 20
19.4458841934
 30
0.0
 10
14.7709726682
 20
19.4474110373
 30
0.0
 10
14.7231525152
 20
19.4484053796
 30
0.0
 10
14.671477878
 20
19.4489863828
 30
0.0
 10
14.6150499747
 20
19.449308042
 30
0.0
 10
14.5529433381
 20
19.4492699317
 30
0.0
 10
14.5095401525
 20
19.4496123105
 30
0.0
 10
14.4867376094
 20
19.4495683819
 30
0.0
  0
SPLINE
  5
308
100
AcDbEntity
  8
0
100
AcDbSpline
 62
7
  6
BYLAYER
 70
0
 71
3
 72
10
 73
6
 74
0
 42
0.0000001
 43
0.0000001
 44
0.0000000001
 40
0.0
 40
0.0
 40
0.0
 40
0.0
 40
0.3029553901
 40
0.636885416
 40
1.0
 40
1.0
 40
1.0
 40
1.0
 10
15.7752726482
 20
19.7632918328
 30
0.0
 10
15.7361633722
 20
19.7538269976
 30
0.0
 10
15.6544570891
 20
19.7314450569
 30
0.0
 10
15.5224990351
 20
19.7139279783
 30
0.0
 10
15.4301408322
 20
19.7072076302
 30
0.0
 10
15.3819476209
 20
19.7053613308
 30
0.0
  0
SPLINE
  5
309
100
AcDbEntity
  8
0
100
AcDbSpline
 62
7
  6
BYLAYER
 70
0
 71
3
 72
19
 73
15
 74
0
 42
0.0000001
 43
0.0000001
 44
0.0000000001
 40
0.0
 40
0.0
 40
0.0
 40
0.0
 40
0.0425041522
 40
0.0936422545
 40
0.1545526968
 40
0.2249023639
 40
0.3016215766
 40
0.3804077237
 40
0.4604069934
 40
0.5457285735
 40
0.6416249378
 40
0.7512300611
 40
0.8745924246
 40
1.0
 40
1.0
 40
1.0
 40
1.0
 10
15.4298516892
 20
19.4093371944
 30
0.0
 10
15.4364478645
 20
19.4117755371
 30
0.0
 10
15.4498805447
 20
19.4200149894
 30
0.0
 10
15.4684885425
 20
19.437617065
 30
0.0
 10
15.4883794448
 20
19.4603455548
 30
0.0
 10
15.5100850427
 20
19.4870436482
 30
0.0
 10
15.5335411062
 20
19.5161345894
 30
0.0
 10
15.558422239
 20
19.546123489
 30
0.0
 10
15.584838119
 20
19.576679722
 30
0.0
 10
15.6138268064
 20
19.6087385471
 30
0.0
 10
15.646833284
 20
19.6437599626
 30
0.0
 10
15.685167917
 20
19.6823682912
 30
0.0
 10
15.7269166081
 20
19.724513673
 30
0.0
 10
15.7586899429
 20
19.7508204277
 30
0.0
 10
15.7752726482
 20
19.7632918328
 30
0.0
  0
SPLINE
  5
30A
100
AcDbEntity
  8
0
100
AcDbSpline
 62
7
  6
BYLAYER
 70
0
 71
3
 72
26
 73
22
 74
0
 42
0.0000001
 43
0.0000001
 44
0.0000000001
 40
0.0
 40
0.0
 40
0.0
 40
0.0
 40
0.1549498579
 40
0.2637676274
 40
0.359698791
 40
0.4479220111
 40
0.5260551112
 40
0.6057956152
 40
0.6765379491
 40
0.7300495309
 40
0.77730712
 40
0.8145551817
 40
0.834817294
 40
0.8437043173
 40
0.849426123
 40
0.8642204231
 40
0.8877408158
 40
0.9175574248
 40
0.9463604548
 40
0.9725661636
 40
1.0
 40
1.0
 40
1.0
 40
1.0
 10
16.6053729757
 20
21.6148678523
 30
0.0
 10
16.4475135476
 20
21.6077952639
 30
0.0
 10
16.178480124
 20
21.6020411087
 30
0.0
 10
15.8116759536
 20
21.6055725094
 30
0.0
 10
15.5129576532
 20
21.6146724099
 30
0.0
 10
15.2463194192
 20
21.6375544547
 30
0.0
 10
14.9975278574
 20
21.6712998213
 30
0.0
 10
14.7686917549
 20
21.717048277
 30
0.0
 10
14.5665284245
 20
21.7647696763
 30
0.0
 10
14.3974546488
 20
21.8135485388
 30
0.0
 10
14.2668464394
 20
21.8578766887
 30
0.0
 10
14.1629833433
 20
21.9062345246
 30
0.0
 10
14.1154751899
 20
21.9331970271
 30
0.0
 10
14.0732413934
 20
21.9670937538
 30
0.0
 10
14.1122534356
 20
21.9774691647
 30
0.0
 10
14.1506706587
 20
21.9592595325
 30
0.0
 10
14.2175790393
 20
21.9358806048
 30
0.0
 10
14.2919290925
 20
21.8978853795
 30
0.0
 10
14.3669235641
 20
21.8545910272
 30
0.0
 10
14.4403546784
 20
21.8136293124
 30
0.0
 10
14.4860898483
 20
21.7835477093
 30
0.0
 10
14.5094614361
 20
21.7681697349
 30
0.0
  0
SPLINE
  5
30B
100
AcDbEntity
  8
0
100
AcDbSpline
 62
7
  6
BYLAYER
 70
0
 71
3
 72
18
 73
14
 74
0
 42
0.0000001
 43
0.0000001
 44
0.0000000001
 40
0.0
 40
0.0
 40
0.0
 40
0.0
 40
0.151189165
 40
0.2845959927
 40
0.3940673708
 40
0.4794353005
 40
0.5374261296
 40
0.5680161388
 40
0.59707969
 40
0.6526145303
 40
0.7376158619
 40
0.8549597917
 40
1.0
 40
1.0
 40
1.0
 40
1.0
 10
16.9228385725
 20
21.880986377
 30
0.0
 10
16.9269340135
 20
21.7871557135
 30
0.0
 10
16.9349141755
 20
21.6105677737
 30
0.0
 10
16.9300457495
 20
21.3653027647
 30
0.0
 10
16.915166205
 20
21.1628054
 30
0.0
 10
16.8862924751
 20
21.0052282327
 30
0.0
 10
16.862294704
 20
20.9062174367
 30
0.0
 10
16.8044461196
 20
20.8352403514
 30
0.0
 10
16.7370141506
 20
20.8936219567
 30
0.0
 10
16.7060695231
 20
20.9899970514
 30
0.0
 10
16.6614468388
 20
21.1462228126
 30
0.0
 10
16.6292588548
 20
21.3592047378
 30
0.0
 10
16.6141588645
 20
21.5217028
 30
0.0
 10
16.6061352069
 20
21.6114450389
 30
0.0
  0
SPLINE
  5
30C
100
AcDbEntity
  8
0
100
AcDbSpline
 62
7
  6
BYLAYER
 70
0
 71
3
 72
102
 73
98
 74
0
 42
0.0000001
 43
0.0000001
 44
0.0000000001
 40
0.0
 40
0.0
 40
0.0
 40
0.0
 40
0.0004293082
 40
0.0008714014
 40
0.0012729248
 40
0.0016865979
 40
0.002239274
 40
0.0026663709
 40
0.0028523342
 40
0.0031648417
 40
0.0033313766
 40
0.0034766493
 40
0.0036467896
 40
0.0038440381
 40
0.0040736146
 40
0.0043413138
 40
0.0046530433
 40
0.0050158834
 40
0.005438187
 40
0.0059270108
 40
0.0064920406
 40
0.0071465363
 40
0.0079066319
 40
0.0087833294
 40
0.0092625618
 40
0.0097461144
 40
0.0102910373
 40
0.0109126725
 40
0.0116264948
 40
0.0124510175
 40
0.0134085019
 40
0.0145248495
 40
0.0158302883
 40
0.0173588001
 40
0.0191462161
 40
0.0212329824
 40
0.0235850778
 40
0.0256193678
 40
0.0279026245
 40
0.030428833
 40
0.032743279
 40
0.0347642035
 40
0.036926445
 40
0.0392448075
 40
0.0417341575
 40
0.0444104576
 40
0.0472908777
 40
0.0503930978
 40
0.0537353575
 40
0.0573333646
 40
0.0612067921
 40
0.0653769169
 40
0.0698607976
 40
0.074673225
 40
0.0798308423
 40
0.0853459127
 40
0.0912152582
 40
0.0974322593
 40
0.1039844996
 40
0.1108568123
 40
0.1180501809
 40
0.1255593318
 40
0.1333744942
 40
0.1414784853
 40
0.1495597758
 40
0.1569071959
 40
0.1646695127
 40
0.1729684895
 40
0.1819162917
 40
0.1915874841
 40
0.2020240521
 40
0.2132223319
 40
0.2251328934
 40
0.2376494991
 40
0.2505830004
 40
0.263898084
 40
0.2779165646
 40
0.2927141883
 40
0.3073714254
 40
0.321285362
 40
0.334545477
 40
0.3472087704
 40
0.3580248175
 40
0.3660203801
 40
0.3706201436
 40
0.3724884798
 40
0.3787604605
 40
0.3937541345
 40
0.4204982817
 40
0.4584949266
 40
0.5085728873
 40
0.5673272585
 40
0.6342520952
 40
0.7116022854
 40
0.7979465699
 40
0.8917456049
 40
1.0
 40
1.0
 40
1.0
 40
1.0
 10
14.3043478374
 20
20.6826499102
 30
0.0
 10
14.3053802297
 20
20.6829128488
 30
0.0
 10
14.3075607154
 20
20.6830830796
 30
0.0
 10
14.3107171288
 20
20.6828855053
 30
0.0
 10
14.3137944333
 20
20.6824090588
 30
0.0
 10
14.3171508788
 20
20.6816621379
 30
0.0
 10
14.3202360899
 20
20.6805305332
 30
0.0
 10
14.3234832272
 20
20.6796880911
 30
0.0
 10
14.32516901
 20
20.6814662235
 30
0.0
 10
14.3257778016
 20
20.6829999144
 30
0.0
 10
14.3262557083
 20
20.6844747517
 30
0.0
 10
14.3265575385
 20
20.6856324601
 30
0.0
 10
14.32682583
 20
20.6868764309
 30
0.0
 10
14.3270742388
 20
20.6883373386
 30
0.0
 10
14.3272903381
 20
20.6900477425
 30
0.0
 10
14.3274589667
 20
20.6920488037
 30
0.0
 10
14.3275604525
 20
20.6943855172
 30
0.0
 10
14.3275699632
 20
20.6971081631
 30
0.0
 10
14.327456131
 20
20.700268324
 30
0.0
 10
14.3271851379
 20
20.7039223009
 30
0.0
 10
14.3267148219
 20
20.7081364503
 30
0.0
 10
14.3259908758
 20
20.7129964553
 30
0.0
 10
14.3249475114
 20
20.718587137
 30
0.0
 10
14.323794406
 20
20.7237112863
 30
0.0
 10
14.3226763688
 20
20.7281372019
 30
0.0
 10
14.3216978223
 20
20.7317486152
 30
0.0
 10
14.3205593024
 20
20.7356821976
 30
0.0
 10
14.3191835241
 20
20.7401412947
 30
0.0
 10
14.3175095384
 20
20.7452336114
 30
0.0
 10
14.315467841
 20
20.7510813001
 30
0.0
 10
14.3129743153
 20
20.7578280584
 30
0.0
 10
14.3099269463
 20
20.7656410522
 30
0.0
 10
14.3062051346
 20
20.7747104947
 30
0.0
 10
14.3016520071
 20
20.7852368062
 30
0.0
 10
14.2961004745
 20
20.7974413463
 30
0.0
 10
14.2894329798
 20
20.8113806125
 30
0.0
 10
14.2822120263
 20
20.8257308795
 30
0.0
 10
14.2744957005
 20
20.8403740148
 30
0.0
 10
14.2663119788
 20
20.8552563619
 30
0.0
 10
14.2575178879
 20
20.8705933526
 30
0.0
 10
14.2487919345
 20
20.8852157695
 30
0.0
 10
14.2403190819
 20
20.8989349124
 30
0.0
 10
14.2316541705
 20
20.9125451197
 30
0.0
 10
14.2221605526
 20
20.9270037965
 30
0.0
 10
14.2117406136
 20
20.9423780749
 30
0.0
 10
14.2002848105
 20
20.958732496
 30
0.0
 10
14.1876883399
 20
20.9761416707
 30
0.0
 10
14.1738625031
 20
20.9946982444
 30
0.0
 10
14.1587192108
 20
21.0144913602
 30
0.0
 10
14.1421426079
 20
21.0355948077
 30
0.0
 10
14.1240345419
 20
21.0581050762
 30
0.0
 10
14.1043001465
 20
21.0821261789
 30
0.0
 10
14.0828396377
 20
21.1077430586
 30
0.0
 10
14.0595018879
 20
21.1349813833
 30
0.0
 10
14.034193583
 20
21.1638981711
 30
0.0
 10
14.0068477972
 20
21.1945145892
 30
0.0
 10
13.9773974332
 20
21.2267726548
 30
0.0
 10
13.9459098526
 20
21.2606528549
 30
0.0
 10
13.9125271215
 20
21.2961684043
 30
0.0
 10
13.8772500114
 20
21.3332271824
 30
0.0
 10
13.8401263835
 20
21.3718056537
 30
0.0
 10
13.8010950846
 20
21.4117938709
 30
0.0
 10
13.760161608
 20
21.4530806743
 30
0.0
 10
13.7179473587
 20
21.4950948523
 30
0.0
 10
13.6763155011
 20
21.5360474554
 30
0.0
 10
13.6350130857
 20
21.5761239381
 30
0.0
 10
13.5929875325
 20
21.6162292358
 30
0.0
 10
13.5475211561
 20
21.6584741311
 30
0.0
 10
13.4980746894
 20
21.7033878287
 30
0.0
 10
13.4441408418
 20
21.751243831
 30
0.0
 10
13.3854381024
 20
21.8021321542
 30
0.0
 10
13.3218777232
 20
21.8558916396
 30
0.0
 10
13.2537100273
 20
21.9121873358
 30
0.0
 10
13.1815914942
 20
21.9704513561
 30
0.0
 10
13.1064090436
 20
22.0304656922
 30
0.0
 10
13.0274682328
 20
22.0917413364
 30
0.0
 10
12.9430759811
 20
22.1534901035
 30
0.0
 10
12.8539836638
 20
22.2143447473
 30
0.0
 10
12.7634247206
 20
22.2725619597
 30
0.0
 10
12.6752389075
 20
22.3271535253
 30
0.0
 10
12.5888709067
 20
22.3760517436
 30
0.0
 10
12.5081181333
 20
22.4158906766
 30
0.0
 10
12.4339751374
 20
22.4497329921
 30
0.0
 10
12.3842764951
 20
22.4611057472
 30
0.0
 10
12.339098856
 20
22.4800362182
 30
0.0
 10
12.3277677512
 20
22.4433716835
 30
0.0
 10
12.3965344452
 20
22.415745903
 30
0.0
 10
12.4844807553
 20
22.3552905123
 30
0.0
 10
12.6787676711
 20
22.2844308129
 30
0.0
 10
12.9453894921
 20
22.1956689583
 30
0.0
 10
13.301395601
 20
22.1090100006
 30
0.0
 10
13.7304531014
 20
22.0329288008
 30
0.0
 10
14.2300943339
 20
21.9658803937
 30
0.0
 10
14.799720593
 20
21.9097142978
 30
0.0
 10
15.4378652363
 20
21.8740774618
 30
0.0
 10
16.1535000199
 20
21.8562795474
 30
0.0
 10
16.6549841525
 20
21.8707981289
 30
0.0
 10
16.9232918244
 20
21.8841311551
 30
0.0
  0
SPLINE
  5
30D
100
AcDbEntity
  8
0
100
AcDbSpline
 62
7
  6
BYLAYER
 70
0
 71
3
 72
16
 73
12
 74
0
 42
0.0000001
 43
0.0000001
 44
0.0000000001
 40
0.0
 40
0.0
 40
0.0
 40
0.0
 40
0.108216583
 40
0.2254282322
 40
0.3485738172
 40
0.473308682
 40
0.595003331
 40
0.709619374
 40
0.814688111
 40
0.9103163492
 40
1.0
 40
1.0
 40
1.0
 40
1.0
 10
14.4582731311
 20
19.4469696103
 30
0.0
 10
14.4066096936
 20
19.5002257162
 30
0.0
 10
14.3157873881
 20
19.6280051056
 30
0.0
 10
14.2270539005
 20
19.8518424556
 30
0.0
 10
14.1845287502
 20
20.1002651338
 30
0.0
 10
14.1910133243
 20
20.3551654158
 30
0.0
 10
14.2458915451
 20
20.5983114544
 30
0.0
 10
14.3455789802
 20
20.8123434636
 30
0.0
 10
14.4842215295
 20
20.9817994355
 30
0.0
 10
14.6538508339
 20
21.0929236108
 30
0.0
 10
14.7820540836
 20
21.1194695707
 30
0.0
 10
14.843544989
 20
21.1194695707
 30
0.0
  0
SPLINE
  5
30E
100
AcDbEntity
  8
0
100
AcDbSpline
 62
7
  6
BYLAYER
 70
0
 71
3
 72
13
 73
9
 74
0
 42
0.0000001
 43
0.0000001
 44
0.0000000001
 40
0.0
 40
0.0
 40
0.0
 40
0.0
 40
0.1681253636
 40
0.3424852504
 40
0.517781103
 40
0.6886230224
 40
0.8503597726
 40
1.0
 40
1.0
 40
1.0
 40
1.0
 10
14.3079764886
 20
20.6806407835
 30
0.0
 10
14.2801287332
 20
20.6124320391
 30
0.0
 10
14.2290940417
 20
20.4703517955
 30
0.0
 10
14.2015338306
 20
20.2434593862
 30
0.0
 10
14.2128509491
 20
20.0146025105
 30
0.0
 10
14.2650093973
 20
19.7967900201
 30
0.0
 10
14.3541332527
 20
19.6035624556
 30
0.0
 10
14.4394174437
 20
19.4948510022
 30
0.0
 10
14.48662841
 20
19.449341821
 30
0.0
  0
SPLINE
  5
30F
100
AcDbEntity
  8
0
100
AcDbSpline
 62
7
  6
BYLAYER
 70
0
 71
3
 72
18
 73
14
 74
0
 42
0.0000001
 43
0.0000001
 44
0.0000000001
 40
0.0
 40
0.0
 40
0.0
 40
0.0
 40
0.1014444338
 40
0.2065682434
 40
0.3109498659
 40
0.411343609
 40
0.5050750077
 40
0.5899179814
 40
0.6675556484
 40
0.742150849
 40
0.8198942305
 40
0.9055739319
 40
1.0
 40
1.0
 40
1.0
 40
1.0
 10
15.3791027272
 20
19.7082765006
 30
0.0
 10
15.412995219
 20
19.7828680881
 30
0.0
 10
15.4635744578
 20
19.9435628496
 30
0.0
 10
15.4883411261
 20
20.195045343
 30
0.0
 10
15.4633301807
 20
20.4457817618
 30
0.0
 10
15.3904793947
 20
20.6775471621
 30
0.0
 10
15.2743019235
 20
20.8733667679
 30
0.0
 10
15.1216278784
 20
21.0178494852
 30
0.0
 10
14.9420582387
 20
21.0966592521
 30
0.0
 10
14.7509627174
 20
21.0979834928
 30
0.0
 10
14.569676255
 20
21.0209279308
 30
0.0
 10
14.4150052578
 20
20.8765587594
 30
0.0
 10
14.3394917374
 20
20.7500865203
 30
0.0
 10
14.3079764886
 20
20.6806407835
 30
0.0
  0
SPLINE
  5
310
100
AcDbEntity
  8
0
100
AcDbSpline
 62
7
  6
BYLAYER
 70
0
 71
3
 72
11
 73
7
 74
0
 42
0.0000001
 43
0.0000001
 44
0.0000000001
 40
0.0
 40
0.0
 40
0.0
 40
0.0
 40
0.2247739483
 40
0.4637333876
 40
0.7219265183
 40
1.0
 40
1.0
 40
1.0
 40
1.0
 10
14.9114790284
 20
19.2996388248
 30
0.0
 10
14.9587802281
 20
19.3097093402
 30
0.0
 10
15.056376917
 20
19.3365266062
 30
0.0
 10
15.1851672083
 20
19.427309571
 30
0.0
 10
15.298923481
 20
19.5516158038
 30
0.0
 10
15.3503547011
 20
19.6558068659
 30
0.0
 10
15.3791027272
 20
19.7082765006
 30
0.0
  0
SPLINE
  5
311
100
AcDbEntity
  8
0
100
AcDbSpline
 62
7
  6
BYLAYER
 70
0
 71
3
 72
16
 73
12
 74
0
 42
0.0000001
 43
0.0000001
 44
0.0000000001
 40
0.0
 40
0.0
 40
0.0
 40
0.0
 40
0.10658987
 40
0.2216976434
 40
0.3427663963
 40
0.4660747778
 40
0.587531539
 40
0.7033587218
 40
0.8108466077
 40
0.9091326474
 40
1.0
 40
1.0
 40
1.0
 40
1.0
 10
15.228816847
 20
20.9419695312
 30
0.0
 10
15.2774360442
 20
20.8918515126
 30
0.0
 10
15.3637048869
 20
20.7727109675
 30
0.0
 10
15.4511766357
 20
20.5642353235
 30
0.0
 10
15.4978510881
 20
20.3319142889
 30
0.0
 10
15.5009460433
 20
20.0909415015
 30
0.0
 10
15.4604196637
 20
19.8567946669
 30
0.0
 10
15.3787059537
 20
19.6445078641
 30
0.0
 10
15.2602738487
 20
19.4677516535
 30
0.0
 10
15.111575277
 20
19.3385741641
 30
0.0
 10
14.9941173876
 20
19.2904621003
 30
0.0
 10
14.9357629741
 20
19.2787094021
 30
0.0
  0
SPLINE
  5
312
100
AcDbEntity
  8
0
100
AcDbSpline
 62
7
  6
BYLAYER
 70
0
 71
3
 72
10
 73
6
 74
0
 42
0.0000001
 43
0.0000001
 44
0.0000000001
 40
0.0
 40
0.0
 40
0.0
 40
0.0
 40
0.3170830041
 40
0.647263658
 40
1.0
 40
1.0
 40
1.0
 40
1.0
 10
14.843544989
 20
21.1194695707
 30
0.0
 10
14.8894843569
 20
21.1194695707
 30
0.0
 10
14.9838071142
 20
21.1051157954
 30
0.0
 10
15.1163969328
 20
21.0427123069
 30
0.0
 10
15.193232899
 20
20.9786504529
 30
0.0
 10
15.228816847
 20
20.9419695312
 30
0.0
  0
SPLINE
  5
313
100
AcDbEntity
  8
0
100
AcDbSpline
 62
7
  6
BYLAYER
 70
0
 71
3
 72
137
 73
133
 74
0
 42
0.0000001
 43
0.0000001
 44
0.0000000001
 40
0.0
 40
0.0
 40
0.0
 40
0.0
 40
0.1205503743
 40
0.2218446283
 40
0.3140872748
 40
0.3974010248
 40
0.4697157877
 40
0.530430626
 40
0.5762246861
 40
0.6058735521
 40
0.6227979009
 40
0.6290230017
 40
0.6312446328
 40
0.637064795
 40
0.6456889825
 40
0.656079207
 40
0.6674701049
 40
0.6793319866
 40
0.6913451681
 40
0.7033827899
 40
0.7154659639
 40
0.7266773344
 40
0.7294989506
 40
0.7323617679
 40
0.7352656501
 40
0.7382104747
 40
0.741197012
 40
0.7442259877
 40
0.7472970917
 40
0.750411053
 40
0.7535686483
 40
0.756769641
 40
0.7600145781
 40
0.7633040136
 40
0.7666378505
 40
0.770016691
 40
0.7734410486
 40
0.7769108762
 40
0.7804267968
 40
0.7839893209
 40
0.7875984569
 40
0.791254689
 40
0.7949585867
 40
0.7987102657
 40
0.8025092852
 40
0.806355795
 40
0.8102502101
 40
0.8141913384
 40
0.8181796072
 40
0.8222153144
 40
0.8262946728
 40
0.8304180861
 40
0.8345856168
 40
0.838790201
 40
0.8430280349
 40
0.8473070642
 40
0.8516296148
 40
0.8559808938
 40
0.8603472699
 40
0.864731515
 40
0.8691313771
 40
0.8735371533
 40
0.8779404812
 40
0.8823358208
 40
0.8867183208
 40
0.8910819213
 40
0.8954223331
 40
0.8997344587
 40
0.9040123469
 40
0.9082526959
 40
0.912448973
 40
0.9165931833
 40
0.9206821883
 40
0.9247098545
 40
0.9286679976
 40
0.9325520353
 40
0.9363577243
 40
0.9400799336
 40
0.9437129016
 40
0.9472540503
 40
0.9507009292
 40
0.9540474218
 40
0.957290602
 40
0.9604281354
 40
0.9634554155
 40
0.9663688861
 40
0.9691655377
 40
0.9718422531
 40
0.9743949707
 40
0.9768204349
 40
0.9784978389
 40
0.9795278451
 40
0.9805290828
 40
0.9815011062
 40
0.9824437075
 40
0.98335777
 40
0.9842426805
 40
0.9850976238
 40
0.9859221334
 40
0.9867159536
 40
0.9874789294
 40
0.9882118771
 40
0.9889156753
 40
0.9895905424
 40
0.9902367309
 40
0.9908545271
 40
0.9914442523
 40
0.9920061405
 40
0.9925404205
 40
0.9930481896
 40
0.9935306786
 40
0.9939890146
 40
0.9944242185
 40
0.9948371525
 40
0.9952274927
 40
0.9955959703
 40
0.9959437481
 40
0.9962718169
 40
0.9965810039
 40
0.9968719808
 40
0.9971450246
 40
0.9974004057
 40
0.9976389377
 40
0.9980765292
 40
0.9986081805
 40
0.9989498686
 40
0.9991846797
 40
0.9993567769
 40
0.9994758438
 40
0.9995476636
 40
0.9995870851
 40
1.0
 40
1.0
 40
1.0
 40
1.0
 10
16.9219722891
 20
21.8829467612
 30
0.0
 10
16.6243858383
 20
21.8694489535
 30
0.0
 10
16.0760851388
 20
21.8548500803
 30
0.0
 10
15.2999664527
 20
21.8773672921
 30
0.0
 10
14.6173222192
 20
21.9234042464
 30
0.0
 10
14.0080945531
 20
21.9920863599
 30
0.0
 10
13.4804647214
 20
22.071296105
 30
0.0
 10
13.0451404042
 20
22.168649635
 30
0.0
 10
12.7316943748
 20
22.2636903242
 30
0.0
 10
12.5008298292
 20
22.3525876251
 30
0.0
 10
12.415157486
 20
22.4051173317
 30
0.0
 10
12.3288070142
 20
22.451621069
 30
0.0
 10
12.3653949079
 20
22.475364087
 30
0.0
 10
12.4054338916
 20
22.4551890111
 30
0.0
 10
12.4632636676
 20
22.4393785073
 30
0.0
 10
12.5317987206
 20
22.4066542386
 30
0.0
 10
12.6058105607
 20
22.3693034759
 30
0.0
 10
12.6817787436
 20
22.3264046783
 30
0.0
 10
12.7577386815
 20
22.2805387712
 30
0.0
 10
12.8327975302
 20
22.2321403025
 30
0.0
 10
12.904853241
 20
22.182823699
 30
0.0
 10
12.9573958637
 20
22.1453477977
 30
0.0
 10
12.9912394852
 20
22.1208983788
 30
0.0
 10
13.0084021992
 20
22.1084146583
 30
0.0
 10
13.0257629766
 20
22.0956859555
 30
0.0
 10
13.0433337097
 20
22.082726715
 30
0.0
 10
13.0611019813
 20
22.0695147223
 30
0.0
 10
13.0790530953
 20
22.0560261432
 30
0.0
 10
13.0972004658
 20
22.0422749214
 30
0.0
 10
13.1155371793
 20
22.0282476605
 30
0.0
 10
13.1340564492
 20
22.0139312733
 30
0.0
 10
13.1527638559
 20
21.9993295073
 30
0.0
 10
13.171658291
 20
21.9844382915
 30
0.0
 10
13.1907394985
 20
21.9692541638
 30
0.0
 10
13.2100088032
 20
21.9537754267
 30
0.0
 10
13.2294659184
 20
21.9379985295
 30
0.0
 10
13.2491108957
 20
21.9219201804
 30
0.0
 10
13.2689448432
 20
21.9055383004
 30
0.0
 10
13.288967743
 20
21.8888494574
 30
0.0
 10
13.3091796598
 20
21.8718501295
 30
0.0
 10
13.3295806786
 20
21.8545373791
 30
0.0
 10
13.3501731365
 20
21.8369106838
 30
0.0
 10
13.3709565886
 20
21.8189658172
 30
0.0
 10
13.3919257117
 20
21.8006965237
 30
0.0
 10
13.4130896539
 20
21.7821147152
 30
0.0
 10
13.4344486432
 20
21.7632207269
 30
0.0
 10
13.4559891805
 20
21.7440023645
 30
0.0
 10
13.4777256508
 20
21.7244777188
 30
0.0
 10
13.4996573419
 20
21.7046481262
 30
0.0
 10
13.5217657949
 20
21.6845050499
 30
0.0
 10
13.5440603982
 20
21.6640706549
 30
0.0
 10
13.5665315711
 20
21.6433469867
 30
0.0
 10
13.5891587334
 20
21.6223362864
 30
0.0
 10
13.6119341872
 20
21.6010699686
 30
0.0
 10
13.6348615342
 20
21.5795627262
 30
0.0
 10
13.6579320108
 20
21.5577821499
 30
0.0
 10
13.6811152606
 20
21.5357130732
 30
0.0
 10
13.7043936466
 20
21.5134311528
 30
0.0
 10
13.7277379576
 20
21.490997657
 30
0.0
 10
13.7510691728
 20
21.4683776374
 30
0.0
 10
13.7743705077
 20
21.4455874222
 30
0.0
 10
13.7976079483
 20
21.4226648037
 30
0.0
 10
13.8207078299
 20
21.3996193019
 30
0.0
 10
13.8436298379
 20
21.3764777681
 30
0.0
 10
13.8663466729
 20
21.3532719708
 30
0.0
 10
13.8888264743
 20
21.3300248922
 30
0.0
 10
13.9110328966
 20
21.3067562938
 30
0.0
 10
13.9329364376
 20
21.2834924567
 30
0.0
 10
13.9545189126
 20
21.2602668208
 30
0.0
 10
13.9757280489
 20
21.2370862435
 30
0.0
 10
13.9965422073
 20
21.2139933402
 30
0.0
 10
14.0169621928
 20
21.1910494058
 30
0.0
 10
14.0369205209
 20
21.1682535809
 30
0.0
 10
14.0564027762
 20
21.1456534185
 30
0.0
 10
14.0754208617
 20
21.123322542
 30
0.0
 10
14.0939232869
 20
21.101273909
 30
0.0
 10
14.1118907894
 20
21.0795385303
 30
0.0
 10
14.12931128
 20
21.0581568486
 30
0.0
 10
14.1461666971
 20
21.0371588548
 30
0.0
 10
14.1624194337
 20
21.0165505962
 30
0.0
 10
14.1780269901
 20
20.9963367616
 30
0.0
 10
14.1929870262
 20
20.9765547798
 30
0.0
 10
14.2072618451
 20
20.9572147713
 30
0.0
 10
14.2208090462
 20
20.938320764
 30
0.0
 10
14.2336285246
 20
20.9199101545
 30
0.0
 10
14.2457037085
 20
20.9020104457
 30
0.0
 10
14.2570179387
 20
20.8846455194
 30
0.0
 10
14.2675703772
 20
20.8678513698
 30
0.0
 10
14.2773453914
 20
20.8516554534
 30
0.0
 10
14.2855653813
 20
20.8374089572
 30
0.0
 10
14.2917035143
 20
20.8263086216
 30
0.0
 10
14.2960283946
 20
20.8182286642
 30
0.0
 10
14.29945782
 20
20.811646995
 30
0.0
 10
14.3027123399
 20
20.8052182789
 30
0.0
 10
14.3057915388
 20
20.7989428569
 30
0.0
 10
14.3086979527
 20
20.7928230429
 30
0.0
 10
14.3114303729
 20
20.7868610427
 30
0.0
 10
14.3139860533
 20
20.7810621959
 30
0.0
 10
14.3163653669
 20
20.7754323748
 30
0.0
 10
14.3185704805
 20
20.769976438
 30
0.0
 10
14.3206042575
 20
20.7646961103
 30
0.0
 10
14.3224725532
 20
20.7595912533
 30
0.0
 10
14.3241812775
 20
20.7546606609
 30
0.0
 10
14.3257342776
 20
20.7499038486
 30
0.0
 10
14.3271353114
 20
20.7453218612
 30
0.0
 10
14.328388159
 20
20.7409154889
 30
0.0
 10
14.3294966452
 20
20.7366855998
 30
0.0
 10
14.330464639
 20
20.7326332446
 30
0.0
 10
14.3312968992
 20
20.7287577431
 30
0.0
 10
14.3319998593
 20
20.7250562442
 30
0.0
 10
14.332581559
 20
20.7215238275
 30
0.0
 10
14.3330494104
 20
20.7181554823
 30
0.0
 10
14.3334103006
 20
20.7149469103
 30
0.0
 10
14.3336708765
 20
20.711897231
 30
0.0
 10
14.3338361715
 20
20.7090060366
 30
0.0
 10
14.3339128544
 20
20.706272203
 30
0.0
 10
14.33390775
 20
20.7036911741
 30
0.0
 10
14.3338271035
 20
20.7012579795
 30
0.0
 10
14.3336765832
 20
20.6989687436
 30
0.0
 10
14.3334617833
 20
20.6968212283
 30
0.0
 10
14.3331871708
 20
20.694814637
 30
0.0
 10
14.3328587889
 20
20.6929475863
 30
0.0
 10
14.3323725169
 20
20.6906971468
 30
0.0
 10
14.3315740358
 20
20.6878185323
 30
0.0
 10
14.3304011903
 20
20.6847883743
 30
0.0
 10
14.329123815
 20
20.6823630589
 30
0.0
 10
14.3281199858
 20
20.6808032164
 30
0.0
 10
14.3273287851
 20
20.6797786367
 30
0.0
 10
14.3267018001
 20
20.6791136144
 30
0.0
 10
14.326282559
 20
20.6787692227
 30
0.0
 10
14.3251384432
 20
20.6778434637
 30
0.0
 10
14.3265759351
 20
20.6811145631
 30
0.0
 10
14.325667892
 20
20.6815799477
 30
0.0
  0
SPLINE
  5
314
100
AcDbEntity
  8
0
100
AcDbSpline
 62
7
  6
BYLAYER
 70
0
 71
3
 72
11
 73
7
 74
0
 42
0.0000001
 43
0.0000001
 44
0.0000000001
 40
0.0
 40
0.0
 40
0.0
 40
0.0
 40
0.2046006477
 40
0.4527530333
 40
0.7215650454
 40
1.0
 40
1.0
 40
1.0
 40
1.0
 10
14.5747345981
 20
22.0969890935
 30
0.0
 10
14.5688222105
 20
22.0748155053
 30
0.0
 10
14.5582219833
 20
22.025115162
 30
0.0
 10
14.5426969812
 20
21.9457023646
 30
0.0
 10
14.5246214857
 20
21.858328752
 30
0.0
 10
14.5105591297
 20
21.7985728455
 30
0.0
 10
14.5030346819
 20
21.7682632072
 30
0.0
  0
SPLINE
  5
315
100
AcDbEntity
  8
0
100
AcDbSpline
 62
7
  6
BYLAYER
 70
0
 71
3
 72
34
 73
30
 74
0
 42
0.0000001
 43
0.0000001
 44
0.0000000001
 40
0.0
 40
0.0
 40
0.0
 40
0.0
 40
0.0272478451
 40
0.0546418853
 40
0.0822341138
 40
0.1098203238
 40
0.1374715332
 40
0.1657849361
 40
0.195946965
 40
0.2299609483
 40
0.2702747902
 40
0.3191136935
 40
0.3777792874
 40
0.447255412
 40
0.5256018242
 40
0.6033300982
 40
0.6725505643
 40
0.7328967523
 40
0.7863144585
 40
0.8329137474
 40
0.8725471499
 40
0.904696675
 40
0.9291893561
 40
0.9468801011
 40
0.9591469594
 40
0.9678964648
 40
0.9764998501
 40
0.9871846606
 40
1.0
 40
1.0
 40
1.0
 40
1.0
 10
15.7687610443
 20
19.7672267171
 30
0.0
 10
15.7885300155
 20
19.7877127139
 30
0.0
 10
15.8278857938
 20
19.8290788153
 30
0.0
 10
15.8849103099
 20
19.8933842359
 30
0.0
 10
15.9384641335
 20
19.9611083665
 30
0.0
 10
15.9863391082
 20
20.0333741606
 30
0.0
 10
16.0254807619
 20
20.1117388785
 30
0.0
 10
16.0517375395
 20
20.1983761228
 30
0.0
 10
16.0600005445
 20
20.2954584358
 30
0.0
 10
16.0444014176
 20
20.4043907591
 30
0.0
 10
16.0010277645
 20
20.5262360155
 30
0.0
 10
15.9280105941
 20
20.6627905715
 30
0.0
 10
15.8236896543
 20
20.8157276587
 30
0.0
 10
15.6911421189
 20
20.9860383058
 30
0.0
 10
15.5400737046
 20
21.1669267283
 30
0.0
 10
15.3880846451
 20
21.3466727163
 30
0.0
 10
15.2513740149
 20
21.5146876794
 30
0.0
 10
15.1340187752
 20
21.6656238576
 30
0.0
 10
15.0315493653
 20
21.7981880245
 30
0.0
 10
14.9409602776
 20
21.912574753
 30
0.0
 10
14.8615519924
 20
22.0074548618
 30
0.0
 10
14.7935452404
 20
22.0815984668
 30
0.0
 10
14.7371671695
 20
22.1352563145
 30
0.0
 10
14.6915355541
 20
22.1693189145
 30
0.0
 10
14.6545827253
 20
22.1873816345
 30
0.0
 10
14.6214807977
 20
22.1857964234
 30
0.0
 10
14.5993553726
 20
22.1640485476
 30
0.0
 10
14.5853183164
 20
22.133491457
 30
0.0
 10
14.5781843174
 20
22.1099267864
 30
0.0
 10
14.5747345981
 20
22.0969890935
 30
0.0
  0
SPLINE
  5
316
100
AcDbEntity
  8
0
100
AcDbSpline
 62
7
  6
BYLAYER
 70
0
 71
3
 72
48
 73
44
 74
0
 42
0.0000001
 43
0.0000001
 44
0.0000000001
 40
0.0
 40
0.0
 40
0.0
 40
0.0
 40
0.0463149315
 40
0.0915733641
 40
0.1353570126
 40
0.1772494141
 40
0.216713682
 40
0.2535724784
 40
0.2875133448
 40
0.3182327894
 40
0.3454652505
 40
0.3690584452
 40
0.3794626625
 40
0.3889295998
 40
0.3974620349
 40
0.4050740189
 40
0.4118000046
 40
0.4177113654
 40
0.4229191585
 40
0.4275870031
 40
0.4319421157
 40
0.4362637291
 40
0.4408395379
 40
0.4459163492
 40
0.4516764838
 40
0.4582344223
 40
0.4656580468
 40
0.4739866781
 40
0.4832415686
 40
0.4934323665
 40
0.516620602
 40
0.5434960806
 40
0.5738559471
 40
0.6074462725
 40
0.6439980919
 40
0.6832168738
 40
0.7247337804
 40
0.7681581584
 40
0.8130965577
 40
0.8592415194
 40
0.9060687902
 40
0.9531358642
 40
1.0
 40
1.0
 40
1.0
 40
1.0
 10
16.9219722891
 20
21.8829467612
 30
0.0
 10
16.9200426184
 20
21.9119120445
 30
0.0
 10
16.9157146769
 20
21.969149317
 30
0.0
 10
16.9077042647
 20
22.0536151495
 30
0.0
 10
16.8983325306
 20
22.1351518723
 30
0.0
 10
16.8876952848
 20
22.212870143
 30
0.0
 10
16.8758769553
 20
22.2860252037
 30
0.0
 10
16.8630243006
 20
22.3539410555
 30
0.0
 10
16.8492595895
 20
22.4160768556
 30
0.0
 10
16.8347220231
 20
22.4718269812
 30
0.0
 10
16.8195201658
 20
22.5206462505
 30
0.0
 10
16.8059439521
 20
22.5565820014
 30
0.0
 10
16.7947131921
 20
22.5814118151
 30
0.0
 10
16.7865779901
 20
22.5972571997
 30
0.0
 10
16.778393281
 20
22.6110804987
 30
0.0
 10
16.7701734999
 20
22.6228453397
 30
0.0
 10
16.7619218528
 20
22.6325212848
 30
0.0
 10
16.7536455831
 20
22.6400986103
 30
0.0
 10
16.7453348518
 20
22.6455667155
 30
0.0
 10
16.7369720241
 20
22.6488834493
 30
0.0
 10
16.7285780435
 20
22.6499604285
 30
0.0
 10
16.7202599972
 20
22.6487308257
 30
0.0
 10
16.7121376885
 20
22.6452347139
 30
0.0
 10
16.7042479255
 20
22.6395575629
 30
0.0
 10
16.6965790535
 20
22.6317520544
 30
0.0
 10
16.6891041147
 20
22.6218586563
 30
0.0
 10
16.6818183429
 20
22.6099019846
 30
0.0
 10
16.6747294972
 20
22.595908383
 30
0.0
 10
16.6678501083
 20
22.5799066173
 30
0.0
 10
16.658576618
 20
22.5548349551
 30
0.0
 10
16.6478476236
 20
22.5185830096
 30
0.0
 10
16.6365525742
 20
22.4694351921
 30
0.0
 10
16.6264276778
 20
22.4133969488
 30
0.0
 10
16.6175761797
 20
22.3510166541
 30
0.0
 10
16.6101030936
 20
22.2828694101
 30
0.0
 10
16.6041100368
 20
22.2095920091
 30
0.0
 10
16.5996291154
 20
22.1318928527
 30
0.0
 10
16.5967009451
 20
22.0505330942
 30
0.0
 10
16.5953638191
 20
21.9662308868
 30
0.0
 10
16.5956585551
 20
21.8797860289
 30
0.0
 10
16.5975634973
 20
21.7920275281
 30
0.0
 10
16.6010498012
 20
21.7038664246
 30
0.0
 10
16.6044370725
 20
21.6450861932
 30
0.0
 10
16.6063939815
 20
21.6157772519
 30
0.0
  0
SPLINE
  5
317
100
AcDbEntity
  8
0
100
AcDbSpline
 62
7
  6
BYLAYER
 70
0
 71
3
 72
13
 73
9
 74
0
 42
0.0000001
 43
0.0000001
 44
0.0000000001
 40
0.0
 40
0.0
 40
0.0
 40
0.0
 40
0.2460117548
 40
0.4594172108
 40
0.6424988879
 40
0.7942558183
 40
0.9133409564
 40
1.0
 40
1.0
 40
1.0
 40
1.0
 10
14.1485043274
 20
19.318479411
 30
0.0
 10
14.1956135025
 20
19.3216834825
 30
0.0
 10
14.2835226412
 20
19.3295126038
 30
0.0
 10
14.405226713
 20
19.3500633195
 30
0.0
 10
14.5078541269
 20
19.3733748179
 30
0.0
 10
14.592560939
 20
19.3937641063
 30
0.0
 10
14.6596050327
 20
19.4083631593
 30
0.0
 10
14.6986166178
 20
19.4148285756
 30
0.0
 10
14.7151623558
 20
19.4165282903
 30
0.0
  0
SPLINE
  5
318
100
AcDbEntity
  8
0
100
AcDbSpline
 62
7
  6
BYLAYER
 70
0
 71
3
 72
82
 73
78
 74
0
 42
0.0000001
 43
0.0000001
 44
0.0000000001
 40
0.0
 40
0.0
 40
0.0
 40
0.0
 40
0.0519628649
 40
0.1022384777
 40
0.1979504717
 40
0.2433408128
 40
0.286904829
 40
0.3284253158
 40
0.3675975696
 40
0.4041132312
 40
0.4377269827
 40
0.468246309
 40
0.4956364279
 40
0.5199310862
 40
0.5412803433
 40
0.5509091891
 40
0.559878608
 40
0.5682201454
 40
0.5759657048
 40
0.5897886069
 40
0.6015696202
 40
0.6115257882
 40
0.6198788894
 40
0.6235259375
 40
0.6268539054
 40
0.6298902778
 40
0.6326657273
 40
0.6375664296
 40
0.6397804249
 40
0.6418922498
 40
0.6439464596
 40
0.6459849397
 40
0.648046057
 40
0.650163097
 40
0.6546611064
 40
0.6596338977
 40
0.6651509303
 40
0.6712350907
 40
0.6778806247
 40
0.685063766
 40
0.6927505133
 40
0.7009034266
 40
0.7094817935
 40
0.7184425737
 40
0.7373312215
 40
0.7572340054
 40
0.7778379147
 40
0.7988808431
 40
0.8201723533
 40
0.8416210784
 40
0.8524175535
 40
0.8632802978
 40
0.8742395029
 40
0.8853379719
 40
0.8966291969
 40
0.9081695188
 40
0.9200190621
 40
0.9260831022
 40
0.9322658759
 40
0.9385373888
 40
0.9446817184
 40
0.9505996714
 40
0.9562160014
 40
0.9614662814
 40
0.9663172141
 40
0.970764091
 40
0.9748320785
 40
0.978567283
 40
0.9820255635
 40
0.985245792
 40
0.9882517331
 40
0.9910576948
 40
0.9937859439
 40
0.9951700653
 40
0.9966270397
 40
0.9982170469
 40
1.0
 40
1.0
 40
1.0
 40
1.0
 10
15.5442475082
 20
20.2937342911
 30
0.0
 10
15.4349984281
 20
20.292036566
 30
0.0
 10
15.2200328498
 20
20.2896872553
 30
0.0
 10
14.8038007747
 20
20.2894863612
 30
0.0
 10
14.4014003111
 20
20.2960589388
 30
0.0
 10
14.0133446943
 20
20.3099460861
 30
0.0
 10
13.739322198
 20
20.3234787437
 30
0.0
 10
13.4785744343
 20
20.3401883406
 30
0.0
 10
13.2329106868
 20
20.3600593654
 30
0.0
 10
13.004227827
 20
20.3831155555
 30
0.0
 10
12.7941130607
 20
20.4085305602
 30
0.0
 10
12.6035577226
 20
20.4355298208
 30
0.0
 10
12.4329904167
 20
20.4636252484
 30
0.0
 10
12.2821310654
 20
20.492433687
 30
0.0
 10
12.168667477
 20
20.5177185951
 30
0.0
 10
12.0872442538
 20
20.5383735154
 30
0.0
 10
12.0326361504
 20
20.5534467507
 30
0.0
 10
11.9821792417
 20
20.5686291769
 30
0.0
 10
11.9224311723
 20
20.588277955
 30
0.0
 10
11.8567105079
 20
20.6128616111
 30
0.0
 10
11.7885102653
 20
20.6436759172
 30
0.0
 10
11.7330563019
 20
20.6742954351
 30
0.0
 10
11.6949118694
 20
20.7004838679
 30
0.0
 10
11.670129519
 20
20.7211231268
 30
0.0
 10
11.6549038225
 20
20.7356853794
 30
0.0
 10
11.6420949724
 20
20.7500504942
 30
0.0
 10
11.6286935709
 20
20.768172705
 30
0.0
 10
11.6188875292
 20
20.786779808
 30
0.0
 10
11.6135109397
 20
20.8054795246
 30
0.0
 10
11.6116595712
 20
20.8188145659
 30
0.0
 10
11.6117771338
 20
20.8319074139
 30
0.0
 10
11.6137970367
 20
20.8447342541
 30
0.0
 10
11.6176480975
 20
20.8572691291
 30
0.0
 10
11.6252720041
 20
20.8738931085
 30
0.0
 10
11.6394056349
 20
20.8939962524
 30
0.0
 10
11.6620900559
 20
20.916055707
 30
0.0
 10
11.6903469739
 20
20.9366134812
 30
0.0
 10
11.7237768685
 20
20.9555721883
 30
0.0
 10
11.7619826747
 20
20.9728211141
 30
0.0
 10
11.8045606091
 20
20.9882233872
 30
0.0
 10
11.8511073582
 20
21.0016375647
 30
0.0
 10
11.9012230206
 20
21.0129209973
 30
0.0
 10
11.9545132899
 20
21.0219352308
 30
0.0
 10
12.0306100349
 20
21.0308956405
 30
0.0
 10
12.1310803707
 20
21.0353554284
 30
0.0
 10
12.2560012567
 20
21.029380377
 30
0.0
 10
12.3843098869
 20
21.0109414839
 30
0.0
 10
12.5129591811
 20
20.978845251
 30
0.0
 10
12.6389058195
 20
20.9318746425
 30
0.0
 10
12.7389112732
 20
20.8793776726
 30
0.0
 10
12.8142877863
 20
20.8289077032
 30
0.0
 10
12.8683046442
 20
20.7865299417
 30
0.0
 10
12.9192721982
 20
20.739579953
 30
0.0
 10
12.9667895199
 20
20.6878980884
 30
0.0
 10
13.0104378905
 20
20.6313507149
 30
0.0
 10
13.0498787959
 20
20.5699073814
 30
0.0
 10
13.0787354298
 20
20.5150146035
 30
0.0
 10
13.0994049457
 20
20.4687413069
 30
0.0
 10
13.1136903443
 20
20.4325032189
 30
0.0
 10
13.1263957366
 20
20.3955051816
 30
0.0
 10
13.1372569423
 20
20.3584977674
 30
0.0
 10
13.1454854413
 20
20.3222177648
 30
0.0
 10
13.1506905517
 20
20.2872685549
 30
0.0
 10
13.1524585466
 20
20.2542093884
 30
0.0
 10
13.1506352998
 20
20.2235913132
 30
0.0
 10
13.1450430684
 20
20.1959435719
 30
0.0
 10
13.1359457264
 20
20.1717055715
 30
0.0
 10
13.1236038905
 20
20.1513331077
 30
0.0
 10
13.1088810089
 20
20.1349476923
 30
0.0
 10
13.0925907333
 20
20.122548141
 30
0.0
 10
13.0757303617
 20
20.1136492881
 30
0.0
 10
13.0587653181
 20
20.1075956707
 30
0.0
 10
13.0445186868
 20
20.1045035739
 30
0.0
 10
13.0329287488
 20
20.1028107761
 30
0.0
 10
13.0236507218
 20
20.1019139585
 30
0.0
 10
13.0135059845
 20
20.1013923954
 30
0.0
 10
13.0064116974
 20
20.1012973584
 30
0.0
 10
13.0026635166
 20
20.1012962396
 30
0.0
  0
SPLINE
  5
319
100
AcDbEntity
  8
0
100
AcDbSpline
 62
7
  6
BYLAYER
 70
0
 71
3
 72
121
 73
117
 74
0
 42
0.0000001
 43
0.0000001
 44
0.0000000001
 40
0.0
 40
0.0
 40
0.0
 40
0.0
 40
0.0140085523
 40
0.0261228165
 40
0.0375763492
 40
0.0479983622
 40
0.0573073522
 40
0.0654528573
 40
0.07251368
 40
0.0787699535
 40
0.0845467187
 40
0.090056937
 40
0.0953901034
 40
0.1005838269
 40
0.105651983
 40
0.1106225226
 40
0.1155060384
 40
0.1202829972
 40
0.1249170674
 40
0.1293577296
 40
0.1336029191
 40
0.1377147077
 40
0.1418122964
 40
0.146050089
 40
0.1505288235
 40
0.1553248458
 40
0.1605219382
 40
0.166240229
 40
0.1725311723
 40
0.1793656138
 40
0.1866284845
 40
0.1942958284
 40
0.2023516303
 40
0.2107558219
 40
0.2194849655
 40
0.2285088856
 40
0.2378407381
 40
0.2475607907
 40
0.2578150549
 40
0.2686939445
 40
0.2802313112
 40
0.2924380496
 40
0.305225962
 40
0.3183842687
 40
0.3319440222
 40
0.3462838442
 40
0.3618170266
 40
0.3784288841
 40
0.3955403638
 40
0.4127821648
 40
0.4301678919
 40
0.4482421502
 40
0.4679039025
 40
0.4885385366
 40
0.5104981804
 40
0.5325984297
 40
0.5513307549
 40
0.5661770116
 40
0.5779394023
 40
0.58692752
 40
0.5934012619
 40
0.5977756842
 40
0.6009287579
 40
0.6040440656
 40
0.6078860426
 40
0.6126505859
 40
0.6182993387
 40
0.6246764287
 40
0.6315910373
 40
0.6388627599
 40
0.6463636509
 40
0.6540371733
 40
0.6618678356
 40
0.6698438304
 40
0.6779395059
 40
0.6861108485
 40
0.6942867877
 40
0.7024282056
 40
0.7104595038
 40
0.7181760608
 40
0.7253923076
 40
0.7320476864
 40
0.7383150688
 40
0.7443667931
 40
0.7503221301
 40
0.7562860693
 40
0.7621562671
 40
0.767735566
 40
0.7728731597
 40
0.7775435068
 40
0.7817340294
 40
0.7854605788
 40
0.7887906081
 40
0.7918630598
 40
0.7949034692
 40
0.7981734925
 40
0.8019017901
 40
0.8062457834
 40
0.8112689776
 40
0.8169534623
 40
0.8232262855
 40
0.8300223704
 40
0.8372635748
 40
0.8447423555
 40
0.8521571865
 40
0.8592491723
 40
0.8661295345
 40
0.8735041225
 40
0.8827608062
 40
0.895445869
 40
0.9111958533
 40
0.9284393818
 40
0.9458806278
 40
0.9624832377
 40
0.979403958
 40
1.0
 40
1.0
 40
1.0
 40
1.0
 10
14.8592589409
 20
20.1838227938
 30
0.0
 10
14.8601461442
 20
20.1577164996
 30
0.0
 10
14.8592741574
 20
20.1087825318
 30
0.0
 10
14.8467664634
 20
20.0396854866
 30
0.0
 10
14.8307872689
 20
19.9782646092
 30
0.0
 10
14.8092497057
 20
19.9240689429
 30
0.0
 10
14.7838385327
 20
19.878532003
 30
0.0
 10
14.7553129595
 20
19.8424774268
 30
0.0
 10
14.7242069787
 20
19.8167373108
 30
0.0
 10
14.691812174
 20
19.8011220911
 30
0.0
 10
14.6596171884
 20
19.7941066388
 30
0.0
 10
14.6285236748
 20
19.7930110411
 30
0.0
 10
14.5987023513
 20
19.7961234294
 30
0.0
 10
14.5702780201
 20
19.802546154
 30
0.0
 10
14.5433746055
 20
19.8118262888
 30
0.0
 10
14.5181485908
 20
19.8236930229
 30
0.0
 10
14.4947748299
 20
19.8378570055
 30
0.0
 10
14.4734402493
 20
19.8539048603
 30
0.0
 10
14.4543022049
 20
19.8713003955
 30
0.0
 10
14.4373545034
 20
19.8894910368
 30
0.0
 10
14.4223736467
 20
19.9080886239
 30
0.0
 10
14.4089389909
 20
19.9270472384
 30
0.0
 10
14.3965420774
 20
19.9466803235
 30
0.0
 10
14.3847501628
 20
19.9674712307
 30
0.0
 10
14.3732676925
 20
19.9899071284
 30
0.0
 10
14.3619218293
 20
20.0143982427
 30
0.0
 10
14.3505588263
 20
20.0414074232
 30
0.0
 10
14.3390493085
 20
20.0713608893
 30
0.0
 10
14.3272845375
 20
20.1044727529
 30
0.0
 10
14.3151182459
 20
20.1404915224
 30
0.0
 10
14.302368375
 20
20.1790206889
 30
0.0
 10
14.2888749776
 20
20.2197028038
 30
0.0
 10
14.2743858678
 20
20.2622962755
 30
0.0
 10
14.2586463042
 20
20.3065523467
 30
0.0
 10
14.2413813297
 20
20.3521740729
 30
0.0
 10
14.222081769
 20
20.3988581249
 30
0.0
 10
14.1998604262
 20
20.4462885859
 30
0.0
 10
14.1734140103
 20
20.4941747722
 30
0.0
 10
14.1410310195
 20
20.5418441937
 30
0.0
 10
14.1016722778
 20
20.5884890812
 30
0.0
 10
14.0551756869
 20
20.6334242884
 30
0.0
 10
14.0020817895
 20
20.6762229629
 30
0.0
 10
13.9437798216
 20
20.7170302137
 30
0.0
 10
13.8826703735
 20
20.7581612567
 30
0.0
 10
13.8201296629
 20
20.8023423394
 30
0.0
 10
13.7553234914
 20
20.8509172208
 30
0.0
 10
13.6851324963
 20
20.9017897816
 30
0.0
 10
13.6089638417
 20
20.9531544347
 30
0.0
 10
13.5287771819
 20
21.0041370071
 30
0.0
 10
13.448962048
 20
21.0584737309
 30
0.0
 10
13.3722122188
 20
21.1198666078
 30
0.0
 10
13.2948594671
 20
21.1879779604
 30
0.0
 10
13.2006103591
 20
21.243146912
 30
0.0
 10
13.1025118669
 20
21.3050086123
 30
0.0
 10
12.9980341196
 20
21.3656245693
 30
0.0
 10
12.8916248322
 20
21.4146817965
 30
0.0
 10
12.7968092319
 20
21.4569321988
 30
0.0
 10
12.7199652975
 20
21.4922203134
 30
0.0
 10
12.6602741181
 20
21.5212316434
 30
0.0
 10
12.6159143299
 20
21.5461322406
 30
0.0
 10
12.586307008
 20
21.5684570797
 30
0.0
 10
12.5699515835
 20
21.58983749
 30
0.0
 10
12.5685651572
 20
21.6112505856
 30
0.0
 10
12.5813842226
 20
21.626766001
 30
0.0
 10
12.6014425728
 20
21.636129422
 30
0.0
 10
12.6276439371
 20
21.6415077332
 30
0.0
 10
12.6590247257
 20
21.6427373972
 30
0.0
 10
12.6942958641
 20
21.6399505778
 30
0.0
 10
12.7321120969
 20
21.6333294368
 30
0.0
 10
12.7713039948
 20
21.6232152954
 30
0.0
 10
12.8110422099
 20
21.6099813128
 30
0.0
 10
12.8508636036
 20
21.5939695005
 30
0.0
 10
12.8905752277
 20
21.5754885039
 30
0.0
 10
12.9300459983
 20
21.5547538588
 30
0.0
 10
12.9691278817
 20
21.5320097731
 30
0.0
 10
13.0075832318
 20
21.5075234148
 30
0.0
 10
13.0451685336
 20
21.4815735255
 30
0.0
 10
13.0816126453
 20
21.4544813694
 30
0.0
 10
13.1164775016
 20
21.4267429053
 30
0.0
 10
13.1491728123
 20
21.3990821556
 30
0.0
 10
13.1792017185
 20
21.3722670733
 30
0.0
 10
13.2066484644
 20
21.3466337933
 30
0.0
 10
13.232068235
 20
21.3220213952
 30
0.0
 10
13.2562153436
 20
21.2979769572
 30
0.0
 10
13.2797315563
 20
21.2741037989
 30
0.0
 10
13.3029104952
 20
21.25037439
 30
0.0
 10
13.3256856134
 20
21.2272305573
 30
0.0
 10
13.3477014297
 20
21.205503347
 30
0.0
 10
13.3687131669
 20
21.1859550453
 30
0.0
 10
13.3886924603
 20
21.1691321988
 30
0.0
 10
13.4077893556
 20
21.1554269321
 30
0.0
 10
13.4261939002
 20
21.1452325364
 30
0.0
 10
13.4441562875
 20
21.1389843891
 30
0.0
 10
13.4619001165
 20
21.1373105314
 30
0.0
 10
13.4793067545
 20
21.1407859045
 30
0.0
 10
13.4960784741
 20
21.1495617359
 30
0.0
 10
13.5122299146
 20
21.1634130058
 30
0.0
 10
13.5280265544
 20
21.1821256724
 30
0.0
 10
13.5436949858
 20
21.2054543884
 30
0.0
 10
13.5594713192
 20
21.2329227544
 30
0.0
 10
13.5757082179
 20
21.2638998702
 30
0.0
 10
13.5921241447
 20
21.298040374
 30
0.0
 10
13.6079737929
 20
21.3349070761
 30
0.0
 10
13.6236360447
 20
21.3730861544
 30
0.0
 10
13.6402153754
 20
21.4106169713
 30
0.0
 10
13.6611832688
 20
21.4447913372
 30
0.0
 10
13.690131372
 20
21.4730531017
 30
0.0
 10
13.7314113285
 20
21.4907618486
 30
0.0
 10
13.7869956719
 20
21.4925296675
 30
0.0
 10
13.8559618773
 20
21.4769107825
 30
0.0
 10
13.9353461419
 20
21.445447509
 30
0.0
 10
14.0188424211
 20
21.4019275033
 30
0.0
 10
14.1002148924
 20
21.3515434691
 30
0.0
 10
14.1775702322
 20
21.2962246344
 30
0.0
 10
14.2560425623
 20
21.2327310762
 30
0.0
 10
14.3091087052
 20
21.1871155038
 30
0.0
 10
14.3375595584
 20
21.1613185352
 30
0.0
  0
SPLINE
  5
31A
100
AcDbEntity
  8
0
100
AcDbSpline
 62
7
  6
BYLAYER
 70
0
 71
3
 72
26
 73
22
 74
0
 42
0.0000001
 43
0.0000001
 44
0.0000000001
 40
0.0
 40
0.0
 40
0.0
 40
0.0
 40
0.0861896055
 40
0.1560699808
 40
0.2111040463
 40
0.2524879751
 40
0.2813187797
 40
0.2988748484
 40
0.3081140774
 40
0.3191816958
 40
0.3389745116
 40
0.3686384028
 40
0.4082351653
 40
0.4564026179
 40
0.5118225515
 40
0.5736961511
 40
0.6433820558
 40
0.7206088124
 40
0.8063307184
 40
0.8991989815
 40
1.0
 40
1.0
 40
1.0
 40
1.0
 10
14.8379655476
 20
19.9950828103
 30
0.0
 10
14.8414912767
 20
19.9820774019
 30
0.0
 10
14.8481881276
 20
19.9586126976
 30
0.0
 10
14.8582336928
 20
19.9271590378
 30
0.0
 10
14.8671628617
 20
19.9027537741
 30
0.0
 10
14.8745832402
 20
19.8845789618
 30
0.0
 10
14.8812825137
 20
19.8726206683
 30
0.0
 10
14.8857532997
 20
19.8650924463
 30
0.0
 10
14.8924688769
 20
19.8627685989
 30
0.0
 10
14.8959190641
 20
19.8695238721
 30
0.0
 10
14.89740908
 20
19.8783210253
 30
0.0
 10
14.8984852729
 20
19.8924861643
 30
0.0
 10
14.8984373589
 20
19.9107473976
 30
0.0
 10
14.8975174047
 20
19.9331556482
 30
0.0
 10
14.8956278422
 20
19.9589456836
 30
0.0
 10
14.8927749389
 20
19.9880448363
 30
0.0
 10
14.8888677628
 20
20.0204530569
 30
0.0
 10
14.8837452566
 20
20.0564636144
 30
0.0
 10
14.8772462358
 20
20.0959298883
 30
0.0
 10
14.8691349695
 20
20.1388537835
 30
0.0
 10
14.8627916657
 20
20.1684646761
 30
0.0
 10
14.8592589409
 20
20.1838227938
 30
0.0
  0
SPLINE
  5
31B
100
AcDbEntity
  8
0
100
AcDbSpline
 62
7
  6
BYLAYER
 70
0
 71
3
 72
76
 73
72
 74
0
 42
0.0000001
 43
0.0000001
 44
0.0000000001
 40
0.0
 40
0.0
 40
0.0
 40
0.0
 40
0.0507257469
 40
0.0966063819
 40
0.1377243906
 40
0.1742682953
 40
0.2064950202
 40
0.2348293585
 40
0.2597692624
 40
0.2819374051
 40
0.3019627793
 40
0.3203858766
 40
0.3376739431
 40
0.3540733848
 40
0.3697362074
 40
0.3846524777
 40
0.3987557142
 40
0.411920645
 40
0.4240221179
 40
0.4349898031
 40
0.4447817054
 40
0.4492324385
 40
0.4533877865
 40
0.4608456238
 40
0.4672988771
 40
0.4729553809
 40
0.4755758604
 40
0.4781089643
 40
0.4806002355
 40
0.4830970633
 40
0.4856438463
 40
0.4882794856
 40
0.493932467
 40
0.5002504503
 40
0.5073339753
 40
0.5152219915
 40
0.5239149156
 40
0.5333904953
 40
0.5436116194
 40
0.554528247
 40
0.566084513
 40
0.5782222842
 40
0.6039988045
 40
0.6313967094
 40
0.6599826838
 40
0.6893884714
 40
0.7043174782
 40
0.719363703
 40
0.7497643981
 40
0.7651549599
 40
0.7807034621
 40
0.7964571403
 40
0.8124776188
 40
0.8288448369
 40
0.8456685879
 40
0.8630784745
 40
0.8811967078
 40
0.8905905181
 40
0.9003846069
 40
0.9207773944
 40
0.931265533
 40
0.9419404653
 40
0.9528942121
 40
0.9585393376
 40
0.9643438318
 40
0.9703563383
 40
0.9766338436
 40
0.9832443011
 40
0.9902653079
 40
0.9950201214
 40
1.0
 40
1.0
 40
1.0
 40
1.0
 10
15.3839870642
 20
20.0069647449
 30
0.0
 10
15.3087494388
 20
20.0057991936
 30
0.0
 10
15.165447869
 20
20.0042585237
 30
0.0
 10
14.9611431948
 20
20.0041996483
 30
0.0
 10
14.7778853628
 20
20.0060881832
 30
0.0
 10
14.6149110146
 20
20.0096630949
 30
0.0
 10
14.4709477771
 20
20.0146786223
 30
0.0
 10
14.3442642093
 20
20.020928392
 30
0.0
 10
14.2325861716
 20
20.0282352804
 30
0.0
 10
14.1333248298
 20
20.0363111835
 30
0.0
 10
14.0438040905
 20
20.0448031152
 30
0.0
 10
13.961656657
 20
20.0542385649
 30
0.0
 10
13.8851114543
 20
20.0650978158
 30
0.0
 10
13.8129597897
 20
20.0775531673
 30
0.0
 10
13.7447022096
 20
20.0916658644
 30
0.0
 10
13.6802648993
 20
20.107247276
 30
0.0
 10
13.6199681854
 20
20.1240349307
 30
0.0
 10
13.5643242454
 20
20.1418176509
 30
0.0
 10
13.5138647671
 20
20.160398085
 30
0.0
 10
13.4690891956
 20
20.1797390275
 30
0.0
 10
13.4358530325
 20
20.1969894286
 30
0.0
 10
13.4126174317
 20
20.2113316054
 30
0.0
 10
13.393079363
 20
20.2249885374
 30
0.0
 10
13.3726146846
 20
20.2424571836
 30
0.0
 10
13.353902622
 20
20.2648594694
 30
0.0
 10
13.3437033348
 20
20.2844528568
 30
0.0
 10
13.3393102689
 20
20.2999242969
 30
0.0
 10
13.3377758044
 20
20.3112011876
 30
0.0
 10
13.337914909
 20
20.3223979726
 30
0.0
 10
13.3396912061
 20
20.3334722687
 30
0.0
 10
13.3430616952
 20
20.3443906265
 30
0.0
 10
13.3497735378
 20
20.3590385597
 30
0.0
 10
13.3623044857
 20
20.3769387683
 30
0.0
 10
13.3826090019
 20
20.3967698416
 30
0.0
 10
13.4082213307
 20
20.4153958243
 30
0.0
 10
13.4388249209
 20
20.4327126943
 30
0.0
 10
13.4741132298
 20
20.4485945261
 30
0.0
 10
13.5137636871
 20
20.462889296
 30
0.0
 10
13.5574379519
 20
20.47543776
 30
0.0
 10
13.6047816128
 20
20.4860735001
 30
0.0
 10
13.6554298668
 20
20.4946265753
 30
0.0
 10
13.7283389302
 20
20.5031924156
 30
0.0
 10
13.825287042
 20
20.5074319031
 30
0.0
 10
13.9465983092
 20
20.5015677488
 30
0.0
 10
14.0721707999
 20
20.483515375
 30
0.0
 10
14.177346384
 20
20.4572855069
 30
0.0
 10
14.2607683353
 20
20.4288555069
 30
0.0
 10
14.343703346
 20
20.3949421573
 30
0.0
 10
14.4238846148
 20
20.3528158784
 30
0.0
 10
14.499524793
 20
20.3021179749
 30
0.0
 10
14.5540495348
 20
20.259285885
 30
0.0
 10
14.6057029267
 20
20.2116369815
 30
0.0
 10
14.6540979333
 20
20.1590100148
 30
0.0
 10
14.6988515426
 20
20.1012228341
 30
0.0
 10
14.7395032594
 20
20.0380061774
 30
0.0
 10
14.7755798236
 20
19.9691170202
 30
0.0
 10
14.8011481759
 20
19.9074913464
 30
0.0
 10
14.8193177728
 20
19.8551990892
 30
0.0
 10
14.8357079924
 20
19.7988086759
 30
0.0
 10
14.8471998504
 20
19.7392872043
 30
0.0
 10
14.8504269929
 20
19.6776216887
 30
0.0
 10
14.8473857982
 20
19.6299531719
 30
0.0
 10
14.8392220282
 20
19.5901521395
 30
0.0
 10
14.8286116086
 20
19.5586208699
 30
0.0
 10
14.8182432751
 20
19.5348454199
 30
0.0
 10
14.8053305889
 20
19.5112712196
 30
0.0
 10
14.7895919388
 20
19.4880170658
 30
0.0
 10
14.7707539455
 20
19.4652147875
 30
0.0
 10
14.7514443726
 20
19.4458937521
 30
0.0
 10
14.7326111607
 20
19.4296547878
 30
0.0
 10
14.72114562
 20
19.4208623315
 30
0.0
 10
14.7151623514
 20
19.4165282893
 30
0.0
  0
SPLINE
  5
31C
100
AcDbEntity
  8
0
100
AcDbSpline
 62
7
  6
BYLAYER
 70
0
 71
3
 72
10
 73
6
 74
0
 42
0.0000001
 43
0.0000001
 44
0.0000000001
 40
0.0
 40
0.0
 40
0.0
 40
0.0
 40
0.3419008565
 40
0.6736511378
 40
1.0
 40
1.0
 40
1.0
 40
1.0
 10
13.8190986544
 20
18.8384965483
 30
0.0
 10
13.7933666466
 20
18.8235156606
 30
0.0
 10
13.7402032356
 20
18.7979472964
 30
0.0
 10
13.6559813671
 20
18.7741903723
 30
0.0
 10
13.5985301693
 20
18.7688524047
 30
0.0
 10
13.5701093385
 20
18.7688524047
 30
0.0
  0
SPLINE
  5
31D
100
AcDbEntity
  8
0
100
AcDbSpline
 62
7
  6
BYLAYER
 70
0
 71
3
 72
32
 73
28
 74
0
 42
0.0000001
 43
0.0000001
 44
0.0000000001
 40
0.0
 40
0.0
 40
0.0
 40
0.0
 40
0.0443272534
 40
0.0894536557
 40
0.1351780454
 40
0.1812899185
 40
0.2275777096
 40
0.2738227959
 40
0.3198002976
 40
0.365289272
 40
0.4100866291
 40
0.4540179909
 40
0.4969218119
 40
0.5386557763
 40
0.6181794861
 40
0.6560103487
 40
0.6925561345
 40
0.7279137834
 40
0.7622574009
 40
0.7958007524
 40
0.8287971746
 40
0.8615463614
 40
0.8943681276
 40
0.927563695
 40
0.9614136883
 40
0.9805492182
 40
1.0
 40
1.0
 40
1.0
 40
1.0
 10
13.0026635152
 20
20.1012962355
 30
0.0
 10
12.9931441174
 20
20.0747543245
 30
0.0
 10
12.976026656
 20
20.0204624132
 30
0.0
 10
12.9563147311
 20
19.9367194559
 30
0.0
 10
12.9424381664
 20
19.8506721889
 30
0.0
 10
12.9345658859
 20
19.7631263264
 30
0.0
 10
12.9328595446
 20
19.6749138661
 30
0.0
 10
12.9372461208
 20
19.5868813323
 30
0.0
 10
12.9476537558
 20
19.4998665011
 30
0.0
 10
12.9640123643
 20
19.4147046525
 30
0.0
 10
12.986258216
 20
19.3322299001
 30
0.0
 10
13.0140913156
 20
19.2532112893
 30
0.0
 10
13.0472280873
 20
19.1783703236
 30
0.0
 10
13.0972540449
 20
19.0866681566
 30
0.0
 10
13.157292285
 20
19.0043660052
 30
0.0
 10
13.2263231327
 20
18.9347993295
 30
0.0
 10
13.2806071052
 20
18.8907210371
 30
0.0
 10
13.3377887189
 20
18.85444439
 30
0.0
 10
13.3972631866
 20
18.8262453806
 30
0.0
 10
13.4584489969
 20
18.8063735664
 30
0.0
 10
13.5207685626
 20
18.7950831916
 30
0.0
 10
13.5836006128
 20
18.7926340584
 30
0.0
 10
13.6462855318
 20
18.7989268458
 30
0.0
 10
13.7082036538
 20
18.8138426749
 30
0.0
 10
13.7594650721
 20
18.8336789153
 30
0.0
 10
13.8005908023
 20
18.8544868088
 30
0.0
 10
13.8216929108
 20
18.8670397938
 30
0.0
 10
13.8321139525
 20
18.8737058009
 30
0.0
  0
SPLINE
  5
31E
100
AcDbEntity
  8
0
100
AcDbSpline
 62
7
  6
BYLAYER
 70
0
 71
3
 72
37
 73
33
 74
0
 42
0.0000001
 43
0.0000001
 44
0.0000000001
 40
0.0
 40
0.0
 40
0.0
 40
0.0
 40
0.0319557368
 40
0.0643879403
 40
0.0971781037
 40
0.1302039668
 40
0.1670575712
 40
0.2038771748
 40
0.2404837316
 40
0.2767013309
 40
0.3123682755
 40
0.3473457282
 40
0.3815050694
 40
0.4147329893
 40
0.4780485045
 40
0.5081688367
 40
0.5372660112
 40
0.5654172099
 40
0.5927610529
 40
0.6194677369
 40
0.6457389644
 40
0.671813347
 40
0.6979455162
 40
0.7243752999
 40
0.7513261271
 40
0.7790015792
 40
0.8075524334
 40
0.8675561376
 40
0.8991828752
 40
0.9318477202
 40
0.9654831047
 40
1.0
 40
1.0
 40
1.0
 40
1.0
 10
14.1485043274
 20
19.318479411
 30
0.0
 10
14.1563712242
 20
19.3427653294
 30
0.0
 10
14.1705431644
 20
19.3922312223
 30
0.0
 10
14.1869708481
 20
19.4681385111
 30
0.0
 10
14.1986489318
 20
19.5457805655
 30
0.0
 10
14.2057098506
 20
19.6275243631
 30
0.0
 10
14.2073591167
 20
19.7127912301
 30
0.0
 10
14.2029725603
 20
19.8008234008
 30
0.0
 10
14.19256492
 20
19.8878383284
 30
0.0
 10
14.176206313
 20
19.9730001516
 30
0.0
 10
14.1539604609
 20
20.0554749106
 30
0.0
 10
14.1261273614
 20
20.1344935198
 30
0.0
 10
14.0929905896
 20
20.2093344859
 30
0.0
 10
14.0429646321
 20
20.3010366528
 30
0.0
 10
13.982926392
 20
20.3833388042
 30
0.0
 10
13.9138955441
 20
20.4529054798
 30
0.0
 10
13.859611572
 20
20.4969837724
 30
0.0
 10
13.8024299571
 20
20.5332604188
 30
0.0
 10
13.7429554938
 20
20.5614594307
 30
0.0
 10
13.6817696675
 20
20.5813312361
 30
0.0
 10
13.6194501602
 20
20.5926216433
 30
0.0
 10
13.5566178943
 20
20.5950706565
 30
0.0
 10
13.4939337841
 20
20.5887783189
 30
0.0
 10
13.4320125885
 20
20.5738607807
 30
0.0
 10
13.3714693249
 20
20.5504348144
 30
0.0
 10
13.3129443135
 20
20.5186408374
 30
0.0
 10
13.2370839138
 20
20.464847184
 30
0.0
 10
13.1686498247
 20
20.3963541093
 30
0.0
 10
13.1093241059
 20
20.3166567827
 30
0.0
 10
13.0684425515
 20
20.2498535671
 30
0.0
 10
13.0323561993
 20
20.1777826149
 30
0.0
 10
13.0119863243
 20
20.1272394294
 30
0.0
 10
13.0026635166
 20
20.1012962396
 30
0.0
  0
SPLINE
  5
31F
100
AcDbEntity
  8
0
100
AcDbSpline
 62
7
  6
BYLAYER
 70
0
 71
3
 72
14
 73
10
 74
0
 42
0.0000001
 43
0.0000001
 44
0.0000000001
 40
0.0
 40
0.0
 40
0.0
 40
0.0
 40
0.1160453777
 40
0.2393464563
 40
0.3745702701
 40
0.5220457991
 40
0.6788561145
 40
0.8401004228
 40
1.0
 40
1.0
 40
1.0
 40
1.0
 10
13.5701093385
 20
20.6188524047
 30
0.0
 10
13.6322562941
 20
20.6188524047
 30
0.0
 10
13.7616089535
 20
20.5917590598
 30
0.0
 10
13.9319883968
 20
20.4789598376
 30
0.0
 10
14.0705520368
 20
20.3078276621
 30
0.0
 10
14.1697182849
 20
20.0921025899
 30
0.0
 10
14.2236799756
 20
19.8469008465
 30
0.0
 10
14.2285761324
 20
19.5894440212
 30
0.0
 10
14.197754268
 20
19.4187661961
 30
0.0
 10
14.1734481309
 20
19.3366555357
 30
0.0
  0
SPLINE
  5
320
100
AcDbEntity
  8
0
100
AcDbSpline
 62
7
  6
BYLAYER
 70
0
 71
3
 72
10
 73
6
 74
0
 42
0.0000001
 43
0.0000001
 44
0.0000000001
 40
0.0
 40
0.0
 40
0.0
 40
0.0
 40
0.3419008565
 40
0.6736511378
 40
1.0
 40
1.0
 40
1.0
 40
1.0
 10
13.3211200225
 20
20.5492082611
 30
0.0
 10
13.3468520304
 20
20.5641891488
 30
0.0
 10
13.4000154414
 20
20.589757513
 30
0.0
 10
13.4842373099
 20
20.6135144372
 30
0.0
 10
13.5416885076
 20
20.6188524047
 30
0.0
 10
13.5701093385
 20
20.6188524047
 30
0.0
  0
SPLINE
  5
321
100
AcDbEntity
  8
0
100
AcDbSpline
 62
7
  6
BYLAYER
 70
0
 71
3
 72
17
 73
13
 74
0
 42
0.0000001
 43
0.0000001
 44
0.0000000001
 40
0.0
 40
0.0
 40
0.0
 40
0.0
 40
0.0819062705
 40
0.1688837608
 40
0.2640903549
 40
0.3677194925
 40
0.4777117717
 40
0.5906499571
 40
0.7025593667
 40
0.8096514361
 40
0.9091096813
 40
1.0
 40
1.0
 40
1.0
 40
1.0
 10
13.5701093385
 20
18.7688524047
 30
0.0
 10
13.5092065507
 20
18.7688524047
 30
0.0
 10
13.3825117772
 20
18.7948166496
 30
0.0
 10
13.2146398729
 20
18.9034140933
 30
0.0
 10
13.0769796341
 20
19.068802265
 30
0.0
 10
12.9769914936
 20
19.2777108206
 30
0.0
 10
12.9201614632
 20
19.5154727052
 30
0.0
 10
12.909987875
 20
19.7657614318
 30
0.0
 10
12.9471889392
 20
20.011341631
 30
0.0
 10
13.0297924825
 20
20.235254383
 30
0.0
 10
13.152875777
 20
20.4215995901
 30
0.0
 10
13.2627141568
 20
20.515205018
 30
0.0
 10
13.3211200225
 20
20.5492082611
 30
0.0
  0
SPLINE
  5
322
100
AcDbEntity
  8
0
100
AcDbSpline
 62
7
  6
BYLAYER
 70
0
 71
3
 72
10
 73
6
 74
0
 42
0.0000001
 43
0.0000001
 44
0.0000000001
 40
0.0
 40
0.0
 40
0.0
 40
0.0
 40
0.3027953513
 40
0.6361496918
 40
1.0
 40
1.0
 40
1.0
 40
1.0
 10
13.8190986544
 20
18.8384965483
 30
0.0
 10
13.8124997323
 20
18.8391945698
 30
0.0
 10
13.7985997576
 20
18.8403278944
 30
0.0
 10
13.7767021175
 20
18.841286608
 30
0.0
 10
13.7614216142
 20
18.8414774837
 30
0.0
 10
13.7534478623
 20
18.8414774837
 30
0.0
  0
SPLINE
  5
323
100
AcDbEntity
  8
0
100
AcDbSpline
 62
7
  6
BYLAYER
 70
0
 71
3
 72
53
 73
49
 74
0
 42
0.0000001
 43
0.0000001
 44
0.0000000001
 40
0.0
 40
0.0
 40
0.0
 40
0.0
 40
0.0473534723
 40
0.0935171211
 40
0.1380549535
 40
0.1805315053
 40
0.2205280859
 40
0.257690516
 40
0.2916820282
 40
0.3221686249
 40
0.3488456069
 40
0.3715137206
 40
0.381294443
 40
0.3900153461
 40
0.39766227
 40
0.4042265839
 40
0.4097132032
 40
0.4141597053
 40
0.4176462498
 40
0.4190812657
 40
0.420354103
 40
0.4215172322
 40
0.4226388475
 40
0.423794727
 40
0.4250546765
 40
0.4264733949
 40
0.4280896944
 40
0.4320088216
 40
0.4369417384
 40
0.4429339753
 40
0.4499988831
 40
0.458135965
 40
0.4673374585
 40
0.47759147
 40
0.4888836019
 40
0.5011978602
 40
0.528797519
 40
0.5601186706
 40
0.5948553636
 40
0.6326976026
 40
0.6733154096
 40
0.7163063083
 40
0.7612488599
 40
0.807720906
 40
0.8552929035
 40
0.9035069158
 40
0.9518977078
 40
1.0
 40
1.0
 40
1.0
 40
1.0
 10
15.3839870642
 20
20.0069647449
 30
0.0
 10
15.3848642995
 20
19.9781695202
 30
0.0
 10
15.38685414
 20
19.9213099789
 30
0.0
 10
15.3906080564
 20
19.8374036218
 30
0.0
 10
15.3950533687
 20
19.7565021602
 30
0.0
 10
15.4001505367
 20
19.6793985638
 30
0.0
 10
15.4058623818
 20
19.6068378093
 30
0.0
 10
15.4121197362
 20
19.539504286
 30
0.0
 10
15.4188540526
 20
19.4780335002
 30
0.0
 10
15.4259934071
 20
19.423033542
 30
0.0
 10
15.4334841306
 20
19.3750414665
 30
0.0
 10
15.4402195344
 20
19.33969515
 30
0.0
 10
15.4458386696
 20
19.3152839229
 30
0.0
 10
15.4498798183
 20
19.2998945968
 30
0.0
 10
15.4539454354
 20
19.2865438241
 30
0.0
 10
15.4580230866
 20
19.2752687021
 30
0.0
 10
15.462108895
 20
19.2660855249
 30
0.0
 10
15.4661890364
 20
19.2589981925
 30
0.0
 10
15.4698125869
 20
19.2545302318
 30
0.0
 10
15.4727724824
 20
19.2521723172
 30
0.0
 10
15.4748641209
 20
19.2510550614
 30
0.0
 10
15.476975826
 20
19.2504874415
 30
0.0
 10
15.4790945376
 20
19.2504920897
 30
0.0
 10
15.4811912752
 20
19.2510705157
 30
0.0
 10
15.4832505462
 20
19.2522022899
 30
0.0
 10
15.4852770813
 20
19.2538699703
 30
0.0
 10
15.4881302032
 20
19.2570087683
 30
0.0
 10
15.4915660961
 20
19.2624163829
 30
0.0
 10
15.4953898971
 20
19.2706096821
 30
0.0
 10
15.4991537034
 20
19.2808983304
 30
0.0
 10
15.5028466967
 20
19.2932573593
 30
0.0
 10
15.5064577987
 20
19.3076619799
 30
0.0
 10
15.5099755344
 20
19.3240784611
 30
0.0
 10
15.5133892679
 20
19.3424723414
 30
0.0
 10
15.5166892955
 20
19.3628075521
 30
0.0
 10
15.5210920812
 20
19.3936488094
 30
0.0
 10
15.5261434497
 20
19.4366975089
 30
0.0
 10
15.5314398951
 20
19.4934332424
 30
0.0
 10
15.5361156947
 20
19.5564734208
 30
0.0
 10
15.5401168059
 20
19.625225439
 30
0.0
 10
15.5433883543
 20
19.699042566
 30
0.0
 10
15.5459116232
 20
19.7772106928
 30
0.0
 10
15.5476632597
 20
19.8589621466
 30
0.0
 10
15.5486207829
 20
19.943513856
 30
0.0
 10
15.5487628666
 20
20.0300610546
 30
0.0
 10
15.5480994044
 20
20.1177730744
 30
0.0
 10
15.5466420379
 20
20.2057981846
 30
0.0
 10
15.5451343905
 20
20.2644834416
 30
0.0
 10
15.5442475084
 20
20.2937342866
 30
0.0
  0
SPLINE
  5
324
100
AcDbEntity
  8
0
100
AcDbSpline
 62
7
  6
BYLAYER
 70
0
 71
3
 72
53
 73
49
 74
0
 42
0.0000001
 43
0.0000001
 44
0.0000000001
 40
0.0
 40
0.0
 40
0.0
 40
0.0
 40
0.0473534726
 40
0.0935171216
 40
0.1380549543
 40
0.1805315063
 40
0.2205280865
 40
0.2576905162
 40
0.2916820281
 40
0.3221686244
 40
0.3488456062
 40
0.3715137197
 40
0.381294442
 40
0.3900153451
 40
0.3976622689
 40
0.4042265827
 40
0.4097132019
 40
0.414159704
 40
0.4176462485
 40
0.4190812643
 40
0.4203541016
 40
0.4215172309
 40
0.4226388461
 40
0.4237947256
 40
0.4250546751
 40
0.4264733935
 40
0.428089693
 40
0.4320088201
 40
0.4369417369
 40
0.4429339737
 40
0.4499988814
 40
0.4581359633
 40
0.4673374567
 40
0.477591468
 40
0.4888835999
 40
0.5011978581
 40
0.5287975166
 40
0.5601186679
 40
0.5948553605
 40
0.6326975991
 40
0.6733154058
 40
0.7163063041
 40
0.7612488553
 40
0.8077209009
 40
0.8552928997
 40
0.9035069133
 40
0.9518977066
 40
1.0
 40
1.0
 40
1.0
 40
1.0
 10
15.5442475082
 20
20.2937342911
 30
0.0
 10
15.5433702729
 20
20.3225295162
 30
0.0
 10
15.5413804324
 20
20.3793890584
 30
0.0
 10
15.5376265159
 20
20.4632954167
 30
0.0
 10
15.5331812036
 20
20.5441968795
 30
0.0
 10
15.5280840356
 20
20.6213004767
 30
0.0
 10
15.5223721905
 20
20.6938612316
 30
0.0
 10
15.5161148361
 20
20.7611947549
 30
0.0
 10
15.5093805196
 20
20.8226655407
 30
0.0
 10
15.5022411651
 20
20.8776654989
 30
0.0
 10
15.4947504416
 20
20.9256575744
 30
0.0
 10
15.4880150379
 20
20.9610038909
 30
0.0
 10
15.4823959027
 20
20.985415118
 30
0.0
 10
15.4783547539
 20
21.0008044441
 30
0.0
 10
15.4742891368
 20
21.0141552168
 30
0.0
 10
15.4702114857
 20
21.0254303388
 30
0.0
 10
15.4661256773
 20
21.034613516
 30
0.0
 10
15.4620455359
 20
21.0417008484
 30
0.0
 10
15.4584219853
 20
21.0461688091
 30
0.0
 10
15.4554620899
 20
21.0485267237
 30
0.0
 10
15.4533704514
 20
21.0496439795
 30
0.0
 10
15.4512587462
 20
21.0502115994
 30
0.0
 10
15.4491400346
 20
21.0502069512
 30
0.0
 10
15.447043297
 20
21.0496285252
 30
0.0
 10
15.444984026
 20
21.048496751
 30
0.0
 10
15.442957491
 20
21.0468290706
 30
0.0
 10
15.4401043691
 20
21.0436902726
 30
0.0
 10
15.4366684761
 20
21.038282658
 30
0.0
 10
15.4328446752
 20
21.0300893588
 30
0.0
 10
15.4290808689
 20
21.0198007105
 30
0.0
 10
15.4253878756
 20
21.0074416816
 30
0.0
 10
15.4217767735
 20
20.993037061
 30
0.0
 10
15.4182590379
 20
20.9766205798
 30
0.0
 10
15.4148453043
 20
20.9582266995
 30
0.0
 10
15.4115452767
 20
20.9378914888
 30
0.0
 10
15.407142491
 20
20.9070502315
 30
0.0
 10
15.4020911225
 20
20.864001532
 30
0.0
 10
15.3967946771
 20
20.8072657985
 30
0.0
 10
15.3921188776
 20
20.7442256201
 30
0.0
 10
15.3881177663
 20
20.6754736019
 30
0.0
 10
15.3848462179
 20
20.6016564749
 30
0.0
 10
15.3823229491
 20
20.5234883481
 30
0.0
 10
15.3805713126
 20
20.4417368943
 30
0.0
 10
15.3796137893
 20
20.3571851839
 30
0.0
 10
15.3794717056
 20
20.2706379831
 30
0.0
 10
15.3801351679
 20
20.1829259601
 30
0.0
 10
15.3815925346
 20
20.0949008467
 30
0.0
 10
15.3831001821
 20
20.0362155876
 30
0.0
 10
15.3839870643
 20
20.0069647416
 30
0.0
  0
SPLINE
  5
325
100
AcDbEntity
  8
0
100
AcDbSpline
 62
7
  6
BYLAYER
 70
0
 71
3
 72
49
 73
45
 74
0
 42
0.0000001
 43
0.0000001
 44
0.0000000001
 40
0.0
 40
0.0
 40
0.0
 40
0.0
 40
0.0135219558
 40
0.0261671479
 40
0.0379262717
 40
0.0487936229
 40
0.0587685617
 40
0.067857709
 40
0.0760782993
 40
0.0834633485
 40
0.0900718676
 40
0.0960043518
 40
0.101403327
 40
0.1064573267
 40
0.1113953295
 40
0.1164628975
 40
0.1218888849
 40
0.1278619351
 40
0.1345228275
 40
0.141961876
 40
0.1502345121
 40
0.1593739197
 40
0.1693983678
 40
0.180316034
 40
0.2048267492
 40
0.232848444
 40
0.2641800171
 40
0.2985687538
 40
0.3357455294
 40
0.3754158315
 40
0.4172144071
 40
0.4607545012
 40
0.5056461243
 40
0.5978624463
 40
0.6904776652
 40
0.7358660475
 40
0.7800935179
 40
0.8227613913
 40
0.8634736745
 40
0.9018540052
 40
0.9375914489
 40
0.9703976548
 40
0.9856159498
 40
1.0
 40
1.0
 40
1.0
 40
1.0
 10
16.5625861756
 20
21.0918265791
 30
0.0
 10
16.5637314734
 20
21.0839922184
 30
0.0
 10
16.5661517427
 20
21.0688573563
 30
0.0
 10
16.5703867366
 20
21.0470513541
 30
0.0
 10
16.5750817539
 20
21.0269313661
 30
0.0
 10
16.5802259548
 20
21.0085390707
 30
0.0
 10
16.5858056707
 20
20.9919137579
 30
0.0
 10
16.5918087311
 20
20.9770937576
 30
0.0
 10
16.5982246931
 20
20.9641158532
 30
0.0
 10
16.6050471811
 20
20.9530132674
 30
0.0
 10
16.6122820665
 20
20.9438175894
 30
0.0
 10
16.6199255113
 20
20.9365460645
 30
0.0
 10
16.6279812057
 20
20.931224168
 30
0.0
 10
16.636439841
 20
20.9279029221
 30
0.0
 10
16.6452491827
 20
20.9266390965
 30
0.0
 10
16.6543240843
 20
20.9274468627
 30
0.0
 10
16.6635999618
 20
20.9302906884
 30
0.0
 10
16.6730533876
 20
20.9351293293
 30
0.0
 10
16.6826755789
 20
20.9419351774
 30
0.0
 10
16.6924688527
 20
20.9506704543
 30
0.0
 10
16.7024234646
 20
20.9613074153
 30
0.0
 10
16.7125222069
 20
20.9738184479
 30
0.0
 10
16.7227449342
 20
20.9881753115
 30
0.0
 10
16.7370673395
 20
21.0106211888
 30
0.0
 10
16.7549463178
 20
21.0432386508
 30
0.0
 10
16.7757491147
 20
21.087750515
 30
0.0
 10
16.7964853915
 20
21.1385986221
 30
0.0
 10
16.8169508939
 20
21.1952871083
 30
0.0
 10
16.8369351205
 20
21.2572969211
 30
0.0
 10
16.8562194644
 20
21.3240549805
 30
0.0
 10
16.8746445371
 20
21.3949108371
 30
0.0
 10
16.8920351907
 20
21.4691709362
 30
0.0
 10
16.9137960839
 20
21.5727029238
 30
0.0
 10
16.9371090477
 20
21.7052347945
 30
0.0
 10
16.9550661207
 20
21.8388905186
 30
0.0
 10
16.9658405457
 20
21.9450661092
 30
0.0
 10
16.9719434434
 20
22.0222967572
 30
0.0
 10
16.9760779071
 20
22.0969158803
 30
0.0
 10
16.9781980211
 20
22.1681952335
 30
0.0
 10
16.9782567013
 20
22.2354496011
 30
0.0
 10
16.9762835258
 20
22.2980442299
 30
0.0
 10
16.9729005006
 20
22.3469935994
 30
0.0
 10
16.9691070947
 20
22.3833460637
 30
0.0
 10
16.9668613219
 20
22.4005362417
 30
0.0
 10
16.9656480918
 20
22.4088725076
 30
0.0
  0
SPLINE
  5
326
100
AcDbEntity
  8
0
100
AcDbSpline
 62
7
  6
BYLAYER
 70
0
 71
3
 72
49
 73
45
 74
0
 42
0.0000001
 43
0.0000001
 44
0.0000000001
 40
0.0
 40
0.0
 40
0.0
 40
0.0
 40
0.0135219558
 40
0.0261671479
 40
0.0379262717
 40
0.0487936229
 40
0.0587685617
 40
0.067857709
 40
0.0760782993
 40
0.0834633484
 40
0.0900718675
 40
0.0960043517
 40
0.1014033268
 40
0.1064573264
 40
0.1113953292
 40
0.1164628971
 40
0.1218888844
 40
0.1278619345
 40
0.134522827
 40
0.1419618754
 40
0.1502345115
 40
0.159373919
 40
0.169398367
 40
0.1803160333
 40
0.2048267484
 40
0.2328484432
 40
0.2641800163
 40
0.298568753
 40
0.3357455286
 40
0.3754158308
 40
0.4172144064
 40
0.4607545005
 40
0.5056461237
 40
0.5978624458
 40
0.6904776648
 40
0.7358660472
 40
0.7800935177
 40
0.8227613911
 40
0.8634736744
 40
0.9018540051
 40
0.9375914488
 40
0.9703976548
 40
0.9856159498
 40
1.0
 40
1.0
 40
1.0
 40
1.0
 10
16.965648068
 20
22.4088725113
 30
0.0
 10
16.9645027702
 20
22.4167068719
 30
0.0
 10
16.9620825009
 20
22.4318417341
 30
0.0
 10
16.9578475071
 20
22.4536477362
 30
0.0
 10
16.9531524899
 20
22.4737677243
 30
0.0
 10
16.948008289
 20
22.4921600196
 30
0.0
 10
16.9424285732
 20
22.5087853323
 30
0.0
 10
16.9364255128
 20
22.5236053327
 30
0.0
 10
16.930009551
 20
22.5365832371
 30
0.0
 10
16.9231870631
 20
22.5476858228
 30
0.0
 10
16.9159521778
 20
22.5568815008
 30
0.0
 10
16.9083087331
 20
22.5641530258
 30
0.0
 10
16.9002530388
 20
22.5694749222
 30
0.0
 10
16.8917944036
 20
22.5727961681
 30
0.0
 10
16.882985062
 20
22.5740599937
 30
0.0
 10
16.8739101606
 20
22.5732522275
 30
0.0
 10
16.8646342832
 20
22.5704084018
 30
0.0
 10
16.8551808575
 20
22.5655697608
 30
0.0
 10
16.8455586664
 20
22.5587639127
 30
0.0
 10
16.8357653928
 20
22.5500286358
 30
0.0
 10
16.825810781
 20
22.5393916747
 30
0.0
 10
16.8157120388
 20
22.5268806421
 30
0.0
 10
16.8054893117
 20
22.5125237785
 30
0.0
 10
16.7911669065
 20
22.4900779011
 30
0.0
 10
16.7732879286
 20
22.4574604391
 30
0.0
 10
16.752485132
 20
22.4129485749
 30
0.0
 10
16.7317488555
 20
22.3621004678
 30
0.0
 10
16.7112833534
 20
22.3054119814
 30
0.0
 10
16.6912991271
 20
22.2434021686
 30
0.0
 10
16.6720147834
 20
22.1766441091
 30
0.0
 10
16.653589711
 20
22.1057882525
 30
0.0
 10
16.6361990577
 20
22.0315281533
 30
0.0
 10
16.6144381648
 20
21.9279961656
 30
0.0
 10
16.5911252014
 20
21.795464295
 30
0.0
 10
16.5731681286
 20
21.6618085708
 30
0.0
 10
16.5623937037
 20
21.5556329801
 30
0.0
 10
16.5562908061
 20
21.4784023321
 30
0.0
 10
16.5521563425
 20
21.403783209
 30
0.0
 10
16.5500362286
 20
21.3325038558
 30
0.0
 10
16.5499775484
 20
21.2652494882
 30
0.0
 10
16.5519507238
 20
21.2026548593
 30
0.0
 10
16.555333749
 20
21.1537054899
 30
0.0
 10
16.5591271549
 20
21.1173530255
 30
0.0
 10
16.5613729276
 20
21.1001628476
 30
0.0
 10
16.5625861577
 20
21.0918265816
 30
0.0
  0
SPLINE
  5
327
100
AcDbEntity
  8
0
100
AcDbSpline
 62
7
  6
BYLAYER
 70
0
 71
3
 72
25
 73
21
 74
0
 42
0.0000001
 43
0.0000001
 44
0.0000000001
 40
0.0
 40
0.0
 40
0.0
 40
0.0
 40
0.0143275722
 40
0.0630038465
 40
0.1108996989
 40
0.1584397884
 40
0.2060686824
 40
0.2542456822
 40
0.3033859501
 40
0.3538290447
 40
0.4058527076
 40
0.4596745026
 40
0.5153990299
 40
0.573041509
 40
0.6325624775
 40
0.6938763654
 40
0.7568122326
 40
0.8211448016
 40
0.8866236542
 40
1.0
 40
1.0
 40
1.0
 40
1.0
 10
13.0305255005
 20
17.0123394605
 30
0.0
 10
13.036267651
 20
17.0098046414
 30
0.0
 10
13.0617235249
 20
16.9991265798
 30
0.0
 10
13.1080963881
 20
16.9841065455
 30
0.0
 10
13.1704163159
 20
16.9728757597
 30
0.0
 10
13.233240213
 20
16.9703092093
 30
0.0
 10
13.2959391289
 20
16.9764861844
 30
0.0
 10
13.3578506815
 20
16.9914604766
 30
0.0
 10
13.4183700479
 20
17.0149333639
 30
0.0
 10
13.4769322689
 20
17.0466168246
 30
0.0
 10
13.5329680542
 20
17.0862298583
 30
0.0
 10
13.5858783406
 20
17.1334573322
 30
0.0
 10
13.6352382964
 20
17.1877353289
 30
0.0
 10
13.6806137325
 20
17.248517085
 30
0.0
 10
13.7215559341
 20
17.3152506397
 30
0.0
 10
13.7575987297
 20
17.3873455853
 30
0.0
 10
13.7884916639
 20
17.4640579765
 30
0.0
 10
13.8139719448
 20
17.5446500824
 30
0.0
 10
13.8385049602
 20
17.6484022158
 30
0.0
 10
13.8489775865
 20
17.726304023
 30
0.0
 10
13.8527163369
 20
17.7758320309
 30
0.0
  0
SPLINE
  5
328
100
AcDbEntity
  8
0
100
AcDbSpline
 62
7
  6
BYLAYER
 70
0
 71
3
 72
10
 73
6
 74
0
 42
0.0000001
 43
0.0000001
 44
0.0000000001
 40
0.0
 40
0.0
 40
0.0
 40
0.0
 40
0.5148339434
 40
0.7608223919
 40
1.0
 40
1.0
 40
1.0
 40
1.0
 10
12.8265190585
 20
17.1641474373
 30
0.0
 10
12.8558785922
 20
17.1314878687
 30
0.0
 10
12.9038937604
 20
17.0869714091
 30
0.0
 10
12.974974884
 20
17.0395985834
 30
0.0
 10
13.0118609535
 20
17.0205787516
 30
0.0
 10
13.0305255005
 20
17.0123394605
 30
0.0
  0
SPLINE
  5
329
100
AcDbEntity
  8
0
100
AcDbSpline
 62
7
  6
BYLAYER
 70
0
 71
3
 72
10
 73
6
 74
0
 42
0.0000001
 43
0.0000001
 44
0.0000000001
 40
0.0
 40
0.0
 40
0.0
 40
0.0
 40
0.3458809143
 40
0.6795156747
 40
1.0
 40
1.0
 40
1.0
 40
1.0
 10
12.6741476958
 20
17.4087672521
 30
0.0
 10
12.687178131
 20
17.3780561356
 30
0.0
 10
12.7157426639
 20
17.3189144569
 30
0.0
 10
12.7666714542
 20
17.2368084978
 30
0.0
 10
12.8058421898
 20
17.1871167851
 30
0.0
 10
12.8265233926
 20
17.1641426162
 30
0.0
  0
SPLINE
  5
32A
100
AcDbEntity
  8
0
100
AcDbSpline
 62
7
  6
BYLAYER
 70
0
 71
3
 72
11
 73
7
 74
0
 42
0.0000001
 43
0.0000001
 44
0.0000000001
 40
0.0
 40
0.0
 40
0.0
 40
0.0
 40
0.2585755892
 40
0.5115881547
 40
0.7587845531
 40
1.0
 40
1.0
 40
1.0
 40
1.0
 10
13.7379634094
 20
18.3943103525
 30
0.0
 10
13.7292833526
 20
18.4114897401
 30
0.0
 10
13.7110979603
 20
18.444978512
 30
0.0
 10
13.6810672072
 20
18.4928569123
 30
0.0
 10
13.6487189181
 20
18.5376254598
 30
0.0
 10
13.6254189225
 20
18.5655658318
 30
0.0
 10
13.6134122336
 20
18.5789259578
 30
0.0
  0
SPLINE
  5
32B
100
AcDbEntity
  8
0
100
AcDbSpline
 62
7
  6
BYLAYER
 70
0
 71
3
 72
11
 73
7
 74
0
 42
0.0000001
 43
0.0000001
 44
0.0000000001
 40
0.0
 40
0.0
 40
0.0
 40
0.0
 40
0.227097084
 40
0.4652595717
 40
0.7220200391
 40
1.0
 40
1.0
 40
1.0
 40
1.0
 10
13.2199678131
 20
18.796534287
 30
0.0
 10
13.2702245157
 20
18.796534287
 30
0.0
 10
13.3738708302
 20
18.7792178639
 30
0.0
 10
13.5175712462
 20
18.7044480487
 30
0.0
 10
13.6439132586
 20
18.5865755558
 30
0.0
 10
13.7103568936
 20
18.4874093725
 30
0.0
 10
13.7396086754
 20
18.433292018
 30
0.0
  0
SPLINE
  5
32C
100
AcDbEntity
  8
0
100
AcDbSpline
 62
7
  6
BYLAYER
 70
0
 71
3
 72
12
 73
8
 74
0
 42
0.0000001
 43
0.0000001
 44
0.0000000001
 40
0.0
 40
0.0
 40
0.0
 40
0.0
 40
0.232335608
 40
0.4505447217
 40
0.6499084491
 40
0.8307244761
 40
1.0
 40
1.0
 40
1.0
 40
1.0
 10
12.5722534359
 20
18.000208959
 30
0.0
 10
12.5807995364
 20
18.086246593
 30
0.0
 10
12.6141561671
 20
18.2520287246
 30
0.0
 10
12.7127837447
 20
18.4751454814
 30
0.0
 10
12.8526636872
 20
18.652143412
 30
0.0
 10
13.0254788371
 20
18.7685857319
 30
0.0
 10
13.1569738671
 20
18.796534287
 30
0.0
 10
13.2199678131
 20
18.796534287
 30
0.0
  0
SPLINE
  5
32D
100
AcDbEntity
  8
0
100
AcDbSpline
 62
7
  6
BYLAYER
 70
0
 71
3
 72
13
 73
9
 74
0
 42
0.0000001
 43
0.0000001
 44
0.0000000001
 40
0.0
 40
0.0
 40
0.0
 40
0.0
 40
0.1370643981
 40
0.2834434111
 40
0.4446409707
 40
0.6208235697
 40
0.8080842835
 40
1.0
 40
1.0
 40
1.0
 40
1.0
 10
13.2199678131
 20
16.946534287
 30
0.0
 10
13.1572024307
 20
16.946534287
 30
0.0
 10
13.0262039922
 20
16.9742663155
 30
0.0
 10
12.8539043148
 20
17.0898777393
 30
0.0
 10
12.7142985288
 20
17.2655534373
 30
0.0
 10
12.6155943948
 20
17.4869558704
 30
0.0
 10
12.5639618256
 20
17.7377356677
 30
0.0
 10
12.5635667597
 20
17.9127560834
 30
0.0
 10
12.5722534359
 20
18.000208959
 30
0.0
  0
SPLINE
  5
32E
100
AcDbEntity
  8
0
100
AcDbSpline
 62
7
  6
BYLAYER
 70
0
 71
3
 72
12
 73
8
 74
0
 42
0.0000001
 43
0.0000001
 44
0.0000000001
 40
0.0
 40
0.0
 40
0.0
 40
0.0
 40
0.232335608
 40
0.4505447217
 40
0.6499084491
 40
0.8307244761
 40
1.0
 40
1.0
 40
1.0
 40
1.0
 10
13.8676821902
 20
17.742859615
 30
0.0
 10
13.8591360897
 20
17.656821981
 30
0.0
 10
13.825779459
 20
17.4910398494
 30
0.0
 10
13.7271518814
 20
17.2679230926
 30
0.0
 10
13.587271939
 20
17.0909251621
 30
0.0
 10
13.414456789
 20
16.9744828421
 30
0.0
 10
13.282961759
 20
16.946534287
 30
0.0
 10
13.2199678131
 20
16.946534287
 30
0.0
  0
SPLINE
  5
32F
100
AcDbEntity
  8
0
100
AcDbSpline
 62
7
  6
BYLAYER
 70
0
 71
3
 72
24
 73
20
 74
0
 42
0.0000001
 43
0.0000001
 44
0.0000000001
 40
0.0
 40
0.0
 40
0.0
 40
0.0
 40
0.090078301
 40
0.1571442154
 40
0.2005922971
 40
0.2201696776
 40
0.2269122745
 40
0.2561757954
 40
0.3048760009
 40
0.3657338653
 40
0.4321391345
 40
0.5012586601
 40
0.5724563844
 40
0.6458448844
 40
0.7206270457
 40
0.7944482667
 40
0.8656279451
 40
0.9331482562
 40
1.0
 40
1.0
 40
1.0
 40
1.0
 10
14.2023510053
 20
17.2064158811
 30
0.0
 10
14.2347340395
 20
17.2060394483
 30
0.0
 10
14.2892020078
 20
17.2054073695
 30
0.0
 10
14.3675306151
 20
17.1953072458
 30
0.0
 10
14.4015283422
 20
17.1964931772
 30
0.0
 10
14.4434524874
 20
17.1821269024
 30
0.0
 10
14.4301691298
 20
17.203325154
 30
0.0
 10
14.4037318081
 20
17.2147037912
 30
0.0
 10
14.3659892052
 20
17.2499170714
 30
0.0
 10
14.3192567159
 20
17.291632889
 30
0.0
 10
14.2710464318
 20
17.3436103624
 30
0.0
 10
14.2230965532
 20
17.4003274776
 30
0.0
 10
14.1758094104
 20
17.4609261004
 30
0.0
 10
14.1285500704
 20
17.5240588679
 30
0.0
 10
14.0809705151
 20
17.5881432729
 30
0.0
 10
14.0322150224
 20
17.6503357927
 30
0.0
 10
13.981275201
 20
17.7074628857
 30
0.0
 10
13.922047394
 20
17.7530321527
 30
0.0
 10
13.8760318468
 20
17.7699963016
 30
0.0
 10
13.8527163369
 20
17.7758320309
 30
0.0
  0
SPLINE
  5
330
100
AcDbEntity
  8
0
100
AcDbSpline
 62
7
  6
BYLAYER
 70
0
 71
3
 72
69
 73
65
 74
0
 42
0.0000001
 43
0.0000001
 44
0.0000000001
 40
0.0
 40
0.0
 40
0.0
 40
0.0
 40
0.0868335924
 40
0.1614914357
 40
0.1946543361
 40
0.2253854361
 40
0.2808257699
 40
0.3061741661
 40
0.3303185496
 40
0.3534991821
 40
0.3758661381
 40
0.4185121453
 40
0.4388390502
 40
0.458474479
 40
0.4955289347
 40
0.5128904577
 40
0.5294248789
 40
0.5450995168
 40
0.5598995781
 40
0.573813273
 40
0.5868274834
 40
0.5989311453
 40
0.6101222553
 40
0.6203985022
 40
0.6297553667
 40
0.6381895702
 40
0.6457071417
 40
0.6523202275
 40
0.6580505641
 40
0.6605985654
 40
0.662944601
 40
0.665100309
 40
0.6670815396
 40
0.6706030498
 40
0.6722192776
 40
0.6737926598
 40
0.6753735108
 40
0.6770132278
 40
0.6806442252
 40
0.6827231891
 40
0.6850139248
 40
0.6875393476
 40
0.6903182878
 40
0.6933664822
 40
0.6966972023
 40
0.7042489265
 40
0.7130565656
 40
0.7231895274
 40
0.7287737404
 40
0.7347126831
 40
0.7476828033
 40
0.7621587842
 40
0.7781975536
 40
0.7958558038
 40
0.8151890995
 40
0.8362537772
 40
0.8591097931
 40
0.8838137519
 40
0.9104009317
 40
0.9389001997
 40
0.9538742642
 40
0.9693416171
 40
0.9853625398
 40
1.0
 40
1.0
 40
1.0
 40
1.0
 10
16.645390668
 20
16.7918333645
 30
0.0
 10
16.4872223656
 20
16.8004435358
 30
0.0
 10
16.1926739051
 20
16.8103238291
 30
0.0
 10
15.8374780856
 20
16.8055816759
 30
0.0
 10
15.5850230741
 20
16.7928853591
 30
0.0
 10
15.367951315
 20
16.776284932
 30
0.0
 10
15.1657701019
 20
16.7523975749
 30
0.0
 10
14.9770089126
 20
16.7204238636
 30
0.0
 10
14.8470632067
 20
16.6940576644
 30
0.0
 10
14.7232977312
 20
16.6648915503
 30
0.0
 10
14.5679478497
 20
16.6229928762
 30
0.0
 10
14.4196028924
 20
16.5753055695
 30
0.0
 10
14.2788535601
 20
16.5213766721
 30
0.0
 10
14.1496637573
 20
16.4660940464
 30
0.0
 10
14.0287501298
 20
16.405438242
 30
0.0
 10
13.917035041
 20
16.3400194082
 30
0.0
 10
13.8410405174
 20
16.2909528845
 30
0.0
 10
13.7711532154
 20
16.2412062948
 30
0.0
 10
13.7074329447
 20
16.191191608
 30
0.0
 10
13.6498993905
 20
16.141301211
 30
0.0
 10
13.5985589947
 20
16.0919181422
 30
0.0
 10
13.5534098151
 20
16.043406874
 30
0.0
 10
13.5143289145
 20
15.9962104696
 30
0.0
 10
13.4811659526
 20
15.9507545408
 30
0.0
 10
13.4537635687
 20
15.9074555431
 30
0.0
 10
13.4319566599
 20
15.8667110567
 30
0.0
 10
13.4155544266
 20
15.8288971553
 30
0.0
 10
13.4043574268
 20
15.7943777611
 30
0.0
 10
13.3989869326
 20
15.7676576788
 30
0.0
 10
13.3973684163
 20
15.7483243349
 30
0.0
 10
13.3973893183
 20
15.735447739
 30
0.0
 10
13.3985727343
 20
15.7236534199
 30
0.0
 10
13.4015382245
 20
15.7099890601
 30
0.0
 10
13.406777544
 20
15.6978328826
 30
0.0
 10
13.4145049799
 20
15.6882522215
 30
0.0
 10
13.4212074457
 20
15.6826125609
 30
0.0
 10
13.4289339292
 20
15.6783945423
 30
0.0
 10
13.4409171855
 20
15.6746068647
 30
0.0
 10
13.4545821724
 20
15.6741881027
 30
0.0
 10
13.4689949668
 20
15.6765590693
 30
0.0
 10
13.481121165
 20
15.6800095612
 30
0.0
 10
13.4940270915
 20
15.6850961484
 30
0.0
 10
13.5076978094
 20
15.6918605544
 30
0.0
 10
13.5221029509
 20
15.7003461621
 30
0.0
 10
13.543143444
 20
15.7146226038
 30
0.0
 10
13.5710532109
 20
15.737342174
 30
0.0
 10
13.6057080211
 20
15.7710935252
 30
0.0
 10
13.6353810542
 20
15.8046263361
 30
0.0
 10
13.6601715553
 20
15.8353902226
 30
0.0
 10
13.6871600342
 20
15.8710070454
 30
0.0
 10
13.7218468262
 20
15.9211024527
 30
0.0
 10
13.7637630932
 20
15.9884810609
 30
0.0
 10
13.8068470148
 20
16.0651027956
 30
0.0
 10
13.8508337533
 20
16.1512890513
 30
0.0
 10
13.8954725455
 20
16.2473529551
 30
0.0
 10
13.9405119571
 20
16.353610825
 30
0.0
 10
13.9856656662
 20
16.4703911399
 30
0.0
 10
14.0306432872
 20
16.5979730723
 30
0.0
 10
14.0753779516
 20
16.7364982605
 30
0.0
 10
14.1117528922
 20
16.8590291865
 30
0.0
 10
14.1407694062
 20
16.962561308
 30
0.0
 10
14.1628541062
 20
17.0443913168
 30
0.0
 10
14.1837487835
 20
17.1259050135
 30
0.0
 10
14.1963683823
 20
17.1803929604
 30
0.0
 10
14.2023510053
 20
17.2064158811
 30
0.0
  0
SPLINE
  5
331
100
AcDbEntity
  8
0
100
AcDbSpline
 62
7
  6
BYLAYER
 70
0
 71
3
 72
114
 73
110
 74
0
 42
0.0000001
 43
0.0000001
 44
0.0000000001
 40
0.0
 40
0.0
 40
0.0
 40
0.0
 40
0.0005706956
 40
0.0013778854
 40
0.0018238892
 40
0.0022758417
 40
0.0027172848
 40
0.0031316487
 40
0.0035043069
 40
0.0038273512
 40
0.0040937718
 40
0.0042033764
 40
0.0042958915
 40
0.0043703962
 40
0.0044263791
 40
0.004463355
 40
0.0044807514
 40
0.0045074012
 40
0.004552988
 40
0.004621221
 40
0.0048281697
 40
0.0051301249
 40
0.0055282461
 40
0.006024196
 40
0.0066201304
 40
0.0073186823
 40
0.0090360859
 40
0.0111976575
 40
0.0137925096
 40
0.0168009814
 40
0.0202040911
 40
0.0239835258
 40
0.0281188133
 40
0.0325874743
 40
0.0373659802
 40
0.0424298214
 40
0.0477526023
 40
0.0590644338
 40
0.0649967849
 40
0.0710718374
 40
0.0772541542
 40
0.0834963191
 40
0.0897469615
 40
0.0959509822
 40
0.1020622959
 40
0.1080760111
 40
0.1198155167
 40
0.1311411945
 40
0.1525761489
 40
0.1724537285
 40
0.1908454776
 40
0.2078178331
 40
0.2234222002
 40
0.2377067875
 40
0.2507212841
 40
0.2625151141
 40
0.2731364252
 40
0.2826331177
 40
0.2869751736
 40
0.2910542057
 40
0.2984467442
 40
0.3048618055
 40
0.3103536252
 40
0.3127733978
 40
0.3149868437
 40
0.3170041352
 40
0.3188369815
 40
0.3204993664
 40
0.3220083782
 40
0.3246473949
 40
0.3258428621
 40
0.3269989907
 40
0.3281535709
 40
0.3293431368
 40
0.3319436095
 40
0.3334098302
 40
0.3350070109
 40
0.3367470487
 40
0.3386388573
 40
0.3429012044
 40
0.3478368451
 40
0.3534734394
 40
0.359832981
 40
0.3669366349
 40
0.3748108352
 40
0.3834843028
 40
0.3929871687
 40
0.4033530686
 40
0.414625781
 40
0.4268548776
 40
0.4400936104
 40
0.4698480391
 40
0.4865294587
 40
0.5045239402
 40
0.5239192726
 40
0.5448083785
 40
0.5672835636
 40
0.5914169893
 40
0.6172665222
 40
0.6448437152
 40
0.6741351597
 40
0.7050702778
 40
0.7375576641
 40
0.7714837242
 40
0.8067307859
 40
0.8431831656
 40
0.8807465438
 40
0.9194043242
 40
1.0
 40
1.0
 40
1.0
 40
1.0
 10
12.8265190585
 20
17.1641474373
 30
0.0
 10
12.8249369043
 20
17.1641474264
 30
0.0
 10
12.821118376
 20
17.1643743545
 30
0.0
 10
12.8161024929
 20
17.1650933931
 30
0.0
 10
12.8115069394
 20
17.1662151459
 30
0.0
 10
12.8079538724
 20
17.1673001793
 30
0.0
 10
12.8045469652
 20
17.1685452375
 30
0.0
 10
12.8014170064
 20
17.1698933669
 30
0.0
 10
12.7986778701
 20
17.1713018334
 30
0.0
 10
12.7963879313
 20
17.17267182
 30
0.0
 10
12.7947862563
 20
17.1737675866
 30
0.0
 10
12.7937533025
 20
17.1745522816
 30
0.0
 10
12.7931560713
 20
17.1750405878
 30
0.0
 10
12.7927003685
 20
17.1754407283
 30
0.0
 10
12.7923464765
 20
17.1757849582
 30
0.0
 10
12.7921708556
 20
17.1759585807
 30
0.0
 10
12.7919493185
 20
17.1762157683
 30
0.0
 10
12.7922377307
 20
17.1758739454
 30
0.0
 10
12.7923972138
 20
17.175638973
 30
0.0
 10
12.7929488604
 20
17.1748532721
 30
0.0
 10
12.7937507715
 20
17.1735319462
 30
0.0
 10
12.7949865598
 20
17.1713093122
 30
0.0
 10
12.7964473331
 20
17.1683436628
 30
0.0
 10
12.7981141821
 20
17.1645582756
 30
0.0
 10
12.7999148801
 20
17.1599325917
 30
0.0
 10
12.8026160496
 20
17.1520286443
 30
0.0
 10
12.8059283682
 20
17.1397625298
 30
0.0
 10
12.8092924878
 20
17.1221198419
 30
0.0
 10
12.8120833329
 20
17.1007643288
 30
0.0
 10
12.8140450773
 20
17.0758626987
 30
0.0
 10
12.8149327084
 20
17.0476136295
 30
0.0
 10
12.8145091066
 20
17.0162308936
 30
0.0
 10
12.8127979434
 20
16.9819366676
 30
0.0
 10
12.8098119693
 20
16.944951445
 30
0.0
 10
12.8055685745
 20
16.9055000979
 30
0.0
 10
12.8000878551
 20
16.8638127966
 30
0.0
 10
12.7910662976
 20
16.8043349204
 30
0.0
 10
12.78011003
 20
16.7427278952
 30
0.0
 10
12.7676308346
 20
16.679294608
 30
0.0
 10
12.7572887157
 20
16.6299371611
 30
0.0
 10
12.7461614457
 20
16.5798709508
 30
0.0
 10
12.734364001
 20
16.5294583212
 30
0.0
 10
12.7220230011
 20
16.4791145906
 30
0.0
 10
12.7095209522
 20
16.4291851016
 30
0.0
 10
12.6972104408
 20
16.3798847354
 30
0.0
 10
12.6810371787
 20
16.3157317043
 30
0.0
 10
12.6607102021
 20
16.2377178305
 30
0.0
 10
12.6279931334
 20
16.1187630973
 30
0.0
 10
12.5864828284
 20
15.9788410262
 30
0.0
 10
12.5351002608
 20
15.821477133
 30
0.0
 10
12.4835249483
 20
15.6772537453
 30
0.0
 10
12.4322026772
 20
15.545581127
 30
0.0
 10
12.3813546898
 20
15.4260068709
 30
0.0
 10
12.3312065018
 20
15.3181271746
 30
0.0
 10
12.282018548
 20
15.2215258113
 30
0.0
 10
12.2340515606
 20
15.1357802044
 30
0.0
 10
12.1875530152
 20
15.0604810264
 30
0.0
 10
12.149169454
 20
15.00453839
 30
0.0
 10
12.1193586303
 20
14.9647955837
 30
0.0
 10
12.0920275092
 20
14.9305117191
 30
0.0
 10
12.0593545922
 20
14.8931548662
 30
0.0
 10
12.0212225051
 20
14.855549139
 30
0.0
 10
11.9905212269
 20
14.8302299407
 30
0.0
 10
11.967376905
 20
14.8143189665
 30
0.0
 10
11.9515332387
 20
14.8048615508
 30
0.0
 10
11.9364912545
 20
14.7973169528
 30
0.0
 10
11.9222823773
 20
14.7916380012
 30
0.0
 10
11.908921653
 20
14.7877805689
 30
0.0
 10
11.8930206605
 20
14.785121529
 30
0.0
 10
11.8779160877
 20
14.785583622
 30
0.0
 10
11.8646597478
 20
14.7898071567
 30
0.0
 10
11.8560858193
 20
14.7945213233
 30
0.0
 10
11.8486281654
 20
14.8008283653
 30
0.0
 10
11.8399902244
 20
14.811566313
 30
0.0
 10
11.8341008542
 20
14.8251968166
 30
0.0
 10
11.8307223815
 20
14.8405443566
 30
0.0
 10
11.8293381292
 20
14.8538193219
 30
0.0
 10
11.8292470177
 20
14.8683338348
 30
0.0
 10
11.8309600307
 20
14.8901741584
 30
0.0
 10
11.8368627121
 20
14.9204497696
 30
0.0
 10
11.8493831902
 20
14.9596969236
 30
0.0
 10
11.867945184
 20
15.0028820283
 30
0.0
 10
11.8928762828
 20
15.0496571627
 30
0.0
 10
11.9245215269
 20
15.0996932683
 30
0.0
 10
11.9632416088
 20
15.1526648421
 30
0.0
 10
12.009402104
 20
15.2082628927
 30
0.0
 10
12.0633720313
 20
15.2661841353
 30
0.0
 10
12.1255461284
 20
15.3261410104
 30
0.0
 10
12.1964381695
 20
15.3877657062
 30
0.0
 10
12.2765699797
 20
15.4507115565
 30
0.0
 10
12.4013792904
 20
15.5394533591
 30
0.0
 10
12.5429119248
 20
15.6256144781
 30
0.0
 10
12.7008917212
 20
15.7090337727
 30
0.0
 10
12.8362042854
 20
15.7736433913
 30
0.0
 10
12.9845983477
 20
15.8376400962
 30
0.0
 10
13.1469116627
 20
15.9004220993
 30
0.0
 10
13.3238786429
 20
15.9613693748
 30
0.0
 10
13.5161101341
 20
16.0198193625
 30
0.0
 10
13.7239638595
 20
16.0750441134
 30
0.0
 10
13.9474958968
 20
16.126434976
 30
0.0
 10
14.1864032139
 20
16.1732975681
 30
0.0
 10
14.440032555
 20
16.2152100461
 30
0.0
 10
14.7074740507
 20
16.2516792054
 30
0.0
 10
14.9876995365
 20
16.2820902011
 30
0.0
 10
15.2796005324
 20
16.3058135264
 30
0.0
 10
15.5820997926
 20
16.3222933553
 30
0.0
 10
15.8943842324
 20
16.3309744809
 30
0.0
 10
16.3291629028
 20
16.3321126326
 30
0.0
 10
16.6597374943
 20
16.3210186275
 30
0.0
 10
16.8828446212
 20
16.3088731769
 30
0.0
  0
SPLINE
  5
332
100
AcDbEntity
  8
0
100
AcDbSpline
 62
7
  6
BYLAYER
 70
0
 71
3
 72
104
 73
100
 74
0
 42
0.0000001
 43
0.0000001
 44
0.0000000001
 40
0.0
 40
0.0
 40
0.0
 40
0.0
 40
0.0427013719
 40
0.0756835626
 40
0.0980620368
 40
0.1135678983
 40
0.1255332126
 40
0.1358831315
 40
0.1455793033
 40
0.1549466446
 40
0.1639528842
 40
0.1724410369
 40
0.1802449916
 40
0.1872280875
 40
0.193292665
 40
0.198373178
 40
0.202435664
 40
0.205494648
 40
0.2076161777
 40
0.2089707829
 40
0.2100692239
 40
0.2116091893
 40
0.2138524081
 40
0.2168405022
 40
0.2205675587
 40
0.2250209947
 40
0.2301827683
 40
0.2360472562
 40
0.2426149332
 40
0.2497854427
 40
0.2574835206
 40
0.2655168506
 40
0.2738475641
 40
0.2825331249
 40
0.2916722676
 40
0.3016338463
 40
0.3125050931
 40
0.3242735634
 40
0.3365594645
 40
0.3492551509
 40
0.3623017236
 40
0.3757136637
 40
0.3894639592
 40
0.4035023495
 40
0.4177787914
 40
0.4322243702
 40
0.446757104
 40
0.4612836117
 40
0.4756834224
 40
0.4897854685
 40
0.5033553187
 40
0.5161072702
 40
0.5277075201
 40
0.5377587555
 40
0.5457345857
 40
0.5509870827
 40
0.5527500747
 40
0.5555994285
 40
0.5642000317
 40
0.5781472644
 40
0.5948522431
 40
0.6130794246
 40
0.632119662
 40
0.6515178161
 40
0.6709407529
 40
0.6901015114
 40
0.7088600015
 40
0.7271312471
 40
0.7448055686
 40
0.7618126647
 40
0.7781026483
 40
0.7936534949
 40
0.8084511041
 40
0.8224976502
 40
0.8358017798
 40
0.8483805269
 40
0.8602553104
 40
0.8714508245
 40
0.8819951239
 40
0.8919177081
 40
0.9012489539
 40
0.910019785
 40
0.9182610519
 40
0.9260032075
 40
0.9332760763
 40
0.9401087242
 40
0.9465292266
 40
0.9525645847
 40
0.9582403752
 40
0.9635808763
 40
0.9686128332
 40
0.9733611892
 40
0.9778597103
 40
0.9821566454
 40
0.9862383927
 40
0.9901330111
 40
0.9937759368
 40
0.9971190653
 40
1.0
 40
1.0
 40
1.0
 40
1.0
 10
13.9487321942
 20
15.5567501958
 30
0.0
 10
13.9439041913
 20
15.4986695448
 30
0.0
 10
13.9236885821
 20
15.3963196742
 30
0.0
 10
13.8699677804
 20
15.2724545711
 30
0.0
 10
13.8088463562
 20
15.1956975918
 30
0.0
 10
13.7502245668
 20
15.1583216007
 30
0.0
 10
13.6981446552
 20
15.1488950766
 30
0.0
 10
13.6544723218
 20
15.1576013835
 30
0.0
 10
13.6187662475
 20
15.176872177
 30
0.0
 10
13.5896290701
 20
15.2020837276
 30
0.0
 10
13.5660589784
 20
15.2303226278
 30
0.0
 10
13.5473772686
 20
15.2594464004
 30
0.0
 10
13.5330360291
 20
15.2878459882
 30
0.0
 10
13.5225526261
 20
15.3143444927
 30
0.0
 10
13.5154655655
 20
15.3380796808
 30
0.0
 10
13.5113524789
 20
15.3584665272
 30
0.0
 10
13.5097339052
 20
15.3750483828
 30
0.0
 10
13.51025851
 20
15.3877839427
 30
0.0
 10
13.5122357324
 20
15.3963722741
 30
0.0
 10
13.5161077259
 20
15.4021168057
 30
0.0
 10
13.5222830654
 20
15.4018951821
 30
0.0
 10
13.5271173309
 20
15.3968487066
 30
0.0
 10
13.531841471
 20
15.3889606447
 30
0.0
 10
13.5361646637
 20
15.3774273541
 30
0.0
 10
13.5398029252
 20
15.362615602
 30
0.0
 10
13.542390034
 20
15.344557667
 30
0.0
 10
13.5436129386
 20
15.3234455852
 30
0.0
 10
13.5431647117
 20
15.2994143267
 30
0.0
 10
13.5407778293
 20
15.2727456213
 30
0.0
 10
13.5362513388
 20
15.2438203906
 30
0.0
 10
13.5295165981
 20
15.2132776536
 30
0.0
 10
13.5206085259
 20
15.1816504641
 30
0.0
 10
13.5096163064
 20
15.1492614851
 30
0.0
 10
13.4965061849
 20
15.1160435938
 30
0.0
 10
13.4809791237
 20
15.0814300699
 30
0.0
 10
13.4625964824
 20
15.0448711388
 30
0.0
 10
13.4408895722
 20
15.0060133738
 30
0.0
 10
13.4158768286
 20
14.9654179944
 30
0.0
 10
13.3878224302
 20
14.9238228304
 30
0.0
 10
13.3571360047
 20
14.8819476346
 30
0.0
 10
13.3239803303
 20
14.8400229088
 30
0.0
 10
13.2884879915
 20
14.798153132
 30
0.0
 10
13.2507789052
 20
14.756426303
 30
0.0
 10
13.2110364953
 20
14.7149818546
 30
0.0
 10
13.1694911144
 20
14.6739835615
 30
0.0
 10
13.1264128447
 20
14.6336071597
 30
0.0
 10
13.0821251868
 20
14.5940477462
 30
0.0
 10
13.0370102727
 20
14.5555326971
 30
0.0
 10
12.9915671504
 20
14.5183241788
 30
0.0
 10
12.9464739157
 20
14.4827797659
 30
0.0
 10
12.9025702056
 20
14.4493238334
 30
0.0
 10
12.8610587455
 20
14.4185419473
 30
0.0
 10
12.8227608521
 20
14.3909274153
 30
0.0
 10
12.7905162137
 20
14.3678285976
 30
0.0
 10
12.7624267316
 20
14.3490390997
 30
0.0
 10
12.7492613203
 20
14.3390002998
 30
0.0
 10
12.7319802379
 20
14.3298995708
 30
0.0
 10
12.7547217022
 20
14.3511764159
 30
0.0
 10
12.7718647778
 20
14.3676275451
 30
0.0
 10
12.8147583065
 20
14.4087107066
 30
0.0
 10
12.8600774716
 20
14.454719055
 30
0.0
 10
12.9111025608
 20
14.5087753699
 30
0.0
 10
12.9627098046
 20
14.5661306469
 30
0.0
 10
13.0143489405
 20
14.625956642
 30
0.0
 10
13.0648946468
 20
14.6868349065
 30
0.0
 10
13.1138620216
 20
14.7478961473
 30
0.0
 10
13.1609376836
 20
14.8084413716
 30
0.0
 10
13.2059849372
 20
14.8679863636
 30
0.0
 10
13.2489189853
 20
14.9261255731
 30
0.0
 10
13.289681163
 20
14.9825023339
 30
0.0
 10
13.3282755255
 20
15.0368665714
 30
0.0
 10
13.364743555
 20
15.0890396996
 30
0.0
 10
13.3991556622
 20
15.1389125072
 30
0.0
 10
13.4315941049
 20
15.1864206008
 30
0.0
 10
13.4621547929
 20
15.2315432251
 30
0.0
 10
13.4909373684
 20
15.2742898501
 30
0.0
 10
13.5180415879
 20
15.3146969051
 30
0.0
 10
13.5435681865
 20
15.3528186169
 30
0.0
 10
13.5676169234
 20
15.3887232828
 30
0.0
 10
13.5902857903
 20
15.4224897005
 30
0.0
 10
13.6116704978
 20
15.4542027681
 30
0.0
 10
13.6318634108
 20
15.4839516043
 30
0.0
 10
13.6509532791
 20
15.5118275525
 30
0.0
 10
13.6690251218
 20
15.5379222499
 30
0.0
 10
13.6861604086
 20
15.5623262966
 30
0.0
 10
13.7024372885
 20
15.5851280247
 30
0.0
 10
13.7179309128
 20
15.6064124117
 30
0.0
 10
13.7327135761
 20
15.6262596979
 30
0.0
 10
13.7468551534
 20
15.6447443073
 30
0.0
 10
13.7604268202
 20
15.661937738
 30
0.0
 10
13.7735019639
 20
15.6779066543
 30
0.0
 10
13.7861666985
 20
15.6927212562
 30
0.0
 10
13.7985341695
 20
15.7064631475
 30
0.0
 10
13.8106950157
 20
15.7191569564
 30
0.0
 10
13.8227482256
 20
15.7307973976
 30
0.0
 10
13.8346929024
 20
15.7412414236
 30
0.0
 10
13.8464912064
 20
15.7502830933
 30
0.0
 10
13.8578535712
 20
15.757547581
 30
0.0
 10
13.8654964398
 20
15.7613166341
 30
0.0
 10
13.8691422755
 20
15.7627893365
 30
0.0
  0
SPLINE
  5
333
100
AcDbEntity
  8
0
100
AcDbSpline
 62
7
  6
BYLAYER
 70
0
 71
3
 72
38
 73
34
 74
0
 42
0.0000001
 43
0.0000001
 44
0.0000000001
 40
0.0
 40
0.0
 40
0.0
 40
0.0
 40
0.0481431938
 40
0.1009609547
 40
0.1581294061
 40
0.2180734041
 40
0.2746680004
 40
0.3216570636
 40
0.3585238586
 40
0.3883990084
 40
0.4128386707
 40
0.4332268937
 40
0.450815497
 40
0.4667126661
 40
0.4819535259
 40
0.4973944049
 40
0.5136141645
 40
0.5307615826
 40
0.5488312108
 40
0.5679903271
 40
0.588730507
 40
0.6119038021
 40
0.6379428012
 40
0.6664225316
 40
0.6969245824
 40
0.7292380697
 40
0.7633105221
 40
0.7991279101
 40
0.8367122821
 40
0.875959333
 40
0.9165947729
 40
0.9582541971
 40
1.0
 40
1.0
 40
1.0
 40
1.0
 10
13.0965161566
 20
18.2546812817
 30
0.0
 10
13.0786584649
 20
18.2208310701
 30
0.0
 10
13.0444845054
 20
18.148084869
 30
0.0
 10
13.0001312432
 20
18.0303540821
 30
0.0
 10
12.9609327931
 20
17.9009902211
 30
0.0
 10
12.9284376989
 20
17.7667072312
 30
0.0
 10
12.9046760878
 20
17.6388324116
 30
0.0
 10
12.8906094515
 20
17.5279963486
 30
0.0
 10
12.8853750808
 20
17.4376543295
 30
0.0
 10
12.8872012138
 20
17.3650891265
 30
0.0
 10
12.894944196
 20
17.3060703587
 30
0.0
 10
12.9080528096
 20
17.2580166175
 30
0.0
 10
12.9263616976
 20
17.2190118972
 30
0.0
 10
12.9499053753
 20
17.1878640502
 30
0.0
 10
12.9784216836
 20
17.1637906838
 30
0.0
 10
13.0114140927
 20
17.14595318
 30
0.0
 10
13.0483153376
 20
17.1335024391
 30
0.0
 10
13.0885162689
 20
17.1255757973
 30
0.0
 10
13.1315825346
 20
17.1213349943
 30
0.0
 10
13.1776752717
 20
17.1200645931
 30
0.0
 10
13.2278165367
 20
17.1212981611
 30
0.0
 10
13.2833244933
 20
17.1248152936
 30
0.0
 10
13.3448341353
 20
17.1304531169
 30
0.0
 10
13.4120126828
 20
17.1379031275
 30
0.0
 10
13.4840532355
 20
17.1467074603
 30
0.0
 10
13.560464232
 20
17.1563889669
 30
0.0
 10
13.6410799682
 20
17.1665016521
 30
0.0
 10
13.7259167097
 20
17.1766239671
 30
0.0
 10
13.8149479718
 20
17.1862826239
 30
0.0
 10
13.9079359727
 20
17.1948995609
 30
0.0
 10
14.0043224923
 20
17.2017623447
 30
0.0
 10
14.1028467911
 20
17.2061099692
 30
0.0
 10
14.1691670647
 20
17.2068016239
 30
0.0
 10
14.2023510053
 20
17.2064158811
 30
0.0
  0
SPLINE
  5
334
100
AcDbEntity
  8
0
100
AcDbSpline
 62
7
  6
BYLAYER
 70
0
 71
3
 72
13
 73
9
 74
0
 42
0.0000001
 43
0.0000001
 44
0.0000000001
 40
0.0
 40
0.0
 40
0.0
 40
0.0
 40
0.1069048853
 40
0.2141471527
 40
0.3600723828
 40
0.5482805753
 40
0.7670990531
 40
1.0
 40
1.0
 40
1.0
 40
1.0
 10
13.7965294387
 20
18.5617829155
 30
0.0
 10
13.7894184467
 20
18.5945887011
 30
0.0
 10
13.7593724362
 20
18.6616928892
 30
0.0
 10
13.6437397112
 20
18.7028979008
 30
0.0
 10
13.5051306098
 20
18.6685986333
 30
0.0
 10
13.3536149436
 20
18.5811737998
 30
0.0
 10
13.2082193168
 20
18.4393899317
 30
0.0
 10
13.1306386158
 20
18.3193622317
 30
0.0
 10
13.0965161566
 20
18.2546812817
 30
0.0
  0
SPLINE
  5
335
100
AcDbEntity
  8
0
100
AcDbSpline
 62
7
  6
BYLAYER
 70
0
 71
3
 72
20
 73
16
 74
0
 42
0.0000001
 43
0.0000001
 44
0.0000000001
 40
0.0
 40
0.0
 40
0.0
 40
0.0
 40
0.0432722231
 40
0.0929898912
 40
0.1499409576
 40
0.2141720838
 40
0.2854924173
 40
0.3643416122
 40
0.4503376173
 40
0.5423985074
 40
0.6360125071
 40
0.7269749817
 40
0.8144130433
 40
0.9031990852
 40
1.0
 40
1.0
 40
1.0
 40
1.0
 10
12.6741476958
 20
17.4087672521
 30
0.0
 10
12.662117689
 20
17.437120483
 30
0.0
 10
12.6393838545
 20
17.4993791783
 30
0.0
 10
12.6107290366
 20
17.6023199459
 30
0.0
 10
12.5901508507
 20
17.7224355792
 30
0.0
 10
12.5809009885
 20
17.8593967793
 30
0.0
 10
12.5879916439
 20
18.0122019573
 30
0.0
 10
12.6171228896
 20
18.1782869176
 30
0.0
 10
12.6755979182
 20
18.35241906
 30
0.0
 10
12.7706020944
 20
18.5224616053
 30
0.0
 10
12.9065067211
 20
18.6684043927
 30
0.0
 10
13.0803241118
 20
18.7633464648
 30
0.0
 10
13.2754584384
 20
18.7817490831
 30
0.0
 10
13.464085259
 20
18.716966727
 30
0.0
 10
13.5673497851
 20
18.6301649355
 30
0.0
 10
13.6134122336
 20
18.5789259578
 30
0.0
  0
SPLINE
  5
336
100
AcDbEntity
  8
0
100
AcDbSpline
 62
7
  6
BYLAYER
 70
0
 71
3
 72
107
 73
103
 74
0
 42
0.0000001
 43
0.0000001
 44
0.0000000001
 40
0.0
 40
0.0
 40
0.0
 40
0.0
 40
0.0809010016
 40
0.1197052254
 40
0.1574108976
 40
0.1940013594
 40
0.2293819351
 40
0.2634365043
 40
0.29604695
 40
0.3270992486
 40
0.3565016494
 40
0.3841833072
 40
0.4101307629
 40
0.434355613
 40
0.456915943
 40
0.4778841875
 40
0.4973530017
 40
0.5154156599
 40
0.5321602831
 40
0.5620274518
 40
0.5753163479
 40
0.5875917831
 40
0.5989072109
 40
0.6093123908
 40
0.6188512668
 40
0.6275576021
 40
0.6354616416
 40
0.6425922151
 40
0.6489758566
 40
0.6546338113
 40
0.6595881562
 40
0.6638666562
 40
0.6657656341
 40
0.6675122661
 40
0.6691154997
 40
0.6705872769
 40
0.6731976049
 40
0.674391679
 40
0.6755506349
 40
0.6767111451
 40
0.6779111429
 40
0.6805601612
 40
0.682074892
 40
0.6837435772
 40
0.6855833698
 40
0.6876083067
 40
0.6898301415
 40
0.6922590849
 40
0.6977717187
 40
0.7042110933
 40
0.7116316502
 40
0.7157261424
 40
0.7200846554
 40
0.7296173421
 40
0.7402789107
 40
0.7521174429
 40
0.7651812693
 40
0.7795200015
 40
0.7951835171
 40
0.8122202076
 40
0.8306816734
 40
0.850634603
 40
0.8721508119
 40
0.8835194228
 40
0.8953034303
 40
0.9013399424
 40
0.9074744233
 40
0.9137019631
 40
0.9199763013
 40
0.9262421294
 40
0.9324478821
 40
0.9385459637
 40
0.9445008027
 40
0.9558555143
 40
0.9611984724
 40
0.9662815094
 40
0.9710781297
 40
0.9755637305
 40
0.9797146942
 40
0.9835084563
 40
0.9869244669
 40
0.989944344
 40
0.9925490336
 40
0.9947188005
 40
0.996442716
 40
0.9971439168
 40
0.9977421113
 40
0.9982399422
 40
0.9986395736
 40
0.9989426747
 40
0.9991504089
 40
0.9992189012
 40
0.9992646614
 40
0.9992914134
 40
0.9993088751
 40
0.9993459906
 40
0.9994021851
 40
0.9994769716
 40
0.9995787635
 40
0.9997007268
 40
0.9998415584
 40
1.0
 40
1.0
 40
1.0
 40
1.0
 10
16.8828436596
 20
16.3088631171
 30
0.0
 10
16.6597367988
 20
16.3210085532
 30
0.0
 10
16.3291626189
 20
16.3321025451
 30
0.0
 10
15.8943845115
 20
16.330964395
 30
0.0
 10
15.5821005238
 20
16.3222832822
 30
0.0
 10
15.2796017268
 20
16.3058034795
 30
0.0
 10
14.9877011963
 20
16.2820801927
 30
0.0
 10
14.7074761667
 20
16.2516692471
 30
0.0
 10
14.440035107
 20
16.2152001472
 30
0.0
 10
14.1864061721
 20
16.1732877358
 30
0.0
 10
13.9474992239
 20
16.1264252154
 30
0.0
 10
13.7239675145
 20
16.0750344276
 30
0.0
 10
13.5161140749
 20
16.0198097523
 30
0.0
 10
13.3238828283
 20
15.9613598387
 30
0.0
 10
13.146916054
 20
15.900412634
 30
0.0
 10
12.9846029092
 20
15.8376306965
 30
0.0
 10
12.8362089851
 20
15.7736340511
 30
0.0
 10
12.7008965313
 20
15.7090244846
 30
0.0
 10
12.5429168385
 20
15.6256052443
 30
0.0
 10
12.4013842831
 20
15.5394441735
 30
0.0
 10
12.2765750315
 20
15.4507024127
 30
0.0
 10
12.1964432501
 20
15.3877565846
 30
0.0
 10
12.1255512297
 20
15.3261319066
 30
0.0
 10
12.0633771467
 20
15.266175045
 30
0.0
 10
12.0094072285
 20
15.208253812
 30
0.0
 10
11.9632467386
 20
15.1526557678
 30
0.0
 10
11.9245266593
 20
15.0996841978
 30
0.0
 10
11.8928814161
 20
15.0496480936
 30
0.0
 10
11.8679503176
 20
15.0028729589
 30
0.0
 10
11.8493883239
 20
14.9596878526
 30
0.0
 10
11.8368678459
 20
14.9204406958
 30
0.0
 10
11.8309651651
 20
14.8901650819
 30
0.0
 10
11.8292521528
 20
14.8683247557
 30
0.0
 10
11.829343265
 20
14.8538102408
 30
0.0
 10
11.8307275183
 20
14.8405352735
 30
0.0
 10
11.8341059924
 20
14.8251877307
 30
0.0
 10
11.8399953647
 20
14.8115572246
 30
0.0
 10
11.8486333084
 20
14.8008192747
 30
0.0
 10
11.8560909645
 20
14.7945122313
 30
0.0
 10
11.8646648956
 20
14.7897980635
 30
0.0
 10
11.8779212397
 20
14.7855745276
 30
0.0
 10
11.8930258174
 20
14.7851124345
 30
0.0
 10
11.9089268152
 20
14.7877714752
 30
0.0
 10
11.9222875441
 20
14.7916289088
 30
0.0
 10
11.9364964265
 20
14.7973078624
 30
0.0
 10
11.9515384164
 20
14.8048524632
 30
0.0
 10
11.9673820889
 20
14.8143098826
 30
0.0
 10
11.9905264205
 20
14.8302208634
 30
0.0
 10
12.0212277125
 20
14.8555400733
 30
0.0
 10
12.0593598177
 20
14.8931458191
 30
0.0
 10
12.0920327513
 20
14.9305026918
 30
0.0
 10
12.1193638871
 20
14.9647865756
 30
0.0
 10
12.1491747284
 20
15.0045294063
 30
0.0
 10
12.1875583139
 20
15.0604720794
 30
0.0
 10
12.2340568908
 20
15.1357713099
 30
0.0
 10
12.2820239137
 20
15.2215169817
 30
0.0
 10
12.3312119073
 20
15.3181184239
 30
0.0
 10
12.3813601394
 20
15.4259982151
 30
0.0
 10
12.4322081754
 20
15.5455725844
 30
0.0
 10
12.4835304999
 20
15.677245336
 30
0.0
 10
12.5351058709
 20
15.8214688788
 30
0.0
 10
12.586488499
 20
15.9788329503
 30
0.0
 10
12.6279988525
 20
16.1187551853
 30
0.0
 10
12.6607159578
 20
16.2377100619
 30
0.0
 10
12.6810429562
 20
16.3157240318
 30
0.0
 10
12.6972162363
 20
16.3798771436
 30
0.0
 10
12.7095267637
 20
16.4291775741
 30
0.0
 10
12.7220288325
 20
16.4791071295
 30
0.0
 10
12.7343698525
 20
16.5294509271
 30
0.0
 10
12.7461673138
 20
16.5798636222
 30
0.0
 10
12.7572945972
 20
16.6299298952
 30
0.0
 10
12.7676367268
 20
16.6792874017
 30
0.0
 10
12.7801159341
 20
16.7427207637
 30
0.0
 10
12.7910722133
 20
16.8043278609
 30
0.0
 10
12.8000937814
 20
16.8638058068
 30
0.0
 10
12.8055745078
 20
16.9054931577
 30
0.0
 10
12.8098179088
 20
16.9449445525
 30
0.0
 10
12.8128038878
 20
16.9819298209
 30
0.0
 10
12.8145150543
 20
17.0162240907
 30
0.0
 10
12.8149386573
 20
17.047606868
 30
0.0
 10
12.8140510249
 20
17.0758559761
 30
0.0
 10
12.8120892772
 20
17.1007576429
 30
0.0
 10
12.8092984268
 20
17.1221131902
 30
0.0
 10
12.8059343005
 20
17.1397559098
 30
0.0
 10
12.8026219751
 20
17.1520220494
 30
0.0
 10
12.7999207997
 20
17.1599260155
 30
0.0
 10
12.798120097
 20
17.1645517125
 30
0.0
 10
12.7964532427
 20
17.1683371121
 30
0.0
 10
12.7949924642
 20
17.1713027728
 30
0.0
 10
12.7937566696
 20
17.1735254178
 30
0.0
 10
12.7929547541
 20
17.174846751
 30
0.0
 10
12.7924031017
 20
17.1756324593
 30
0.0
 10
12.7922436171
 20
17.1758674343
 30
0.0
 10
12.7919551955
 20
17.1762092672
 30
0.0
 10
12.7921767282
 20
17.1759520835
 30
0.0
 10
12.7923523504
 20
17.175778459
 30
0.0
 10
12.7927062199
 20
17.1754342526
 30
0.0
 10
12.7931801986
 20
17.1750180422
 30
0.0
 10
12.7938235414
 20
17.1744941505
 30
0.0
 10
12.7946268441
 20
17.1738895707
 30
0.0
 10
12.7955801469
 20
17.1732213105
 30
0.0
 10
12.796272614
 20
17.1727699415
 30
0.0
 10
12.7966429726
 20
17.1725368694
 30
0.0
  0
SPLINE
  5
337
100
AcDbEntity
  8
0
100
AcDbSpline
 62
7
  6
BYLAYER
 70
0
 71
3
 72
11
 73
7
 74
0
 42
0.0000001
 43
0.0000001
 44
0.0000000001
 40
0.0
 40
0.0
 40
0.0
 40
0.0
 40
0.2398993547
 40
0.4865965224
 40
0.7400109775
 40
1.0
 40
1.0
 40
1.0
 40
1.0
 10
13.7965294461
 20
18.5617829042
 30
0.0
 10
13.7820842042
 20
18.5646830954
 30
0.0
 10
13.7526259777
 20
18.5697369114
 30
0.0
 10
13.7074814159
 20
18.5750593604
 30
0.0
 10
13.6609034834
 20
18.5782409717
 30
0.0
 10
13.6293753367
 20
18.5789243847
 30
0.0
 10
13.6134122399
 20
18.5789259508
 30
0.0
  0
SPLINE
  5
338
100
AcDbEntity
  8
0
100
AcDbSpline
 62
7
  6
BYLAYER
 70
0
 71
3
 72
14
 73
10
 74
0
 42
0.0000001
 43
0.0000001
 44
0.0000000001
 40
0.0
 40
0.0
 40
0.0
 40
0.0
 40
0.1600536446
 40
0.2906371566
 40
0.4176808977
 40
0.5503730221
 40
0.6899556286
 40
0.8396177911
 40
1.0
 40
1.0
 40
1.0
 40
1.0
 10
13.7379634094
 20
18.3943103525
 30
0.0
 10
13.7478630475
 20
18.3977272006
 30
0.0
 10
13.7655637941
 20
18.4053559954
 30
0.0
 10
13.785964006
 20
18.4246593406
 30
0.0
 10
13.795951745
 20
18.4486737714
 30
0.0
 10
13.801033223
 20
18.4743452368
 30
0.0
 10
13.8029459828
 20
18.5019618151
 30
0.0
 10
13.8017574268
 20
18.5314039446
 30
0.0
 10
13.7987525411
 20
18.5515268755
 30
0.0
 10
13.7965294398
 20
18.5617829112
 30
0.0
  0
SPLINE
  5
339
100
AcDbEntity
  8
0
100
AcDbSpline
 62
7
  6
BYLAYER
 70
0
 71
3
 72
44
 73
40
 74
0
 42
0.0000001
 43
0.0000001
 44
0.0000000001
 40
0.0
 40
0.0
 40
0.0
 40
0.0
 40
0.0937196962
 40
0.1886612347
 40
0.2812571724
 40
0.3255997127
 40
0.3680708036
 40
0.4082623164
 40
0.4458270167
 40
0.4804357152
 40
0.5117652819
 40
0.5395259995
 40
0.5635358326
 40
0.5740933546
 40
0.5836682361
 40
0.592254001
 40
0.5998524836
 40
0.6064820972
 40
0.6121946554
 40
0.6170787419
 40
0.6212787416
 40
0.6250225679
 40
0.6286294206
 40
0.6324564784
 40
0.636810173
 40
0.6419028813
 40
0.6478569525
 40
0.6547385626
 40
0.6625825926
 40
0.6714056592
 40
0.6812133552
 40
0.7037697137
 40
0.7301747353
 40
0.7602089991
 40
0.7936066293
 40
0.8300900655
 40
0.8693583183
 40
0.9110329425
 40
1.0
 40
1.0
 40
1.0
 40
1.0
 10
16.645390668
 20
16.7918333645
 30
0.0
 10
16.6398696003
 20
16.7340712663
 30
0.0
 10
16.6306408995
 20
16.6176075447
 30
0.0
 10
16.6219442084
 20
16.4436656656
 30
0.0
 10
16.6190816574
 20
16.3001022696
 30
0.0
 10
16.6196019412
 20
16.1890198387
 30
0.0
 10
16.6213600705
 20
16.1104011594
 30
0.0
 10
16.6244922522
 20
16.0360245899
 30
0.0
 10
16.6289457378
 20
15.9665915226
 30
0.0
 10
16.6346642788
 20
15.9027568723
 30
0.0
 10
16.6415869942
 20
15.8451470883
 30
0.0
 10
16.6496728646
 20
15.7943224461
 30
0.0
 10
16.6575797338
 20
15.7565261414
 30
0.0
 10
16.6645665103
 20
15.7300979847
 30
0.0
 10
16.6698121132
 20
15.7131025802
 30
0.0
 10
16.675276254
 20
15.6981106518
 30
0.0
 10
16.6809480981
 20
15.6851613476
 30
0.0
 10
16.6868252295
 20
15.674283475
 30
0.0
 10
16.6928994966
 20
15.6654831884
 30
0.0
 10
16.6991823576
 20
15.658755517
 30
0.0
 10
16.7057166878
 20
15.6541143121
 30
0.0
 10
16.7125525867
 20
15.6516595538
 30
0.0
 10
16.7196012592
 20
15.65155783
 30
0.0
 10
16.7266554323
 20
15.6538032421
 30
0.0
 10
16.7336469691
 20
15.658246793
 30
0.0
 10
16.740618441
 20
15.6648098218
 30
0.0
 10
16.7476138151
 20
15.6734593054
 30
0.0
 10
16.7546421227
 20
15.6841802024
 30
0.0
 10
16.7616955062
 20
15.696952524
 30
0.0
 10
16.7687605079
 20
15.711751777
 30
0.0
 10
16.778638614
 20
15.7352695117
 30
0.0
 10
16.7906875807
 20
15.7696354624
 30
0.0
 10
16.804331654
 20
15.8166186664
 30
0.0
 10
16.8176407471
 20
15.8706375506
 30
0.0
 10
16.8304788984
 20
15.9311608891
 30
0.0
 10
16.8427058912
 20
15.9976312092
 30
0.0
 10
16.854181122
 20
16.06942894
 30
0.0
 10
16.8686736302
 20
16.1736284548
 30
0.0
 10
16.8776036116
 20
16.2540402569
 30
0.0
 10
16.8828446212
 20
16.3088731769
 30
0.0
  0
SPLINE
  5
33A
100
AcDbEntity
  8
0
100
AcDbSpline
 62
7
  6
BYLAYER
 70
0
 71
3
 72
44
 73
40
 74
0
 42
0.0000001
 43
0.0000001
 44
0.0000000001
 40
0.0
 40
0.0
 40
0.0
 40
0.0
 40
0.0937206159
 40
0.1886631229
 40
0.281259308
 40
0.3256019668
 40
0.3680731712
 40
0.4082647914
 40
0.4458295921
 40
0.480438383
 40
0.5117680335
 40
0.5395288253
 40
0.5635387225
 40
0.5740962727
 40
0.5836711798
 40
0.5922569676
 40
0.5998554705
 40
0.6064851019
 40
0.6121976753
 40
0.6170817749
 40
0.6212817858
 40
0.6250256221
 40
0.6286324845
 40
0.6324595525
 40
0.6368132587
 40
0.6419059807
 40
0.6478600677
 40
0.6547416962
 40
0.6625857471
 40
0.6714088374
 40
0.6812165596
 40
0.7037729783
 40
0.7301780705
 40
0.7602124145
 40
0.793610134
 40
0.8300936677
 40
0.8693611309
 40
0.9110348746
 40
1.0
 40
1.0
 40
1.0
 40
1.0
 10
16.8828436596
 20
16.3088631171
 30
0.0
 10
16.8883647949
 20
16.366625625
 30
0.0
 10
16.8975936015
 20
16.4830901984
 30
0.0
 10
16.906290355
 20
16.6570329328
 30
0.0
 10
16.9091529149
 20
16.8005967713
 30
0.0
 10
16.9086326311
 20
16.9116792022
 30
0.0
 10
16.9068745017
 20
16.9902978815
 30
0.0
 10
16.9037423201
 20
17.064674451
 30
0.0
 10
16.8992888345
 20
17.1341075183
 30
0.0
 10
16.8935702934
 20
17.1979421686
 30
0.0
 10
16.8866475781
 20
17.2555519526
 30
0.0
 10
16.8785617077
 20
17.3063765948
 30
0.0
 10
16.8706548385
 20
17.3441728995
 30
0.0
 10
16.8636680619
 20
17.3706010562
 30
0.0
 10
16.858422459
 20
17.3875964607
 30
0.0
 10
16.8529583182
 20
17.4025883891
 30
0.0
 10
16.8472864741
 20
17.4155376933
 30
0.0
 10
16.8414093427
 20
17.4264155659
 30
0.0
 10
16.8353350756
 20
17.4352158525
 30
0.0
 10
16.8290522146
 20
17.4419435239
 30
0.0
 10
16.8225178844
 20
17.4465847288
 30
0.0
 10
16.8156819855
 20
17.4490394871
 30
0.0
 10
16.8086333131
 20
17.4491412109
 30
0.0
 10
16.8015791399
 20
17.4468957988
 30
0.0
 10
16.7945876032
 20
17.4424522479
 30
0.0
 10
16.7876161312
 20
17.4358892191
 30
0.0
 10
16.7806207571
 20
17.4272397355
 30
0.0
 10
16.7735924495
 20
17.4165188385
 30
0.0
 10
16.7665390661
 20
17.4037465169
 30
0.0
 10
16.7594740643
 20
17.3889472639
 30
0.0
 10
16.7495959583
 20
17.3654295292
 30
0.0
 10
16.7375469915
 20
17.3310635785
 30
0.0
 10
16.7239029183
 20
17.2840803745
 30
0.0
 10
16.7105938251
 20
17.2300614903
 30
0.0
 10
16.6977556739
 20
17.1695381518
 30
0.0
 10
16.6855287812
 20
17.1030683764
 30
0.0
 10
16.6740537153
 20
17.0312718024
 30
0.0
 10
16.6595614848
 20
16.9270747849
 30
0.0
 10
16.6506316279
 20
16.8466649398
 30
0.0
 10
16.645390668
 20
16.7918333645
 30
0.0
  0
SPLINE
  5
33B
100
AcDbEntity
  8
0
100
AcDbSpline
 62
7
  6
BYLAYER
 70
0
 71
3
 72
11
 73
7
 74
0
 42
0.0000001
 43
0.0000001
 44
0.0000000001
 40
0.0
 40
0.0
 40
0.0
 40
0.0
 40
0.4696056024
 40
0.6512511003
 40
0.7044422174
 40
1.0
 40
1.0
 40
1.0
 40
1.0
 10
14.9433836452
 20
16.4939612616
 30
0.0
 10
14.949868786
 20
16.5101687218
 30
0.0
 10
14.9573653084
 20
16.5328386741
 30
0.0
 10
14.9546090849
 20
16.5616421322
 30
0.0
 10
14.9387573772
 20
16.5744831107
 30
0.0
 10
14.9240847201
 20
16.5715591586
 30
0.0
 10
14.9130978746
 20
16.5715576997
 30
0.0
  0
SPLINE
  5
33C
100
AcDbEntity
  8
0
100
AcDbSpline
 62
7
  6
BYLAYER
 70
0
 71
3
 72
18
 73
14
 74
0
 42
0.0000001
 43
0.0000001
 44
0.0000000001
 40
0.0
 40
0.0
 40
0.0
 40
0.0
 40
0.05272445
 40
0.1190859613
 40
0.1959365878
 40
0.2800831301
 40
0.3679576679
 40
0.4568488973
 40
0.5475816487
 40
0.6435765142
 40
0.7487584223
 40
0.8662265935
 40
1.0
 40
1.0
 40
1.0
 40
1.0
 10
14.9821143698
 20
17.1213423166
 30
0.0
 10
14.9734948379
 20
17.113883319
 30
0.0
 10
14.9576135204
 20
17.0930836168
 30
0.0
 10
14.9386006134
 20
17.0551542968
 30
0.0
 10
14.9224942496
 20
17.0085662986
 30
0.0
 10
14.910208313
 20
16.9561111485
 30
0.0
 10
14.9022457945
 20
16.9001965041
 30
0.0
 10
14.8987774427
 20
16.8424099661
 30
0.0
 10
14.8996744711
 20
16.7827797461
 30
0.0
 10
14.9047616344
 20
16.7198377441
 30
0.0
 10
14.9140191943
 20
16.651547591
 30
0.0
 10
14.9273265122
 20
16.5756372969
 30
0.0
 10
14.9377861081
 20
16.5223356807
 30
0.0
 10
14.9433836452
 20
16.4939612616
 30
0.0
  0
SPLINE
  5
33D
100
AcDbEntity
  8
0
100
AcDbSpline
 62
7
  6
BYLAYER
 70
0
 71
3
 72
24
 73
20
 74
0
 42
0.0000001
 43
0.0000001
 44
0.0000000001
 40
0.0
 40
0.0
 40
0.0
 40
0.0
 40
0.0371369883
 40
0.0862125728
 40
0.1479808472
 40
0.2223040746
 40
0.3077976623
 40
0.4011871457
 40
0.4962436027
 40
0.5852726464
 40
0.6674575188
 40
0.744299792
 40
0.814472621
 40
0.8750401423
 40
0.9224109753
 40
0.9550154468
 40
0.9746994988
 40
0.9863992291
 40
1.0
 40
1.0
 40
1.0
 40
1.0
 10
13.8691422755
 20
15.7627893365
 30
0.0
 10
13.8802098195
 20
15.7834152447
 30
0.0
 10
13.9092817927
 20
15.8294768466
 30
0.0
 10
13.9661384466
 20
15.9035343865
 30
0.0
 10
14.0445205558
 20
15.9901767295
 30
0.0
 10
14.1457955174
 20
16.0865314907
 30
0.0
 10
14.268764282
 20
16.1884234348
 30
0.0
 10
14.406842872
 20
16.2921290882
 30
0.0
 10
14.5477100054
 20
16.3957774643
 30
0.0
 10
14.6790961055
 20
16.5003520507
 30
0.0
 10
14.7934377513
 20
16.6073646521
 30
0.0
 10
14.8875207519
 20
16.7174139482
 30
0.0
 10
14.9596964976
 20
16.8271171647
 30
0.0
 10
15.0076639103
 20
16.9287983023
 30
0.0
 10
15.0331523823
 20
17.0147210146
 30
0.0
 10
15.0374336357
 20
17.0768433317
 30
0.0
 10
15.0316941857
 20
17.1190882502
 30
0.0
 10
15.0042725592
 20
17.1375901886
 30
0.0
 10
14.9885968186
 20
17.1269519611
 30
0.0
 10
14.9821143698
 20
17.1213423166
 30
0.0
  0
SPLINE
  5
33E
100
AcDbEntity
  8
0
100
AcDbSpline
 62
7
  6
BYLAYER
 70
0
 71
3
 72
22
 73
18
 74
0
 42
0.0000001
 43
0.0000001
 44
0.0000000001
 40
0.0
 40
0.0
 40
0.0
 40
0.0
 40
0.1290989936
 40
0.2209483933
 40
0.2897968952
 40
0.3430917582
 40
0.3853496051
 40
0.4193076731
 40
0.446735133
 40
0.4808520308
 40
0.5145444974
 40
0.551791468
 40
0.6081544453
 40
0.6909807324
 40
0.789688312
 40
0.8924230983
 40
1.0
 40
1.0
 40
1.0
 40
1.0
 10
14.0127485737
 20
15.6923760222
 30
0.0
 10
14.0178147671
 20
15.7076567775
 30
0.0
 10
14.0254199573
 20
15.7341869527
 30
0.0
 10
14.0323229283
 20
15.7697009937
 30
0.0
 10
14.0351347438
 20
15.796271019
 30
0.0
 10
14.0354326864
 20
15.816802621
 30
0.0
 10
14.0339491736
 20
15.8329173098
 30
0.0
 10
14.0310933166
 20
15.8455776601
 30
0.0
 10
14.0265962735
 20
15.8566461187
 30
0.0
 10
14.0193486646
 20
15.8664388076
 30
0.0
 10
14.0070875475
 20
15.8724884462
 30
0.0
 10
13.9907730031
 20
15.8719111558
 30
0.0
 10
13.9700961466
 20
15.8636113752
 30
0.0
 10
13.9455581583
 20
15.8466734027
 30
0.0
 10
13.9193583267
 20
15.8226936483
 30
0.0
 10
13.8934082887
 20
15.7941564501
 30
0.0
 10
13.8771384235
 20
15.7735606196
 30
0.0
 10
13.8691422755
 20
15.7627893365
 30
0.0
  0
SPLINE
  5
33F
100
AcDbEntity
  8
0
100
AcDbSpline
 62
7
  6
BYLAYER
 70
0
 71
3
 72
12
 73
8
 74
0
 42
0.0000001
 43
0.0000001
 44
0.0000000001
 40
0.0
 40
0.0
 40
0.0
 40
0.0
 40
0.20565004
 40
0.4079836071
 40
0.6069379449
 40
0.8038573726
 40
1.0
 40
1.0
 40
1.0
 40
1.0
 10
13.9487321942
 20
15.5567501958
 30
0.0
 10
13.9542672739
 20
15.5654422682
 30
0.0
 10
13.9647406334
 20
15.5830139146
 30
0.0
 10
13.9789360157
 20
15.6099233763
 30
0.0
 10
13.9916499272
 20
15.637081026
 30
0.0
 10
14.0029866334
 20
15.664504911
 30
0.0
 10
14.009655611
 20
15.6830469655
 30
0.0
 10
14.0127485737
 20
15.6923760222
 30
0.0
  0
SPLINE
  5
340
100
AcDbEntity
  8
0
100
AcDbSpline
 62
7
  6
BYLAYER
 70
0
 71
3
 72
10
 73
6
 74
0
 42
0.0000001
 43
0.0000001
 44
0.0000000001
 40
0.0
 40
0.0
 40
0.0
 40
0.0
 40
0.3191977508
 40
0.6565845037
 40
1.0
 40
1.0
 40
1.0
 40
1.0
 10
14.8297694981
 20
14.569163898
 30
0.0
 10
14.8224464507
 20
14.5974010289
 30
0.0
 10
14.8053374986
 20
14.6549733538
 30
0.0
 10
14.7733163832
 20
14.7406410563
 30
0.0
 10
14.7474792632
 20
14.7973086547
 30
0.0
 10
14.7334646389
 20
14.8253902773
 30
0.0
  0
SPLINE
  5
341
100
AcDbEntity
  8
0
100
AcDbSpline
 62
7
  6
BYLAYER
 70
0
 71
3
 72
22
 73
18
 74
0
 42
0.0000001
 43
0.0000001
 44
0.0000000001
 40
0.0
 40
0.0
 40
0.0
 40
0.0
 40
0.04099227
 40
0.0828118078
 40
0.1253270102
 40
0.168403026
 40
0.2556809787
 40
0.3435168999
 40
0.4308270109
 40
0.5167933411
 40
0.6007275547
 40
0.6822490346
 40
0.7610770105
 40
0.8370587958
 40
0.9100783942
 40
0.9800451543
 40
1.0
 40
1.0
 40
1.0
 40
1.0
 10
17.1439702675
 20
14.5886545287
 30
0.0
 10
17.1126192848
 20
14.5933042186
 30
0.0
 10
17.0491806209
 20
14.6019734681
 30
0.0
 10
16.9529189137
 20
14.6130868295
 30
0.0
 10
16.8548614661
 20
14.6225258341
 30
0.0
 10
16.7216165158
 20
14.6330022885
 30
0.0
 10
16.5531454883
 20
14.642133085
 30
0.0
 10
16.3502986221
 20
14.647310211
 30
0.0
 10
16.1484041035
 20
14.6471435271
 30
0.0
 10
15.9495857954
 20
14.6425588353
 30
0.0
 10
15.7553627045
 20
14.634478306
 30
0.0
 10
15.5667898785
 20
14.6239280576
 30
0.0
 10
15.3844667886
 20
14.6119335471
 30
0.0
 10
15.2087941202
 20
14.5990677323
 30
0.0
 10
15.0400162178
 20
14.5858920409
 30
0.0
 10
14.9144405552
 20
14.5758696833
 30
0.0
 10
14.8451330036
 20
14.5704232991
 30
0.0
 10
14.8297521928
 20
14.5692210883
 30
0.0
  0
SPLINE
  5
342
100
AcDbEntity
  8
0
100
AcDbSpline
 62
7
  6
BYLAYER
 70
0
 71
3
 72
10
 73
6
 74
0
 42
0.0000001
 43
0.0000001
 44
0.0000000001
 40
0.0
 40
0.0
 40
0.0
 40
0.0
 40
0.3423401572
 40
0.6740164327
 40
1.0
 40
1.0
 40
1.0
 40
1.0
 10
15.2145334887
 20
17.858308303
 30
0.0
 10
15.2408405915
 20
17.8741010519
 30
0.0
 10
15.29528278
 20
17.9010838309
 30
0.0
 10
15.3817959652
 20
17.9261993717
 30
0.0
 10
15.4408918986
 20
17.9318466362
 30
0.0
 10
15.4701093385
 20
17.9318466362
 30
0.0
  0
SPLINE
  5
343
100
AcDbEntity
  8
0
100
AcDbSpline
 62
7
  6
BYLAYER
 70
0
 71
3
 72
23
 73
19
 74
0
 42
0.0000001
 43
0.0000001
 44
0.0000000001
 40
0.0
 40
0.0
 40
0.0
 40
0.0
 40
0.0776369292
 40
0.1531934698
 40
0.2264916902
 40
0.2974057568
 40
0.365906899
 40
0.4320946138
 40
0.496146533
 40
0.5583238452
 40
0.6190047757
 40
0.6786791067
 40
0.7378723603
 40
0.7971369237
 40
0.8465033156
 40
0.896606851
 40
0.9477007272
 40
1.0
 40
1.0
 40
1.0
 40
1.0
 10
16.0271208024
 20
17.4421355727
 30
0.0
 10
16.0171704832
 20
17.4675805403
 30
0.0
 10
15.995577097
 20
17.5170551453
 30
0.0
 10
15.9577274431
 20
17.5873052983
 30
0.0
 10
15.915224214
 20
17.6520450661
 30
0.0
 10
15.8684348489
 20
17.7106293174
 30
0.0
 10
15.8177154864
 20
17.7624160381
 30
0.0
 10
15.7636165639
 20
17.8069674962
 30
0.0
 10
15.706663156
 20
17.8438838459
 30
0.0
 10
15.6473675134
 20
17.8727616375
 30
0.0
 10
15.5862595355
 20
17.8931736503
 30
0.0
 10
15.5239920003
 20
17.9050066313
 30
0.0
 10
15.4611855141
 20
17.9081790447
 30
0.0
 10
15.4021593592
 20
17.9029346456
 30
0.0
 10
15.3474789511
 20
17.8909600375
 30
0.0
 10
15.2971862475
 20
17.8739475462
 30
0.0
 10
15.2480546762
 20
17.8512725874
 30
0.0
 10
15.2166730925
 20
17.8327192336
 30
0.0
 10
15.2013003039
 20
17.8225971026
 30
0.0
  0
SPLINE
  5
344
100
AcDbEntity
  8
0
100
AcDbSpline
 62
7
  6
BYLAYER
 70
0
 71
3
 72
38
 73
34
 74
0
 42
0.0000001
 43
0.0000001
 44
0.0000000001
 40
0.0
 40
0.0
 40
0.0
 40
0.0
 40
0.0337319152
 40
0.0665599373
 40
0.0984067578
 40
0.1292177045
 40
0.1589802768
 40
0.1877377046
 40
0.2155671658
 40
0.2425821424
 40
0.2689469668
 40
0.2948744409
 40
0.3205928952
 40
0.3463423323
 40
0.3723718024
 40
0.3989077591
 40
0.4261364437
 40
0.454210998
 40
0.4832521999
 40
0.5133197702
 40
0.5764822589
 40
0.6095809118
 40
0.6435638417
 40
0.6783107879
 40
0.7136876529
 40
0.749551668
 40
0.7857399985
 40
0.8220771735
 40
0.8583855475
 40
0.8944937042
 40
0.9302382549
 40
0.9654579738
 40
1.0
 40
1.0
 40
1.0
 40
1.0
 10
14.9130978746
 20
16.5715576997
 30
0.0
 10
14.9230481937
 20
16.5461127321
 30
0.0
 10
14.94464158
 20
16.496638127
 30
0.0
 10
14.9824912338
 20
16.4263879741
 30
0.0
 10
15.024994463
 20
16.3616482063
 30
0.0
 10
15.0717838279
 20
16.303063955
 30
0.0
 10
15.122503191
 20
16.2512772345
 30
0.0
 10
15.1766021113
 20
16.2067257755
 30
0.0
 10
15.2335555275
 20
16.1698094288
 30
0.0
 10
15.2928511403
 20
16.1409316267
 30
0.0
 10
15.3539592256
 20
16.1205196517
 30
0.0
 10
15.4162263694
 20
16.1086865327
 30
0.0
 10
15.4790343007
 20
16.105514629
 30
0.0
 10
15.5417630588
 20
16.1110865721
 30
0.0
 10
15.6037484836
 20
16.1254643969
 30
0.0
 10
15.6643834329
 20
16.1483552389
 30
0.0
 10
15.7231009978
 20
16.1794768091
 30
0.0
 10
15.7793287671
 20
16.2185519475
 30
0.0
 10
15.8324712085
 20
16.2652764048
 30
0.0
 10
15.8997074863
 20
16.3381831607
 30
0.0
 10
15.957654495
 20
16.4233554095
 30
0.0
 10
16.0054041809
 20
16.5175099505
 30
0.0
 10
16.0366695592
 20
16.5939357875
 30
0.0
 10
16.0625330536
 20
16.6742761061
 30
0.0
 10
16.082728212
 20
16.7577950906
 30
0.0
 10
16.0969743146
 20
16.8437113493
 30
0.0
 10
16.1052274315
 20
16.9311861927
 30
0.0
 10
16.1074381485
 20
17.0193808685
 30
0.0
 10
16.1035554048
 20
17.1074548908
 30
0.0
 10
16.0935266533
 20
17.1945606544
 30
0.0
 10
16.0775337831
 20
17.2798725869
 30
0.0
 10
16.055765616
 20
17.3625940733
 30
0.0
 10
16.0373035539
 20
17.4160487732
 30
0.0
 10
16.0271255496
 20
17.4421234229
 30
0.0
  0
SPLINE
  5
345
100
AcDbEntity
  8
0
100
AcDbSpline
 62
7
  6
BYLAYER
 70
0
 71
3
 72
17
 73
13
 74
0
 42
0.0000001
 43
0.0000001
 44
0.0000000001
 40
0.0
 40
0.0
 40
0.0
 40
0.0
 40
0.0804882881
 40
0.1620634037
 40
0.2670229277
 40
0.3729315924
 40
0.4792758651
 40
0.5855358488
 40
0.6912140084
 40
0.7958279377
 40
0.8989057385
 40
1.0
 40
1.0
 40
1.0
 40
1.0
 10
14.8930168864
 20
17.3861007774
 30
0.0
 10
14.886059512
 20
17.3649335388
 30
0.0
 10
14.873321844
 20
17.3219026208
 30
0.0
 10
14.8564961954
 20
17.2498994886
 30
0.0
 10
14.8432441479
 20
17.169981344
 30
0.0
 10
14.8349913034
 20
17.0825072362
 30
0.0
 10
14.8327805129
 20
16.9943123618
 30
0.0
 10
14.8366633267
 20
16.90623725
 30
0.0
 10
14.8466924517
 20
16.8191292341
 30
0.0
 10
14.8626862935
 20
16.7338140904
 30
0.0
 10
14.8844558678
 20
16.6510896527
 30
0.0
 10
14.9029191754
 20
16.5976331693
 30
0.0
 10
14.9130978746
 20
16.5715576997
 30
0.0
  0
SPLINE
  5
346
100
AcDbEntity
  8
0
100
AcDbSpline
 62
7
  6
BYLAYER
 70
0
 71
3
 72
14
 73
10
 74
0
 42
0.0000001
 43
0.0000001
 44
0.0000000001
 40
0.0
 40
0.0
 40
0.0
 40
0.0
 40
0.1160333708
 40
0.239346409
 40
0.3746095711
 40
0.5221334055
 40
0.6789722299
 40
0.8401952328
 40
1.0
 40
1.0
 40
1.0
 40
1.0
 10
15.4701093385
 20
16.0818466362
 30
0.0
 10
15.4078377613
 20
16.0818466362
 30
0.0
 10
15.2782092422
 20
16.1090564603
 30
0.0
 10
15.1075666634
 20
16.2222965601
 30
0.0
 10
14.9689150073
 20
16.394030319
 30
0.0
 10
14.8698585597
 20
16.6104295953
 30
0.0
 10
14.8162184409
 20
16.8562788489
 30
0.0
 10
14.8118499175
 20
17.1142462503
 30
0.0
 10
14.8431600805
 20
17.2851518954
 30
0.0
 10
14.8677442296
 20
17.3673151523
 30
0.0
  0
SPLINE
  5
347
100
AcDbEntity
  8
0
100
AcDbSpline
 62
7
  6
BYLAYER
 70
0
 71
3
 72
10
 73
6
 74
0
 42
0.0000001
 43
0.0000001
 44
0.0000000001
 40
0.0
 40
0.0
 40
0.0
 40
0.0
 40
0.3423401572
 40
0.6740164327
 40
1.0
 40
1.0
 40
1.0
 40
1.0
 10
15.7256851883
 20
16.1553849694
 30
0.0
 10
15.6993780855
 20
16.1395922205
 30
0.0
 10
15.644935897
 20
16.1126094415
 30
0.0
 10
15.5584227117
 20
16.0874939007
 30
0.0
 10
15.4993267784
 20
16.0818466362
 30
0.0
 10
15.4701093385
 20
16.0818466362
 30
0.0
  0
SPLINE
  5
348
100
AcDbEntity
  8
0
100
AcDbSpline
 62
7
  6
BYLAYER
 70
0
 71
3
 72
17
 73
13
 74
0
 42
0.0000001
 43
0.0000001
 44
0.0000000001
 40
0.0
 40
0.0
 40
0.0
 40
0.0
 40
0.0818491356
 40
0.1687303789
 40
0.2637934895
 40
0.3672574296
 40
0.477105401
 40
0.5899656029
 40
0.7019000357
 40
0.8091361968
 40
0.9088383288
 40
1.0
 40
1.0
 40
1.0
 40
1.0
 10
15.4701093385
 20
17.9318466362
 30
0.0
 10
15.5307632644
 20
17.9318466362
 30
0.0
 10
15.6569075729
 20
17.9061087088
 30
0.0
 10
15.8242404761
 20
17.7983775294
 30
0.0
 10
15.9617020825
 20
17.6341819556
 30
0.0
 10
16.0618782946
 20
17.4266181316
 30
0.0
 10
16.1193082378
 20
17.1901583554
 30
0.0
 10
16.130481391
 20
16.9409202076
 30
0.0
 10
16.0946206441
 20
16.6959398847
 30
0.0
 10
16.0136064118
 20
16.4720088812
 30
0.0
 10
15.8922407927
 20
16.2849077118
 30
0.0
 10
15.7836048239
 20
16.1901554369
 30
0.0
 10
15.7256851883
 20
16.1553849694
 30
0.0
  0
SPLINE
  5
349
100
AcDbEntity
  8
0
100
AcDbSpline
 62
7
  6
BYLAYER
 70
0
 71
3
 72
44
 73
40
 74
0
 42
0.0000001
 43
0.0000001
 44
0.0000000001
 40
0.0
 40
0.0
 40
0.0
 40
0.0
 40
0.0331912317
 40
0.0686553523
 40
0.1052089067
 40
0.1423387745
 40
0.1796082027
 40
0.2180331184
 40
0.2593881124
 40
0.3053222165
 40
0.3557286092
 40
0.4087948056
 40
0.461341547
 40
0.5097069263
 40
0.5505862936
 40
0.5830009068
 40
0.6076657099
 40
0.6263830859
 40
0.6409515361
 40
0.6530344765
 40
0.6646238735
 40
0.6776270333
 40
0.6933744441
 40
0.712891217
 40
0.7365547565
 40
0.7623816003
 40
0.7860932842
 40
0.8040247235
 40
0.8146922496
 40
0.8181059562
 40
0.824715684
 40
0.8377027258
 40
0.8553129538
 40
0.8762105864
 40
0.899386768
 40
0.9238867939
 40
0.9489929466
 40
0.974407633
 40
1.0
 40
1.0
 40
1.0
 40
1.0
 10
14.9433836452
 20
16.4939612616
 30
0.0
 10
14.9501183397
 20
16.4598224892
 30
0.0
 10
14.9641465547
 20
16.3892259933
 30
0.0
 10
14.9832991359
 20
16.2805849991
 30
0.0
 10
14.9982346977
 20
16.1670809686
 30
0.0
 10
15.0060834905
 20
16.0509286428
 30
0.0
 10
15.0050317089
 20
15.9325227908
 30
0.0
 10
14.9937777417
 20
15.8101926543
 30
0.0
 10
14.9718445512
 20
15.6801439657
 30
0.0
 10
14.9408362581
 20
15.5391391307
 30
0.0
 10
14.9055450536
 20
15.3865378532
 30
0.0
 10
14.8742807096
 20
15.2259061716
 30
0.0
 10
14.8558022204
 20
15.0652803282
 30
0.0
 10
14.8563981204
 20
14.9161583312
 30
0.0
 10
14.876085522
 20
14.7895861678
 30
0.0
 10
14.9073994674
 20
14.6914346841
 30
0.0
 10
14.9400688163
 20
14.6188860868
 30
0.0
 10
14.9683306849
 20
14.5651184011
 30
0.0
 10
14.9897317115
 20
14.5225968309
 30
0.0
 10
15.0013510998
 20
14.4837980611
 30
0.0
 10
15.0013467735
 20
14.4448466786
 30
0.0
 10
14.9911818595
 20
14.4035404047
 30
0.0
 10
14.9721524887
 20
14.3565575945
 30
0.0
 10
14.9441714612
 20
14.3014334322
 30
0.0
 10
14.9080863479
 20
14.238687839
 30
0.0
 10
14.8692284064
 20
14.1726390443
 30
0.0
 10
14.8323010959
 20
14.1118879992
 30
0.0
 10
14.8130284713
 20
14.0606971586
 30
0.0
 10
14.7947196813
 20
14.0315531863
 30
0.0
 10
14.8054539317
 20
14.0050291251
 30
0.0
 10
14.8243053288
 20
14.0388058151
 30
0.0
 10
14.8362535582
 20
14.0667751276
 30
0.0
 10
14.8519547978
 20
14.1224857353
 30
0.0
 10
14.8621244062
 20
14.1851272144
 30
0.0
 10
14.867543106
 20
14.2573084548
 30
0.0
 10
14.8669050221
 20
14.3335694261
 30
0.0
 10
14.860438936
 20
14.4120537962
 30
0.0
 10
14.8482597574
 20
14.4909680392
 30
0.0
 10
14.8364902798
 20
14.5431806451
 30
0.0
 10
14.8297550046
 20
14.5691517969
 30
0.0
  0
SPLINE
  5
34A
100
AcDbEntity
  8
0
100
AcDbSpline
 62
7
  6
BYLAYER
 70
0
 71
3
 72
85
 73
81
 74
0
 42
0.0000001
 43
0.0000001
 44
0.0000000001
 40
0.0
 40
0.0
 40
0.0
 40
0.0
 40
0.0064846673
 40
0.0127401223
 40
0.0247703639
 40
0.0365041234
 40
0.0483493665
 40
0.0606641025
 40
0.073638135
 40
0.101781239
 40
0.1167137682
 40
0.1319419261
 40
0.1472102513
 40
0.1622353518
 40
0.1767357525
 40
0.1904655242
 40
0.2031885082
 40
0.2146704471
 40
0.2247045278
 40
0.2331849033
 40
0.2400499754
 40
0.2428768914
 40
0.2453159694
 40
0.2473889351
 40
0.2491286319
 40
0.250588368
 40
0.2518807749
 40
0.2531117915
 40
0.2543319168
 40
0.2555891018
 40
0.256935141
 40
0.260084092
 40
0.2619754368
 40
0.2641278854
 40
0.2665793087
 40
0.2693624749
 40
0.2725070307
 40
0.2760408392
 40
0.279986245
 40
0.2843473824
 40
0.2943080165
 40
0.3058999522
 40
0.3190901761
 40
0.3338304796
 40
0.3500222192
 40
0.3675481838
 40
0.3862863993
 40
0.4061091551
 40
0.4268758351
 40
0.4706624219
 40
0.5165023834
 40
0.5633224437
 40
0.6100927343
 40
0.6331636009
 40
0.655877539
 40
0.6781257897
 40
0.6997830534
 40
0.7207319378
 40
0.7408876225
 40
0.760187087
 40
0.7785313671
 40
0.7958817204
 40
0.8042026486
 40
0.8123220153
 40
0.8202971376
 40
0.8282085802
 40
0.8361704056
 40
0.8443305681
 40
0.8528551908
 40
0.8618877954
 40
0.8715635832
 40
0.8820141078
 40
0.8933555664
 40
0.9056514712
 40
0.9189341165
 40
0.9332193917
 40
0.9485066786
 40
0.9647650297
 40
0.9819477287
 40
1.0
 40
1.0
 40
1.0
 40
1.0
 10
16.3842626407
 20
15.3120395834
 30
0.0
 10
16.3755394057
 20
15.3133343497
 30
0.0
 10
16.3583761027
 20
15.3157077464
 30
0.0
 10
16.3249181351
 20
15.3196338603
 30
0.0
 10
16.284231707
 20
15.3231312998
 30
0.0
 10
16.2358481341
 20
15.325370838
 30
0.0
 10
16.1870376746
 20
15.3261516868
 30
0.0
 10
16.1365364862
 20
15.3260352218
 30
0.0
 10
16.0638847606
 20
15.3246457199
 30
0.0
 10
15.9877146503
 20
15.3214504234
 30
0.0
 10
15.9085923288
 20
15.3163018085
 30
0.0
 10
15.8469856125
 20
15.3116768761
 30
0.0
 10
15.7852779662
 20
15.30673311
 30
0.0
 10
15.7245599602
 20
15.3018295831
 30
0.0
 10
15.6659089807
 20
15.2973258463
 30
0.0
 10
15.6103503525
 20
15.2934535206
 30
0.0
 10
15.5588492979
 20
15.2904366635
 30
0.0
 10
15.5123248587
 20
15.2884872077
 30
0.0
 10
15.4715314348
 20
15.2878235464
 30
0.0
 10
15.4370145124
 20
15.2885088412
 30
0.0
 10
15.4123499502
 20
15.2903536274
 30
0.0
 10
15.3959958628
 20
15.2925562617
 30
0.0
 10
15.386174521
 20
15.2943579031
 30
0.0
 10
15.3779160486
 20
15.2964052859
 30
0.0
 10
15.3711066239
 20
15.2986829098
 30
0.0
 10
15.365544284
 20
15.3012448358
 30
0.0
 10
15.3609372741
 20
15.3041148414
 30
0.0
 10
15.3569069148
 20
15.3072426885
 30
0.0
 10
15.3533650758
 20
15.3108595528
 30
0.0
 10
15.3503594748
 20
15.3151321943
 30
0.0
 10
15.346971223
 20
15.3222189217
 30
0.0
 10
15.3452238118
 20
15.3308707864
 30
0.0
 10
15.3450325837
 20
15.3406586665
 30
0.0
 10
15.3458383616
 20
15.3494742291
 30
0.0
 10
15.3477099669
 20
15.3593559821
 30
0.0
 10
15.3507228041
 20
15.3703562985
 30
0.0
 10
15.3549576531
 20
15.382514996
 30
0.0
 10
15.3604930507
 20
15.3958673937
 30
0.0
 10
15.3673913136
 20
15.4104228283
 30
0.0
 10
15.3789467876
 20
15.4324196584
 30
0.0
 10
15.3970050717
 20
15.4627106102
 30
0.0
 10
15.4232937931
 20
15.5019871445
 30
0.0
 10
15.4550972349
 20
15.5453334752
 30
0.0
 10
15.4923488041
 20
15.5923844053
 30
0.0
 10
15.5346061224
 20
15.6429576236
 30
0.0
 10
15.5814012256
 20
15.6968039588
 30
0.0
 10
15.632243781
 20
15.7536627398
 30
0.0
 10
15.6866294398
 20
15.8132587074
 30
0.0
 10
15.7645856439
 20
15.8974559329
 30
0.0
 10
15.8673651372
 20
16.006882443
 30
0.0
 10
15.9946052198
 20
16.1419413299
 30
0.0
 10
16.1234886188
 20
16.2810208638
 30
0.0
 10
16.2292405445
 20
16.3993112191
 30
0.0
 10
16.3107116962
 20
16.4952635652
 30
0.0
 10
16.369063237
 20
16.5670721527
 30
0.0
 10
16.4243153534
 20
16.638886827
 30
0.0
 10
16.4758056241
 20
16.7105141287
 30
0.0
 10
16.5228686571
 20
16.781752625
 30
0.0
 10
16.5643983636
 20
16.8526843774
 30
0.0
 10
16.5992275644
 20
16.9232494002
 30
0.0
 10
16.625990792
 20
16.9932150286
 30
0.0
 10
16.640531944
 20
17.0515194566
 30
0.0
 10
16.6459614968
 20
17.0972089304
 30
0.0
 10
16.6466918726
 20
17.1304623711
 30
0.0
 10
16.6438365516
 20
17.1630570375
 30
0.0
 10
16.6370191688
 20
17.1948580121
 30
0.0
 10
16.6258608584
 20
17.2256920809
 30
0.0
 10
16.6100005381
 20
17.2553533933
 30
0.0
 10
16.589159606
 20
17.2835851941
 30
0.0
 10
16.5632057786
 20
17.3101570718
 30
0.0
 10
16.532013688
 20
17.334802873
 30
0.0
 10
16.4954718961
 20
17.3572467883
 30
0.0
 10
16.4535468769
 20
17.3772011937
 30
0.0
 10
16.40639966
 20
17.3946295405
 30
0.0
 10
16.3542041617
 20
17.4094477658
 30
0.0
 10
16.2971577477
 20
17.421560362
 30
0.0
 10
16.2354992566
 20
17.4308694043
 30
0.0
 10
16.1695346374
 20
17.4374372535
 30
0.0
 10
16.0995982096
 20
17.4413215129
 30
0.0
 10
16.0516724575
 20
17.4421139034
 30
0.0
 10
16.0271255496
 20
17.4421234229
 30
0.0
  0
SPLINE
  5
34B
100
AcDbEntity
  8
0
100
AcDbSpline
 62
7
  6
BYLAYER
 70
0
 71
3
 72
13
 73
9
 74
0
 42
0.0000001
 43
0.0000001
 44
0.0000000001
 40
0.0
 40
0.0
 40
0.0
 40
0.0
 40
0.1684046386
 40
0.3454494918
 40
0.4993009357
 40
0.6596948496
 40
0.8266211928
 40
1.0
 40
1.0
 40
1.0
 40
1.0
 10
14.9821152828
 20
17.1213434931
 30
0.0
 10
14.9617638367
 20
17.1311506332
 30
0.0
 10
14.9190313782
 20
17.149142066
 30
0.0
 10
14.8550617694
 20
17.1691770408
 30
0.0
 10
14.7907492418
 20
17.1835956686
 30
0.0
 10
14.7269391594
 20
17.1933257805
 30
0.0
 10
14.6600388898
 20
17.1991838899
 30
0.0
 10
14.6144073505
 20
17.2004349159
 30
0.0
 10
14.5911685625
 20
17.2004402558
 30
0.0
  0
SPLINE
  5
34C
100
AcDbEntity
  8
0
100
AcDbSpline
 62
7
  6
BYLAYER
 70
0
 71
3
 72
52
 73
48
 74
0
 42
0.0000001
 43
0.0000001
 44
0.0000000001
 40
0.0
 40
0.0
 40
0.0
 40
0.0
 40
0.0746043852
 40
0.1428376816
 40
0.2048779249
 40
0.2608988213
 40
0.3111458156
 40
0.3561641175
 40
0.3965970973
 40
0.433202121
 40
0.4667558973
 40
0.4979868163
 40
0.5275568436
 40
0.5559048429
 40
0.5833549064
 40
0.6100094371
 40
0.6358816707
 40
0.660860392
 40
0.6848074319
 40
0.707588084
 40
0.729074057
 40
0.7491475262
 40
0.7677196783
 40
0.7847643096
 40
0.8002646822
 40
0.8142016465
 40
0.8265691664
 40
0.8374134739
 40
0.8468098003
 40
0.8548682133
 40
0.8617642989
 40
0.867779806
 40
0.8705898995
 40
0.8733432616
 40
0.8761059171
 40
0.8789435808
 40
0.885063795
 40
0.8921119507
 40
0.9003534539
 40
0.9099688511
 40
0.9210877204
 40
0.9338078996
 40
0.9482120697
 40
0.9643768345
 40
0.9813385395
 40
0.9904534074
 40
1.0
 40
1.0
 40
1.0
 40
1.0
 10
16.6193421921
 20
15.2190765655
 30
0.0
 10
16.5516661907
 20
15.2227675358
 30
0.0
 10
16.4220271169
 20
15.2287403409
 30
0.0
 10
16.2359559804
 20
15.2338120928
 30
0.0
 10
16.0667032466
 20
15.235152603
 30
0.0
 10
15.9137973896
 20
15.2332941042
 30
0.0
 10
15.7764198057
 20
15.2287506006
 30
0.0
 10
15.6533120596
 20
15.2220638638
 30
0.0
 10
15.5427246482
 20
15.2137987634
 30
0.0
 10
15.4427304172
 20
15.2039016727
 30
0.0
 10
15.3513383255
 20
15.1923049415
 30
0.0
 10
15.266661716
 20
15.1788722329
 30
0.0
 10
15.1871209144
 20
15.1635339576
 30
0.0
 10
15.1114834952
 20
15.1463277963
 30
0.0
 10
15.0389949971
 20
15.1273965163
 30
0.0
 10
14.9692872922
 20
15.1068618623
 30
0.0
 10
14.9023628401
 20
15.0849370526
 30
0.0
 10
14.8384990588
 20
15.0616797326
 30
0.0
 10
14.7781203443
 20
15.037179267
 30
0.0
 10
14.7216555366
 20
15.0115962438
 30
0.0
 10
14.6695333497
 20
14.9850905248
 30
0.0
 10
14.6221639812
 20
14.9578186857
 30
0.0
 10
14.5799326426
 20
14.9298937307
 30
0.0
 10
14.5429261425
 20
14.9017794031
 30
0.0
 10
14.5111466451
 20
14.8739136948
 30
0.0
 10
14.4845766273
 20
14.8467164822
 30
0.0
 10
14.4631692486
 20
14.8205605597
 30
0.0
 10
14.4468298651
 20
14.7957750088
 30
0.0
 10
14.4354209544
 20
14.7726453812
 30
0.0
 10
14.4288132637
 20
14.7514103575
 30
0.0
 10
14.4269182638
 20
14.7322914772
 30
0.0
 10
14.4293407686
 20
14.7179759715
 30
0.0
 10
14.4336322529
 20
14.7083202584
 30
0.0
 10
14.4378632696
 20
14.7020032769
 30
0.0
 10
14.4431497426
 20
14.6965045231
 30
0.0
 10
14.4517614729
 20
14.6901633381
 30
0.0
 10
14.4654314077
 20
14.6845688194
 30
0.0
 10
14.4848695097
 20
14.6820202897
 30
0.0
 10
14.5075603451
 20
14.6835474918
 30
0.0
 10
14.5333128291
 20
14.6893979484
 30
0.0
 10
14.5619273517
 20
14.6998390292
 30
0.0
 10
14.5931758941
 20
14.7151514002
 30
0.0
 10
14.6268146848
 20
14.7356167871
 30
0.0
 10
14.6618255239
 20
14.7609619828
 30
0.0
 10
14.6912929009
 20
14.7855897765
 30
0.0
 10
14.7151662095
 20
14.8074459371
 30
0.0
 10
14.7273275069
 20
14.8192617701
 30
0.0
 10
14.7334644455
 20
14.8253909473
 30
0.0
  0
SPLINE
  5
34D
100
AcDbEntity
  8
0
100
AcDbSpline
 62
7
  6
BYLAYER
 70
0
 71
3
 72
92
 73
88
 74
0
 42
0.0000001
 43
0.0000001
 44
0.0000000001
 40
0.0
 40
0.0
 40
0.0
 40
0.0
 40
0.0433772155
 40
0.0856070637
 40
0.1667583718
 40
0.2057247708
 40
0.2435022747
 40
0.2799338644
 40
0.314815255
 40
0.3479332483
 40
0.3790932667
 40
0.4081265059
 40
0.4349527426
 40
0.4595362723
 40
0.481929423
 40
0.5022192279
 40
0.5205416558
 40
0.5370416111
 40
0.5518604829
 40
0.5651348698
 40
0.5769950565
 40
0.5875582982
 40
0.5969159784
 40
0.6051550221
 40
0.6123641794
 40
0.6186303132
 40
0.6240267238
 40
0.6286297182
 40
0.6325287249
 40
0.6342504244
 40
0.6358405199
 40
0.6373187403
 40
0.6387083168
 40
0.6400359546
 40
0.6413311245
 40
0.6426245929
 40
0.6439464827
 40
0.6467761124
 40
0.6483368227
 40
0.650016397
 40
0.6537812548
 40
0.6581584467
 40
0.6632054393
 40
0.6689675515
 40
0.6754833454
 40
0.682787886
 40
0.6909153115
 40
0.6999016236
 40
0.7097844145
 40
0.7206027651
 40
0.7323976846
 40
0.7452131751
 40
0.7590952124
 40
0.7740908108
 40
0.7902474738
 40
0.8076101705
 40
0.8262287261
 40
0.846186522
 40
0.8566961689
 40
0.8675220589
 40
0.878572627
 40
0.8896355878
 40
0.900598966
 40
0.9113587138
 40
0.9218075636
 40
0.9318518705
 40
0.9414037947
 40
0.9503757257
 40
0.9586811499
 40
0.9662367936
 40
0.9729727812
 40
0.9788552103
 40
0.9838667553
 40
0.9860462078
 40
0.9880074183
 40
0.9912852912
 40
0.9937562785
 40
0.9954889977
 40
0.996126203
 40
0.9966353147
 40
0.9973586075
 40
0.9976464225
 40
0.9979346157
 40
0.9982608508
 40
0.9986758755
 40
0.9992362749
 40
1.0
 40
1.0
 40
1.0
 40
1.0
 10
16.9088923809
 20
14.6816224826
 30
0.0
 10
16.8115644112
 20
14.6869398771
 30
0.0
 10
16.6193969677
 20
14.695784995
 30
0.0
 10
16.2448131525
 20
14.7061277194
 30
0.0
 10
15.8798932476
 20
14.7057852165
 30
0.0
 10
15.5252700179
 20
14.6939988693
 30
0.0
 10
15.2713326126
 20
14.6798057212
 30
0.0
 10
15.0269675994
 20
14.6601497846
 30
0.0
 10
14.7935667932
 20
14.635649546
 30
0.0
 10
14.5725889036
 20
14.6069213213
 30
0.0
 10
14.3653896949
 20
14.5746555201
 30
0.0
 10
14.1730185602
 20
14.5394851471
 30
0.0
 10
13.9961751262
 20
14.5019418007
 30
0.0
 10
13.8350774508
 20
14.4624531064
 30
0.0
 10
13.689558816
 20
14.4214582567
 30
0.0
 10
13.559084072
 20
14.379300616
 30
0.0
 10
13.442847726
 20
14.3364752712
 30
0.0
 10
13.3398923703
 20
14.2934557463
 30
0.0
 10
13.2492563385
 20
14.2506431016
 30
0.0
 10
13.1699770274
 20
14.2084393507
 30
0.0
 10
13.1011085108
 20
14.1672480086
 30
0.0
 10
13.0417244275
 20
14.1275217857
 30
0.0
 10
12.9912007641
 20
14.0893606457
 30
0.0
 10
12.9489939548
 20
14.0528826876
 30
0.0
 10
12.9145763249
 20
14.0182196422
 30
0.0
 10
12.8874461338
 20
13.9855450165
 30
0.0
 10
12.8671421915
 20
13.9550533636
 30
0.0
 10
12.8532530518
 20
13.9269752075
 30
0.0
 10
12.8464285229
 20
13.9048871842
 30
0.0
 10
12.8441549841
 20
13.8888133817
 30
0.0
 10
12.843900096
 20
13.8780251791
 30
0.0
 10
12.8449884706
 20
13.8680346583
 30
0.0
 10
12.8473891527
 20
13.8588790488
 30
0.0
 10
12.8510694783
 20
13.8506022939
 30
0.0
 10
12.8559902446
 20
13.843253337
 30
0.0
 10
12.8621052032
 20
13.8368808851
 30
0.0
 10
12.8719871787
 20
13.8295805756
 30
0.0
 10
12.8840545445
 20
13.8246091596
 30
0.0
 10
12.8974345749
 20
13.8218798925
 30
0.0
 10
12.9131495936
 20
13.8205089487
 30
0.0
 10
12.9352977395
 20
13.8220465159
 30
0.0
 10
12.9642678516
 20
13.8287003642
 30
0.0
 10
12.9963700947
 20
13.8404972188
 30
0.0
 10
13.0313472466
 20
13.8577255689
 30
0.0
 10
13.0689490385
 20
13.880680311
 30
0.0
 10
13.1089129546
 20
13.9096559682
 30
0.0
 10
13.1509772535
 20
13.9449507124
 30
0.0
 10
13.1948664099
 20
13.986882891
 30
0.0
 10
13.2403075315
 20
14.0357702716
 30
0.0
 10
13.2870281399
 20
14.0919312905
 30
0.0
 10
13.3347573218
 20
14.155687191
 30
0.0
 10
13.3832167587
 20
14.2273691319
 30
0.0
 10
13.4321299603
 20
14.3073078079
 30
0.0
 10
13.4812238275
 20
14.3958279729
 30
0.0
 10
13.5302210036
 20
14.493242025
 30
0.0
 10
13.5789185504
 20
14.5998247066
 30
0.0
 10
13.6271280757
 20
14.7159367242
 30
0.0
 10
13.6656972196
 20
14.8193000028
 30
0.0
 10
13.6958139073
 20
14.9070672552
 30
0.0
 10
13.7185008696
 20
14.9762143203
 30
0.0
 10
13.740893008
 20
15.046765209
 30
0.0
 10
13.7618248005
 20
15.1180884146
 30
0.0
 10
13.7810809162
 20
15.1892043691
 30
0.0
 10
13.7984110318
 20
15.2593946544
 30
0.0
 10
13.8135680674
 20
15.3279739826
 30
0.0
 10
13.8262208461
 20
15.3943019526
 30
0.0
 10
13.8360386847
 20
15.4577548351
 30
0.0
 10
13.8429926054
 20
15.5176548774
 30
0.0
 10
13.8470591755
 20
15.5733262523
 30
0.0
 10
13.8482262119
 20
15.6241155855
 30
0.0
 10
13.8464549866
 20
15.6694467697
 30
0.0
 10
13.8420421332
 20
15.7088565674
 30
0.0
 10
13.8361591292
 20
15.7376907748
 30
0.0
 10
13.8304395935
 20
15.7574552934
 30
0.0
 10
13.8249103032
 20
15.773188126
 30
0.0
 10
13.8177208484
 20
15.7890088598
 30
0.0
 10
13.8087509125
 20
15.8032891254
 30
0.0
 10
13.8015987477
 20
15.8115596824
 30
0.0
 10
13.7966978377
 20
15.8157988013
 30
0.0
 10
13.7932966996
 20
15.8182635743
 30
0.0
 10
13.7903395362
 20
15.820022525
 30
0.0
 10
13.7875927695
 20
15.8210291423
 30
0.0
 10
13.7856367912
 20
15.8215648437
 30
0.0
 10
13.7833867883
 20
15.8221066486
 30
0.0
 10
13.7804924064
 20
15.8225535656
 30
0.0
 10
13.7765941757
 20
15.8228564701
 30
0.0
 10
13.7736143278
 20
15.8228957846
 30
0.0
 10
13.7719008282
 20
15.8229059517
 30
0.0
  0
SPLINE
  5
34E
100
AcDbEntity
  8
0
100
AcDbSpline
 62
7
  6
BYLAYER
 70
0
 71
3
 72
18
 73
14
 74
0
 42
0.0000001
 43
0.0000001
 44
0.0000000001
 40
0.0
 40
0.0
 40
0.0
 40
0.0
 40
0.0790179774
 40
0.1679953489
 40
0.2640295655
 40
0.3634687318
 40
0.4627699123
 40
0.5604247187
 40
0.6561917234
 40
0.7487786621
 40
0.8372085792
 40
0.9210058057
 40
1.0
 40
1.0
 40
1.0
 40
1.0
 10
13.9487321942
 20
15.5567501958
 30
0.0
 10
13.9740947983
 20
15.5431741789
 30
0.0
 10
14.0283772745
 20
15.514987399
 30
0.0
 10
14.1121653442
 20
15.4678266971
 30
0.0
 10
14.2001860465
 20
15.4131920727
 30
0.0
 10
14.2881658866
 20
15.3516220402
 30
0.0
 10
14.3724628226
 20
15.2841340562
 30
0.0
 10
14.4511826593
 20
15.2121848156
 30
0.0
 10
14.5231815909
 20
15.1368468406
 30
0.0
 10
14.5875532488
 20
15.0592146237
 30
0.0
 10
14.6439367248
 20
14.9809230537
 30
0.0
 10
14.6924429153
 20
14.9033138284
 30
0.0
 10
14.7206221343
 20
14.8511229598
 30
0.0
 10
14.7334642957
 20
14.8253906704
 30
0.0
  0
SPLINE
  5
34F
100
AcDbEntity
  8
0
100
AcDbSpline
 62
7
  6
BYLAYER
 70
0
 71
3
 72
16
 73
12
 74
0
 42
0.0000001
 43
0.0000001
 44
0.0000000001
 40
0.0
 40
0.0
 40
0.0
 40
0.0
 40
0.1069963393
 40
0.2224208924
 40
0.3436656775
 40
0.4669969967
 40
0.5883404448
 40
0.7039574177
 40
0.8111949836
 40
0.9092592036
 40
1.0
 40
1.0
 40
1.0
 40
1.0
 10
13.7903100545
 20
15.7703824804
 30
0.0
 10
13.7422189343
 20
15.8211440043
 30
0.0
 10
13.6571289128
 20
15.9412416489
 30
0.0
 10
13.5713731096
 20
16.1504615015
 30
0.0
 10
13.5263849259
 20
16.3828701192
 30
0.0
 10
13.5248337267
 20
16.6233330092
 30
0.0
 10
13.5666700813
 20
16.8564722312
 30
0.0
 10
13.6493937367
 20
17.0673848532
 30
0.0
 10
13.7685028207
 20
17.2425420197
 30
0.0
 10
13.9175422804
 20
17.3700229756
 30
0.0
 10
14.034905607
 20
17.4169514229
 30
0.0
 10
14.0931335036
 20
17.4281841828
 30
0.0
  0
SPLINE
  5
350
100
AcDbEntity
  8
0
100
AcDbSpline
 62
7
  6
BYLAYER
 70
0
 71
3
 72
10
 73
6
 74
0
 42
0.0000001
 43
0.0000001
 44
0.0000000001
 40
0.0
 40
0.0
 40
0.0
 40
0.0
 40
0.3165988011
 40
0.6467166035
 40
1.0
 40
1.0
 40
1.0
 40
1.0
 10
14.18153584
 20
15.5866717422
 30
0.0
 10
14.1347655033
 20
15.5866717422
 30
0.0
 10
14.0386539047
 20
15.6015740784
 30
0.0
 10
13.903905016
 20
15.666261166
 30
0.0
 10
13.8262037068
 20
15.7324957255
 30
0.0
 10
13.7903100545
 20
15.7703824804
 30
0.0
  0
SPLINE
  5
351
100
AcDbEntity
  8
0
100
AcDbSpline
 62
7
  6
BYLAYER
 70
0
 71
3
 72
16
 73
12
 74
0
 42
0.0000001
 43
0.0000001
 44
0.0000000001
 40
0.0
 40
0.0
 40
0.0
 40
0.0
 40
0.1085648202
 40
0.2260061597
 40
0.3492302312
 40
0.4739091344
 40
0.5954591737
 40
0.7099005072
 40
0.8148196955
 40
0.9103571903
 40
1.0
 40
1.0
 40
1.0
 40
1.0
 10
14.5727616254
 20
17.252961004
 30
0.0
 10
14.62374365
 20
17.1991480496
 30
0.0
 10
14.7131300753
 20
17.0707260688
 30
0.0
 10
14.8000109504
 20
16.8467815344
 30
0.0
 10
14.8409520844
 20
16.5989970561
 30
0.0
 10
14.8332803551
 20
16.3452833052
 30
0.0
 10
14.7776824343
 20
16.1036341517
 30
0.0
 10
14.677760018
 20
15.8911573541
 30
0.0
 10
14.5393354134
 20
15.7230812557
 30
0.0
 10
14.3703186273
 20
15.6129568957
 30
0.0
 10
14.2427441271
 20
15.5866717422
 30
0.0
 10
14.18153584
 20
15.5866717422
 30
0.0
  0
SPLINE
  5
352
100
AcDbEntity
  8
0
100
AcDbSpline
 62
7
  6
BYLAYER
 70
0
 71
3
 72
38
 73
34
 74
0
 42
0.0000001
 43
0.0000001
 44
0.0000000001
 40
0.0
 40
0.0
 40
0.0
 40
0.0
 40
0.0300370397
 40
0.0590562045
 40
0.0871228456
 40
0.114338316
 40
0.1408553673
 40
0.1668779365
 40
0.1926285474
 40
0.2183447672
 40
0.2442773386
 40
0.2706594303
 40
0.2976867883
 40
0.3255235217
 40
0.3543022443
 40
0.3840948255
 40
0.446712042
 40
0.4795615043
 40
0.5133208984
 40
0.5478762502
 40
0.5830988178
 40
0.6188501473
 40
0.6549698802
 40
0.6912839994
 40
0.7276156332
 40
0.7637931582
 40
0.7996511343
 40
0.8350252935
 40
0.8697589637
 40
0.9037166424
 40
0.9367958865
 40
0.9689115437
 40
1.0
 40
1.0
 40
1.0
 40
1.0
 10
13.7719008909
 20
15.8229058771
 30
0.0
 10
13.7875565749
 20
15.8042882184
 30
0.0
 10
13.8201537915
 20
15.7691396241
 30
0.0
 10
13.8733985385
 20
15.7226298194
 30
0.0
 10
13.9296391324
 20
15.6836366483
 30
0.0
 10
13.9883655595
 20
15.6525913234
 30
0.0
 10
14.0490620524
 20
15.6299359244
 30
0.0
 10
14.1110794566
 20
15.6158091999
 30
0.0
 10
14.1738031793
 20
15.6103178094
 30
0.0
 10
14.2366166024
 20
15.6135697094
 30
0.0
 10
14.2988578642
 20
15.6256550868
 30
0.0
 10
14.3599094283
 20
15.6463053707
 30
0.0
 10
14.4191963397
 20
15.6752590273
 30
0.0
 10
14.4761394118
 20
15.7122593187
 30
0.0
 10
14.530136199
 20
15.7570229209
 30
0.0
 10
14.5987141623
 20
15.8274568327
 30
0.0
 10
14.6582213691
 20
15.9105061176
 30
0.0
 10
14.7076680818
 20
16.0028484451
 30
0.0
 10
14.7403277421
 20
16.078105363
 30
0.0
 10
14.7676579006
 20
16.1574727838
 30
0.0
 10
14.7893793356
 20
16.240225446
 30
0.0
 10
14.8051969754
 20
16.325591036
 30
0.0
 10
14.8150521688
 20
16.4127341859
 30
0.0
 10
14.8188800938
 20
16.5008185827
 30
0.0
 10
14.8166143644
 20
16.5890058022
 30
0.0
 10
14.808186719
 20
16.6764483843
 30
0.0
 10
14.7937658796
 20
16.7623179592
 30
0.0
 10
14.7735191002
 20
16.8458034518
 30
0.0
 10
14.7476102263
 20
16.926099743
 30
0.0
 10
14.7161935586
 20
17.0024059404
 30
0.0
 10
14.6796501088
 20
17.0740229168
 30
0.0
 10
14.63835287
 20
17.1403067689
 30
0.0
 10
14.6073784118
 20
17.1811423339
 30
0.0
 10
14.5911685625
 20
17.2004402558
 30
0.0
  0
SPLINE
  5
353
100
AcDbEntity
  8
0
100
AcDbSpline
 62
7
  6
BYLAYER
 70
0
 71
3
 72
30
 73
26
 74
0
 42
0.0000001
 43
0.0000001
 44
0.0000000001
 40
0.0
 40
0.0
 40
0.0
 40
0.0
 40
0.032111156
 40
0.0647857482
 40
0.0982433349
 40
0.132669343
 40
0.1696768937
 40
0.2079882002
 40
0.2885098359
 40
0.330752091
 40
0.3741644589
 40
0.4186003761
 40
0.4638942891
 40
0.5098681553
 40
0.5563157641
 40
0.6030133409
 40
0.6497334404
 40
0.696255366
 40
0.7423663727
 40
0.7878552225
 40
0.8325204456
 40
0.8761872784
 40
0.9187245304
 40
0.9600227048
 40
1.0
 40
1.0
 40
1.0
 40
1.0
 10
14.117131318
 20
17.4070497678
 30
0.0
 10
14.0970838732
 20
17.4041705368
 30
0.0
 10
14.0570816447
 20
17.3956144418
 30
0.0
 10
13.9985565209
 20
17.3749994709
 30
0.0
 10
13.9417087288
 20
17.3467288048
 30
0.0
 10
13.8862671376
 20
17.3105327668
 30
0.0
 10
13.8329352771
 20
17.2663203952
 30
0.0
 10
13.7643576451
 20
17.1958867569
 30
0.0
 10
13.7048502891
 20
17.1128373489
 30
0.0
 10
13.6554036025
 20
17.0204950429
 30
0.0
 10
13.6227439367
 20
16.9452381204
 30
0.0
 10
13.5954137797
 20
16.8658707009
 30
0.0
 10
13.5736923442
 20
16.7831180383
 30
0.0
 10
13.5578747046
 20
16.6977524485
 30
0.0
 10
13.5480195112
 20
16.6106092985
 30
0.0
 10
13.5441915861
 20
16.5225249017
 30
0.0
 10
13.5464573155
 20
16.4343376822
 30
0.0
 10
13.5548849609
 20
16.3468951001
 30
0.0
 10
13.5693058004
 20
16.2610255252
 30
0.0
 10
13.5895525797
 20
16.1775400326
 30
0.0
 10
13.6154613538
 20
16.0972440508
 30
0.0
 10
13.6468777449
 20
16.0209384263
 30
0.0
 10
13.6834206706
 20
15.9493222178
 30
0.0
 10
13.7247172802
 20
15.8830389916
 30
0.0
 10
13.755691242
 20
15.8422037463
 30
0.0
 10
13.7719008282
 20
15.8229059517
 30
0.0
  0
LINE
  5
354
100
AcDbEntity
  8
0
100
AcDbLine
 62
7
  6
BYLAYER
 10
14.5727616254
 20
17.252961004
 11
14.5021226678
 21
17.2528852902
  0
SPLINE
  5
355
100
AcDbEntity
  8
0
100
AcDbSpline
 62
7
  6
BYLAYER
 70
0
 71
3
 72
48
 73
44
 74
0
 42
0.0000001
 43
0.0000001
 44
0.0000000001
 40
0.0
 40
0.0
 40
0.0
 40
0.0
 40
0.0456393008
 40
0.092146298
 40
0.1390829909
 40
0.1860109415
 40
0.2781075364
 40
0.3224368077
 40
0.3650601523
 40
0.4055753456
 40
0.4436374314
 40
0.4789192861
 40
0.5111013438
 40
0.5398986795
 40
0.5651323012
 40
0.5763737131
 40
0.5866815412
 40
0.596050428
 40
0.6044831239
 40
0.6119976815
 40
0.6186415599
 40
0.6244907141
 40
0.6296596515
 40
0.6343172018
 40
0.6386959871
 40
0.6430775717
 40
0.6477471117
 40
0.6529443191
 40
0.6588361857
 40
0.6655286784
 40
0.6730869234
 40
0.6815497354
 40
0.6909391098
 40
0.7012661302
 40
0.712534637
 40
0.7378608636
 40
0.7667528979
 40
0.798981189
 40
0.8342971033
 40
0.8724233558
 40
0.913003341
 40
0.9556567745
 40
1.0
 40
1.0
 40
1.0
 40
1.0
 10
16.6193421921
 20
15.2190765655
 30
0.0
 10
16.6161954319
 20
15.1906541503
 30
0.0
 10
16.6104063981
 20
15.1332078978
 30
0.0
 10
16.6033031007
 20
15.0463505234
 30
0.0
 10
16.5977180027
 20
14.958573212
 30
0.0
 10
16.5924224396
 20
14.8421753754
 30
0.0
 10
16.5903315909
 20
14.7272813386
 30
0.0
 10
16.591587222
 20
14.6150992338
 30
0.0
 10
16.594157658
 20
14.5352689797
 30
0.0
 10
16.5983650297
 20
14.4594400684
 30
0.0
 10
16.6041424566
 20
14.3883271475
 30
0.0
 10
16.6114193541
 20
14.3226009381
 30
0.0
 10
16.6201215916
 20
14.2629040778
 30
0.0
 10
16.6301966131
 20
14.2098171001
 30
0.0
 10
16.6399578091
 20
14.1700713488
 30
0.0
 10
16.648516487
 20
14.1420295302
 30
0.0
 10
16.6549580167
 20
14.1237527287
 30
0.0
 10
16.6616555912
 20
14.1074540783
 30
0.0
 10
16.6685965915
 20
14.0931772548
 30
0.0
 10
16.6757762533
 20
14.0809578344
 30
0.0
 10
16.6831805245
 20
14.0708105075
 30
0.0
 10
16.6908076251
 20
14.0627407551
 30
0.0
 10
16.6986712651
 20
14.0567640601
 30
0.0
 10
16.7067916615
 20
14.0529305729
 30
0.0
 10
16.715147825
 20
14.0513373856
 30
0.0
 10
16.7236325336
 20
14.0520558782
 30
0.0
 10
16.7321283288
 20
14.0550524871
 30
0.0
 10
16.7405928987
 20
14.0602442466
 30
0.0
 10
16.7490484975
 20
14.0675550345
 30
0.0
 10
16.7575104668
 20
14.0769517197
 30
0.0
 10
16.7659775999
 20
14.0884113617
 30
0.0
 10
16.774438634
 20
14.1019124256
 30
0.0
 10
16.7828767688
 20
14.1174314954
 30
0.0
 10
16.7912737224
 20
14.1349429351
 30
0.0
 10
16.8028389816
 20
14.1619792683
 30
0.0
 10
16.8168466076
 20
14.2005776723
 30
0.0
 10
16.8326219473
 20
14.2524101236
 30
0.0
 10
16.8477870684
 20
14.3109136124
 30
0.0
 10
16.862180828
 20
14.3755489947
 30
0.0
 10
16.8756349505
 20
14.4457203496
 30
0.0
 10
16.8880447714
 20
14.5207460066
 30
0.0
 10
16.8992962446
 20
14.5998891873
 30
0.0
 10
16.9058251547
 20
14.654009371
 30
0.0
 10
16.9088923687
 20
14.6816223722
 30
0.0
  0
SPLINE
  5
356
100
AcDbEntity
  8
0
100
AcDbSpline
 62
7
  6
BYLAYER
 70
0
 71
3
 72
48
 73
44
 74
0
 42
0.0000001
 43
0.0000001
 44
0.0000000001
 40
0.0
 40
0.0
 40
0.0
 40
0.0
 40
0.0456392976
 40
0.0921462913
 40
0.1390829807
 40
0.1860109279
 40
0.278107518
 40
0.322436787
 40
0.3650601294
 40
0.4055753205
 40
0.4436374043
 40
0.4789192572
 40
0.5111013133
 40
0.5398986474
 40
0.5651322678
 40
0.5763736791
 40
0.5866815066
 40
0.596050393
 40
0.6044830885
 40
0.6119976457
 40
0.6186415237
 40
0.6244906776
 40
0.6296596147
 40
0.6343171648
 40
0.6386959499
 40
0.6430775343
 40
0.647747074
 40
0.6529442811
 40
0.6588361474
 40
0.6655286398
 40
0.6730868843
 40
0.6815496959
 40
0.6909390698
 40
0.7012660897
 40
0.7125345959
 40
0.7378608212
 40
0.766752854
 40
0.7989811434
 40
0.8342970558
 40
0.8724233186
 40
0.9130033154
 40
0.9556567614
 40
1.0
 40
1.0
 40
1.0
 40
1.0
 10
16.9088923809
 20
14.6816224826
 30
0.0
 10
16.912039141
 20
14.7100448973
 30
0.0
 10
16.9178281746
 20
14.7674911486
 30
0.0
 10
16.9249314718
 20
14.8543485213
 30
0.0
 10
16.9305165696
 20
14.9421258308
 30
0.0
 10
16.9358121327
 20
15.0585236661
 30
0.0
 10
16.9379029813
 20
15.1734177023
 30
0.0
 10
16.9366473503
 20
15.2855998071
 30
0.0
 10
16.9340769143
 20
15.3654300612
 30
0.0
 10
16.9298695425
 20
15.4412589725
 30
0.0
 10
16.9240921157
 20
15.5123718934
 30
0.0
 10
16.9168152182
 20
15.5780981028
 30
0.0
 10
16.9081129806
 20
15.6377949631
 30
0.0
 10
16.8980379592
 20
15.6908819408
 30
0.0
 10
16.8882767631
 20
15.7306276921
 30
0.0
 10
16.8797180852
 20
15.7586695107
 30
0.0
 10
16.8732765556
 20
15.7769463122
 30
0.0
 10
16.866578981
 20
15.7932449626
 30
0.0
 10
16.8596379808
 20
15.8075217861
 30
0.0
 10
16.852458319
 20
15.8197412065
 30
0.0
 10
16.8450540477
 20
15.8298885334
 30
0.0
 10
16.8374269472
 20
15.8379582858
 30
0.0
 10
16.8295633071
 20
15.8439349808
 30
0.0
 10
16.8214429107
 20
15.847768468
 30
0.0
 10
16.8130867472
 20
15.8493616553
 30
0.0
 10
16.8046020387
 20
15.8486431627
 30
0.0
 10
16.7961062435
 20
15.8456465538
 30
0.0
 10
16.7876416735
 20
15.8404547943
 30
0.0
 10
16.7791860747
 20
15.8331440064
 30
0.0
 10
16.7707241054
 20
15.8237473212
 30
0.0
 10
16.7622569723
 20
15.8122876792
 30
0.0
 10
16.7537959383
 20
15.7987866153
 30
0.0
 10
16.7453578034
 20
15.7832675455
 30
0.0
 10
16.7369608498
 20
15.7657561058
 30
0.0
 10
16.7253955906
 20
15.7387197726
 30
0.0
 10
16.7113879647
 20
15.7001213686
 30
0.0
 10
16.695612625
 20
15.6482889173
 30
0.0
 10
16.6804475038
 20
15.5897854285
 30
0.0
 10
16.6660537426
 20
15.5251500387
 30
0.0
 10
16.6525996173
 20
15.4549786677
 30
0.0
 10
16.6401897931
 20
15.3799529855
 30
0.0
 10
16.6289383175
 20
15.3008097773
 30
0.0
 10
16.6224094063
 20
15.2466895748
 30
0.0
 10
16.6193421919
 20
15.2190765639
 30
0.0
  0
SPLINE
  5
357
100
AcDbEntity
  8
0
100
AcDbSpline
 62
7
  6
BYLAYER
 70
0
 71
3
 72
40
 73
36
 74
0
 42
0.0000001
 43
0.0000001
 44
0.0000000001
 40
0.0
 40
0.0
 40
0.0
 40
0.0
 40
0.0391349198
 40
0.0789805266
 40
0.1192512917
 40
0.1596584143
 40
0.1999155974
 40
0.2397415154
 40
0.278856489
 40
0.3169866449
 40
0.3538777987
 40
0.3893197927
 40
0.4231236909
 40
0.4551232079
 40
0.4851999357
 40
0.5133256595
 40
0.539531817
 40
0.5519499126
 40
0.5639339933
 40
0.5867138101
 40
0.6082383236
 40
0.6289564943
 40
0.6493948543
 40
0.6701269645
 40
0.6916878653
 40
0.7145131808
 40
0.7389376028
 40
0.7651960101
 40
0.7933889391
 40
0.8235265013
 40
0.8555654165
 40
0.8894158467
 40
0.9249111964
 40
0.9618464572
 40
1.0
 40
1.0
 40
1.0
 40
1.0
 10
16.3842626407
 20
15.3120395834
 30
0.0
 10
16.3751497681
 20
15.2850181917
 30
0.0
 10
16.3582404741
 20
15.2299948041
 30
0.0
 10
16.3370522954
 20
15.1457001707
 30
0.0
 10
16.3199099367
 20
15.0595489673
 30
0.0
 10
16.3070068556
 20
14.972357122
 30
0.0
 10
16.2985273688
 20
14.8849499602
 30
0.0
 10
16.2944896957
 20
14.7981675078
 30
0.0
 10
16.2949094297
 20
14.7128398845
 30
0.0
 10
16.2998014315
 20
14.6297888548
 30
0.0
 10
16.3091887899
 20
14.5498143457
 30
0.0
 10
16.3229168276
 20
14.4736655295
 30
0.0
 10
16.3408299082
 20
14.4020514918
 30
0.0
 10
16.3627773046
 20
14.3356610506
 30
0.0
 10
16.3886403208
 20
14.2751524409
 30
0.0
 10
16.418113979
 20
14.2210682793
 30
0.0
 10
16.4459438544
 20
14.1810382401
 30
0.0
 10
16.4698212428
 20
14.1529104197
 30
0.0
 10
16.4938196079
 20
14.1282713223
 30
0.0
 10
16.5255995393
 20
14.1020720267
 30
0.0
 10
16.5668406531
 20
14.0782858958
 30
0.0
 10
16.6101455823
 20
14.0629551043
 30
0.0
 10
16.6550463397
 20
14.0563659254
 30
0.0
 10
16.7009674549
 20
14.0587356938
 30
0.0
 10
16.7473377124
 20
14.0698319351
 30
0.0
 10
16.7937046803
 20
14.0894084482
 30
0.0
 10
16.839644536
 20
14.1172509473
 30
0.0
 10
16.884704458
 20
14.1531241507
 30
0.0
 10
16.9285519788
 20
14.1965733078
 30
0.0
 10
16.970812491
 20
14.2471672687
 30
0.0
 10
17.0110829144
 20
14.3044617227
 30
0.0
 10
17.0489321811
 20
14.367960562
 30
0.0
 10
17.0840695256
 20
14.4370164069
 30
0.0
 10
17.1161829038
 20
14.5109513231
 30
0.0
 10
17.1350711089
 20
14.5623287937
 30
0.0
 10
17.1439719628
 20
14.5886595501
 30
0.0
  0
SPLINE
  5
358
100
AcDbEntity
  8
0
100
AcDbSpline
 62
7
  6
BYLAYER
 70
0
 71
3
 72
40
 73
36
 74
0
 42
0.0000001
 43
0.0000001
 44
0.0000000001
 40
0.0
 40
0.0
 40
0.0
 40
0.0
 40
0.0391349111
 40
0.0789805086
 40
0.119251264
 40
0.1596583768
 40
0.1999155616
 40
0.2397414814
 40
0.2788564567
 40
0.3169866144
 40
0.3538777698
 40
0.3893197654
 40
0.4231236651
 40
0.4551231835
 40
0.4851999127
 40
0.5133256378
 40
0.5395317965
 40
0.5519498926
 40
0.5639339738
 40
0.5867137916
 40
0.6082383061
 40
0.6289564777
 40
0.6493948387
 40
0.6701269498
 40
0.6916878516
 40
0.7145131681
 40
0.7389375911
 40
0.7651959996
 40
0.7933889299
 40
0.8235264934
 40
0.8555654101
 40
0.8894158418
 40
0.924911193
 40
0.9618464555
 40
1.0
 40
1.0
 40
1.0
 40
1.0
 10
17.1439719628
 20
14.5886595501
 30
0.0
 10
17.1530848312
 20
14.6156809351
 30
0.0
 10
17.1699941178
 20
14.6707043086
 30
0.0
 10
17.1911822875
 20
14.7549989194
 30
0.0
 10
17.2083246395
 20
14.8411500986
 30
0.0
 10
17.2212277175
 20
14.9283419274
 30
0.0
 10
17.2297072035
 20
15.0157490807
 30
0.0
 10
17.2337448766
 20
15.1025315331
 30
0.0
 10
17.2333251425
 20
15.1878591564
 30
0.0
 10
17.2284331407
 20
15.2709101861
 30
0.0
 10
17.2190457823
 20
15.3508846952
 30
0.0
 10
17.2053177446
 20
15.4270335114
 30
0.0
 10
17.1874046641
 20
15.4986475491
 30
0.0
 10
17.1654572676
 20
15.5650379903
 30
0.0
 10
17.1395942514
 20
15.6255466
 30
0.0
 10
17.1101205933
 20
15.6796307616
 30
0.0
 10
17.0822907179
 20
15.7196608008
 30
0.0
 10
17.0584133294
 20
15.7477886212
 30
0.0
 10
17.0344149643
 20
15.7724277186
 30
0.0
 10
17.002635033
 20
15.7986270143
 30
0.0
 10
16.9613939192
 20
15.8224131451
 30
0.0
 10
16.91808899
 20
15.8377439366
 30
0.0
 10
16.8731882325
 20
15.8443331155
 30
0.0
 10
16.8272671174
 20
15.8419633471
 30
0.0
 10
16.7808968598
 20
15.8308671058
 30
0.0
 10
16.7345298919
 20
15.8112905927
 30
0.0
 10
16.6885900363
 20
15.7834480936
 30
0.0
 10
16.6435301143
 20
15.7475748902
 30
0.0
 10
16.5996825935
 20
15.7041257331
 30
0.0
 10
16.5574220812
 20
15.6535317722
 30
0.0
 10
16.5171516579
 20
15.5962373182
 30
0.0
 10
16.4793023912
 20
15.5327384789
 30
0.0
 10
16.4441650466
 20
15.463682634
 30
0.0
 10
16.4120516685
 20
15.3897477178
 30
0.0
 10
16.3931634634
 20
15.3383702472
 30
0.0
 10
16.3842626095
 20
15.3120394908
 30
0.0
  0
SPLINE
  5
359
100
AcDbEntity
  8
0
100
AcDbSpline
 62
7
  6
BYLAYER
 70
0
 71
3
 72
63
 73
59
 74
0
 42
0.0000001
 43
0.0000001
 44
0.0000000001
 40
0.0
 40
0.0
 40
0.0
 40
0.0
 40
0.0001934497
 40
0.0004538817
 40
0.0016234079
 40
0.0033612442
 40
0.005640956
 40
0.0084433049
 40
0.0117563284
 40
0.0155694987
 40
0.0246548689
 40
0.0356206263
 40
0.0483208814
 40
0.062609444
 40
0.0783927392
 40
0.0955815677
 40
0.1140842215
 40
0.1338004229
 40
0.1546225281
 40
0.1764405917
 40
0.1991512789
 40
0.2468261833
 40
0.2715745797
 40
0.296790851
 40
0.3482163706
 40
0.4002838162
 40
0.4522111272
 40
0.5032370276
 40
0.5526368035
 40
0.5765139988
 40
0.5997334494
 40
0.6222214113
 40
0.6439147811
 40
0.6647606363
 40
0.6847122468
 40
0.7037531851
 40
0.7219138668
 40
0.7392751154
 40
0.7559693378
 40
0.7641519219
 40
0.7722851655
 40
0.7804314323
 40
0.7886638599
 40
0.7970637999
 40
0.8057174653
 40
0.8147188684
 40
0.824168091
 40
0.8447833023
 40
0.8561440403
 40
0.8683112697
 40
0.8813582745
 40
0.8953321371
 40
0.9102691463
 40
0.9262011991
 40
0.9431506728
 40
0.9611116534
 40
0.9800679605
 40
1.0
 40
1.0
 40
1.0
 40
1.0
 10
15.9639756631
 20
21.1780184151
 30
0.0
 10
15.9639258384
 20
21.1777911698
 30
0.0
 10
15.9637922439
 20
21.1772624504
 30
0.0
 10
15.9632308526
 20
21.1753938837
 30
0.0
 10
15.9620895324
 20
21.1717630399
 30
0.0
 10
15.9604233823
 20
21.1657550827
 30
0.0
 10
15.9586095575
 20
21.1577600548
 30
0.0
 10
15.9569479866
 20
21.1478040637
 30
0.0
 10
15.9557235948
 20
21.1359301267
 30
0.0
 10
15.9547857043
 20
21.1164657195
 30
0.0
 10
15.9556746438
 20
21.0877552355
 30
0.0
 10
15.9604104494
 20
21.0486461134
 30
0.0
 10
15.969334294
 20
21.0038806312
 30
0.0
 10
15.98293261
 20
20.9542817105
 30
0.0
 10
16.0011104188
 20
20.9004551827
 30
0.0
 10
16.0238083947
 20
20.8428979346
 30
0.0
 10
16.050739572
 20
20.7819964606
 30
0.0
 10
16.0816309653
 20
20.7181215846
 30
0.0
 10
16.1162067838
 20
20.6516416055
 30
0.0
 10
16.1541953767
 20
20.5829117657
 30
0.0
 10
16.2098148022
 20
20.4870901357
 30
0.0
 10
16.2697780185
 20
20.3897488075
 30
0.0
 10
16.3330126485
 20
20.2909293884
 30
0.0
 10
16.3996125305
 20
20.1889174701
 30
0.0
 10
16.4854553695
 20
20.0602754669
 30
0.0
 10
16.5898514829
 20
19.9054359802
 30
0.0
 10
16.6933180828
 20
19.7505471169
 30
0.0
 10
16.7929214586
 20
19.5969456872
 30
0.0
 10
16.8710398685
 20
19.469612227
 30
0.0
 10
16.9287296554
 20
19.3690270508
 30
0.0
 10
16.9685401412
 20
19.295491796
 30
0.0
 10
17.0049424466
 20
19.2231317789
 30
0.0
 10
17.0374871879
 20
19.1520758657
 30
0.0
 10
17.0657239232
 20
19.0824687225
 30
0.0
 10
17.0890305028
 20
19.0144037681
 30
0.0
 10
17.1067646464
 20
18.9479913857
 30
0.0
 10
17.1182606842
 20
18.8833501337
 30
0.0
 10
17.1228567826
 20
18.82064678
 30
0.0
 10
17.1199225013
 20
18.7697785867
 30
0.0
 10
17.1128852175
 20
18.7307021491
 30
0.0
 10
17.1051928489
 20
18.7022928879
 30
0.0
 10
17.0949050508
 20
18.6746494756
 30
0.0
 10
17.0818791063
 20
18.6478255137
 30
0.0
 10
17.0659768294
 20
18.6218789551
 30
0.0
 10
17.0470154177
 20
18.5969032324
 30
0.0
 10
17.0248179403
 20
18.572999508
 30
0.0
 10
16.9896696067
 20
18.5417949149
 30
0.0
 10
16.9479066664
 20
18.5141785573
 30
0.0
 10
16.9005743431
 20
18.4901832402
 30
0.0
 10
16.859999946
 20
18.4731937751
 30
0.0
 10
16.8154285069
 20
18.4579194423
 30
0.0
 10
16.7668247786
 20
18.4444271115
 30
0.0
 10
16.7141876393
 20
18.4328077992
 30
0.0
 10
16.6575268609
 20
18.4231545274
 30
0.0
 10
16.5968926984
 20
18.4155615261
 30
0.0
 10
16.5323889047
 20
18.4100481603
 30
0.0
 10
16.4641544881
 20
18.4066391387
 30
0.0
 10
16.4174248275
 20
18.4058216899
 30
0.0
 10
16.3934767379
 20
18.4057393134
 30
0.0
  0
ENDSEC
  0
SECTION
  2
OBJECTS
  0
DICTIONARY
  5
C
100
AcDbDictionary
280
0
281
1
  3
ACAD_GROUP
350
D
  3
ACAD_MLINESTYLE
350
17
  3
ACAD_LAYOUT
350
1A
  3
ACAD_PLOTSETTINGS
350
19
  3
ACAD_PLOTSTYLENAME
350
E
  0
DICTIONARY
  5
D
102
{ACAD_REACTORS
330
C
102
}
100
AcDbDictionary
280
0
281
1
  0
ACDBDICTIONARYWDFLT
  5
E
102
{ACAD_REACTORS
330
C
102
}
100
AcDbDictionary
281
1
  3
Normal
350
F
100
AcDbDictionaryWithDefault
340
F
  0
DICTIONARY
  5
17
102
{ACAD_REACTORS
330
C
102
}
100
AcDbDictionary
280
0
281
1
  3
Standard
350
18
  0
DICTIONARY
  5
19
102
{ACAD_REACTORS
330
C
102
}
100
AcDbDictionary
281
1
  0
DICTIONARY
  5
1A
102
{ACAD_REACTORS
330
C
102
}
100
AcDbDictionary
281
1
  3
Model
350
35A
  3
Layout1
350
35B
  0
ACDBPLACEHOLDER
  5
F
102
{ACAD_REACTORS
330
E
102
}
  0
MLINESTYLE
  5
18
102
{ACAD_REACTORS
330
17
102
}
100
AcDbMlineStyle
  2
STANDARD
 70
0
  3

 62
256
 51
90.0
 52
90.0
 71
2
 49
0.5
 62
256
  6
BYLAYER
 49
-0.5
 62
256
  6
BYLAYER
  0
LAYOUT
  5
35A
102
{ACAD_REACTORS
330
1A
102
}
100
AcDbPlotSettings
  1

  2
none_device
  4

  6

 40
0.0
 41
0.0
 42
0.0
 43
0.0
 44
210.0
 45
297.0
 46
0.0
 47
0.0
 48
0.0
 49
0.0
140
0.0
141
0.0
142
1.0
143
1.0
 70
1024
 72
1
 73
0
 74
0
  7

 75
0
147
1.0
148
0.0
149
0.0
100
AcDbLayout
  1
Model
 70
0
 71
0
 10
0.0
 20
0.0
 11
210.0
 21
297.0
 12
0.0
 22
0.0
 32
0.0
 14
0.0
 24
0.0
 34
0.0
 15
0.0
 25
0.0
 35
0.0
146
0.0
 13
0.0
 23
0.0
 33
0.0
 16
1.0
 26
0.0
 36
0.0
 17
0.0
 27
1.0
 37
0.0
 76
0
330
210
345
0
346
0
  0
LAYOUT
  5
35B
102
{ACAD_REACTORS
330
1A
102
}
100
AcDbPlotSettings
  1

  2
none_device
  4

  6

 40
0.0
 41
0.0
 42
0.0
 43
0.0
 44
210.0
 45
297.0
 46
0.0
 47
0.0
 48
0.0
 49
0.0
140
0.0
141
0.0
142
1.0
143
1.0
 70
0
 72
1
 73
0
 74
0
  7

 75
0
147
1.0
148
0.0
149
0.0
100
AcDbLayout
  1
Layout1
 70
0
 71
1
 10
0.0
 20
0.0
 11
210.0
 21
297.0
 12
0.0
 22
0.0
 32
0.0
 14
0.0
 24
0.0
 34
0.0
 15
0.0
 25
0.0
 35
0.0
146
0.0
 13
0.0
 23
0.0
 33
0.0
 16
1.0
 26
0.0
 36
0.0
 17
0.0
 27
1.0
 37
0.0
 76
0
330
211
345
0
346
0
  0
ENDSEC
  0
EOF
