999
DXF file: C:\Users\sesa63760\Dev\_Creo\CAD\MCADID0004605_3D-CAD\drw0001_6.dxf
999
Pro/ENGINEER 2019471 by Parametric Technology Corporation
  0
SECTION
  2
HEADER
  9
$ACADVER
  1
AC1024
  9
$DWGCODEPAGE
  3
ANSI_1252
  9
$EXTMAX
 10
17.6530266899
 20
24.9664234615
 30
0.0
  9
$EXTMIN
 10
0.0
 20
0.0
 30
0.0
  9
$LIMMIN
 10
0.0
 20
0.0
  9
$LIMMAX
 10
17.6530266899
 20
24.9664234615
  9
$VIEWCTR
 10
8.826513345
 20
12.4832117307
  9
$VIEWSIZE
 40
24.9664234615
  9
$CLAYER
  8
0
  9
$LTSCALE
 40
1.6274409367
  9
$CELTYPE
  6
BYLAYER
  9
$DIMSCALE
 40
1.0
  9
$DIMASZ
 40
0.2101550796
  9
$DIMEXO
 40
1.0
  9
$DIMDLI
 40
1.1244137381
  9
$DIMEXE
 40
1.0
  9
$DIMCEN
 40
0.2663085169
  9
$DIMLFAC
 40
1.0
  9
$DIMBLK
  1
_FILLED
  9
$DIMALT
 70
0
  9
$DIMALTF
 40
0.0393700787
  9
$DIMTXT
 40
0.2942171115
  9
$DIMTOL
 70
1
  9
$DIMLIM
 70
0
  9
$DIMTFAC
 40
1.0
  9
$DIMTP
 40
0.01
  9
$DIMTM
 40
0.01
  9
$DIMGAP
 40
0.625
  9
$DIMDSEP
 70
46
  9
$AUNITS
 70
0
  9
$PDMODE
 70
3
  9
$PDSIZE
 40
0.3125
  9
$HANDSEED
  5
248
  9
$TILEMODE
 70
1
  9
$MEASUREMENT
 70
1
  9
$INSUNITS
 70
4
  0
ENDSEC
  0
SECTION
  2
CLASSES
  0
CLASS
  1
ACDBDICTIONARYWDFLT
  2
AcDbDictionaryWithDefault
  3
AutoCAD 2000
 90
0
 91
1
280
0
281
0
  0
CLASS
  1
ACDBPLACEHOLDER
  2
AcDbPlaceHolder
  3
AutoCAD 2000
 90
0
 91
1
280
0
281
0
  0
CLASS
  1
LAYOUT
  2
AcDbLayout
  3
AutoCAD 2000
 90
0
 91
0
280
0
281
0
  0
ENDSEC
  0
SECTION
  2
TABLES
  0
TABLE
  2
VPORT
  5
8
100
AcDbSymbolTable
 70
2
  0
VPORT
  5
1F4
100
AcDbSymbolTableRecord
100
AcDbViewportTableRecord
  2
*ACTIVE
 70
0
 10
0.0
 20
0.0
 11
1.0
 21
1.0
 12
8.826513345
 22
12.4832117307
 13
0.0
 23
0.0
 14
1.0
 24
1.0
 15
0.0
 25
0.0
 16
0.0
 26
0.0
 36
1.0
 17
0.0
 27
0.0
 37
0.0
 40
24.9664234615
 41
0.7070707071
 42
50.0
 43
0.0
 44
0.0
 50
0.0
 51
0.0
 71
0
 72
100
 73
1
 74
1
 75
0
 76
0
 77
0
 78
0
  0
ENDTAB
  0
TABLE
  2
LTYPE
  5
5
100
AcDbSymbolTable
 70
6
  0
LTYPE
  5
14
100
AcDbSymbolTableRecord
100
AcDbLinetypeTableRecord
  2
BYBLOCK
 70
0
  3

 72
65
 73
0
 40
0.0
  0
LTYPE
  5
15
100
AcDbSymbolTableRecord
100
AcDbLinetypeTableRecord
  2
BYLAYER
 70
0
  3

 72
65
 73
0
 40
0.0
  0
LTYPE
  5
16
100
AcDbSymbolTableRecord
100
AcDbLinetypeTableRecord
  2
CONTINUOUS
 70
64
  3
Solid line
 72
65
 73
0
 40
0.0
  0
LTYPE
  5
1F5
100
AcDbSymbolTableRecord
100
AcDbLinetypeTableRecord
  2
CENTER
 70
64
  3
____ _ ____ _ ____ _ ____ _ ____ _ ____ _ ____
 72
65
 73
4
 40
0.6
 49
0.375
 74
0
 49
-0.075
 74
0
 49
0.075
 74
0
 49
-0.075
 74
0
  0
LTYPE
  5
1F6
100
AcDbSymbolTableRecord
100
AcDbLinetypeTableRecord
  2
HIDDEN
 70
64
  3
- - - - - - - - - - - - - - - - - - - -
 72
65
 73
2
 40
0.2
 49
0.1
 74
0
 49
-0.1
 74
0
  0
LTYPE
  5
1F7
100
AcDbSymbolTableRecord
100
AcDbLinetypeTableRecord
  2
PHANTOM
 70
64
  3
_____ _ _ _____ _ _ _____ _ _ _____
 72
65
 73
6
 40
0.8
 49
0.45
 74
0
 49
-0.05
 74
0
 49
0.1
 74
0
 49
-0.05
 74
0
 49
0.1
 74
0
 49
-0.05
 74
0
  0
LTYPE
  5
1F8
100
AcDbSymbolTableRecord
100
AcDbLinetypeTableRecord
  2
DOT
 70
64
  3
. . . . . . . . . . . . . . . . . . . .
 72
65
 73
2
 40
0.2
 49
0.1
 74
0
 49
-0.1
 74
0
  0
LTYPE
  5
1F9
100
AcDbSymbolTableRecord
100
AcDbLinetypeTableRecord
  2
DASHED
 70
64
  3
- - - - - - - - - - - - - - - - - - - -
 72
65
 73
2
 40
0.2
 49
0.1
 74
0
 49
-0.1
 74
0
  0
ENDTAB
  0
TABLE
  2
LAYER
  5
2
100
AcDbSymbolTable
 70
36
  0
LAYER
  5
10
100
AcDbSymbolTableRecord
100
AcDbLayerTableRecord
  2
0
 70
0
 62
7
  6
CONTINUOUS
370
-3
390
F
  0
LAYER
  5
1FA
100
AcDbSymbolTableRecord
100
AcDbLayerTableRecord
  2
DEFAULT_1
 70
0
 62
7
  6
CENTER
370
-3
390
F
  0
LAYER
  5
1FB
100
AcDbSymbolTableRecord
100
AcDbLayerTableRecord
  2
DEFAULT_2
 70
0
 62
7
  6
HIDDEN
370
-3
390
F
  0
LAYER
  5
1FC
100
AcDbSymbolTableRecord
100
AcDbLayerTableRecord
  2
DEFAULT_3
 70
0
 62
7
  6
PHANTOM
370
-3
390
F
  0
LAYER
  5
1FD
100
AcDbSymbolTableRecord
100
AcDbLayerTableRecord
  2
00_COMPONENTS
 70
0
 62
7
  6
CONTINUOUS
370
-3
390
F
  0
LAYER
  5
1FE
100
AcDbSymbolTableRecord
100
AcDbLayerTableRecord
  2
01_1_DEFAULT_DATUMS
 70
0
 62
7
  6
CONTINUOUS
370
-3
390
F
  0
LAYER
  5
1FF
100
AcDbSymbolTableRecord
100
AcDbLayerTableRecord
  2
01_PLANES
 70
0
 62
7
  6
CONTINUOUS
370
-3
390
F
  0
LAYER
  5
200
100
AcDbSymbolTableRecord
100
AcDbLayerTableRecord
  2
02_COORD_SYS
 70
0
 62
7
  6
CONTINUOUS
370
-3
390
F
  0
LAYER
  5
201
100
AcDbSymbolTableRecord
100
AcDbLayerTableRecord
  2
03_AXES
 70
0
 62
7
  6
CONTINUOUS
370
-3
390
F
  0
LAYER
  5
202
100
AcDbSymbolTableRecord
100
AcDbLayerTableRecord
  2
04_POINTS
 70
0
 62
7
  6
CONTINUOUS
370
-3
390
F
  0
LAYER
  5
203
100
AcDbSymbolTableRecord
100
AcDbLayerTableRecord
  2
05_CURVES
 70
0
 62
7
  6
CONTINUOUS
370
-3
390
F
  0
LAYER
  5
204
100
AcDbSymbolTableRecord
100
AcDbLayerTableRecord
  2
06_SURFS
 70
0
 62
7
  6
CONTINUOUS
370
-3
390
F
  0
LAYER
  5
205
100
AcDbSymbolTableRecord
100
AcDbLayerTableRecord
  2
07_COSMETICS
 70
0
 62
7
  6
CONTINUOUS
370
-3
390
F
  0
LAYER
  5
206
100
AcDbSymbolTableRecord
100
AcDbLayerTableRecord
  2
10_NOTES
 70
0
 62
7
  6
CONTINUOUS
370
-3
390
F
  0
LAYER
  5
207
100
AcDbSymbolTableRecord
100
AcDbLayerTableRecord
  2
11_NOTES_PUB
 70
0
 62
7
  6
CONTINUOUS
370
-3
390
F
  0
LAYER
  5
208
100
AcDbSymbolTableRecord
100
AcDbLayerTableRecord
  2
13_REF_GTOL
 70
0
 62
7
  6
CONTINUOUS
370
-3
390
F
  0
LAYER
  5
209
100
AcDbSymbolTableRecord
100
AcDbLayerTableRecord
  2
16_MISC
 70
0
 62
7
  6
CONTINUOUS
370
-3
390
F
  0
LAYER
  5
20A
100
AcDbSymbolTableRecord
100
AcDbLayerTableRecord
  2
17_NO_PRINT
 70
0
 62
7
  6
CONTINUOUS
370
-3
390
F
  0
LAYER
  5
20B
100
AcDbSymbolTableRecord
100
AcDbLayerTableRecord
  2
18_DATUM_CAMS_JOINTS
 70
0
 62
7
  6
CONTINUOUS
370
-3
390
F
  0
LAYER
  5
20C
100
AcDbSymbolTableRecord
100
AcDbLayerTableRecord
  2
19_DATUM_FUNCTIONAL
 70
0
 62
7
  6
CONTINUOUS
370
-3
390
F
  0
LAYER
  5
20D
100
AcDbSymbolTableRecord
100
AcDbLayerTableRecord
  2
20_DATUM_KINEMATIC_SCHEME
 70
0
 62
7
  6
CONTINUOUS
370
-3
390
F
  0
ENDTAB
  0
TABLE
  2
STYLE
  5
3
100
AcDbSymbolTable
 70
1
  0
STYLE
  5
11
100
AcDbSymbolTableRecord
100
AcDbTextStyleTableRecord
  2
STANDARD
 70
0
 40
0.0
 41
1.0
 50
0.0
 71
0
 42
0.2
  3
ARIAL.TTF
  4

  0
STYLE
  5
20E
100
AcDbSymbolTableRecord
100
AcDbTextStyleTableRecord
  2
TEXTSTYLE_1
 70
0
 40
0.0
 41
0.8
 50
0.0
 71
0
 42
0.2
  3
gdt
  4

  0
ENDTAB
  0
TABLE
  2
VIEW
  5
6
100
AcDbSymbolTable
 70
0
  0
ENDTAB
  0
TABLE
  2
UCS
  5
7
100
AcDbSymbolTable
 70
0
  0
ENDTAB
  0
TABLE
  2
APPID
  5
9
100
AcDbSymbolTable
 70
1
  0
APPID
  5
20F
100
AcDbSymbolTableRecord
100
AcDbRegAppTableRecord
  2
ACAD
 70
0
  0
ENDTAB
  0
TABLE
  2
BLOCK_RECORD
  5
1
100
AcDbSymbolTable
 70
0
  0
BLOCK_RECORD
  5
210
100
AcDbSymbolTableRecord
100
AcDbBlockTableRecord
  2
*Model_Space
  0
BLOCK_RECORD
  5
211
100
AcDbSymbolTableRecord
100
AcDbBlockTableRecord
  2
*Paper_Space
  0
BLOCK_RECORD
  5
212
100
AcDbSymbolTableRecord
100
AcDbBlockTableRecord
  2
_FILLED
  0
ENDTAB
  0
TABLE
  2
DIMSTYLE
  5
A
100
AcDbSymbolTable
 70
1
100
AcDbDimStyleTable
 71
0
  0
DIMSTYLE
105
213
100
AcDbSymbolTableRecord
100
AcDbDimStyleTableRecord
  2
STANDARD
 70
0
  3

  4

 40
1.0
 41
0.2101550796
 42
1.0
 43
0.38
 44
1.0
 45
0.0
 46
0.0
 47
0.01
 48
0.01
140
0.2942171115
141
0.09
142
0.0
143
25.4
144
1.0
145
0.0
146
1.0
147
0.625
 71
1
 72
0
 73
0
 74
0
 75
0
 76
0
 77
1
 78
8
 79
2
170
0
171
1
172
0
173
0
174
0
175
0
176
0
177
0
178
0
270
2
179
2
271
2
272
2
273
2
274
2
275
0
280
0
281
0
282
0
283
1
284
8
285
0
286
0
287
3
288
0
340
11
278
46
341
212
342
212
343
212
344
212
  0
ENDTAB
  0
ENDSEC
  0
SECTION
  2
BLOCKS
  0
BLOCK
  5
20
100
AcDbEntity
  8
0
100
AcDbBlockBegin
  2
*Model_Space
 70
0
 10
0.0
 20
0.0
 30
0.0
  3
*Model_Space
  1

  0
ENDBLK
  5
21
100
AcDbEntity
  8
0
100
AcDbBlockEnd
  0
BLOCK
  5
1C
100
AcDbEntity
  8
0
100
AcDbBlockBegin
  2
*Paper_Space
 70
0
 10
0.0
 20
0.0
 30
0.0
  3
*Paper_Space
  1

  0
ENDBLK
  5
1D
100
AcDbEntity
  8
0
100
AcDbBlockEnd
  0
BLOCK
  5
214
100
AcDbEntity
  8
0
100
AcDbBlockBegin
  2
_FILLED
 70
64
 10
0.0
 20
0.0
  3
_FILLED
  1

  0
SOLID
  5
215
100
AcDbEntity
  8
0
  6
BYBLOCK
 62
0
100
AcDbTrace
 10
0.0
 20
0.0
 11
-1.0
 21
0.25
 12
-1.0
 22
-0.25
 13
-1.0
 23
-0.25
  0
ENDBLK
  5
216
100
AcDbEntity
  8
0
  6
BYBLOCK
 62
0
100
AcDbBlockEnd
  0
ENDSEC
  0
SECTION
  2
ENTITIES
  0
LINE
  5
217
100
AcDbEntity
  8
0
100
AcDbLine
 62
7
  6
BYLAYER
 10
1.9793066342
 20
13.3347737615
 11
1.9793066342
 21
6.3347737615
  0
LINE
  5
218
100
AcDbEntity
  8
0
100
AcDbLine
 62
7
  6
BYLAYER
 10
7.7498066342
 20
20.3347737615
 11
7.4793066342
 21
20.0642737615
  0
LINE
  5
219
100
AcDbEntity
  8
0
100
AcDbLine
 62
7
  6
BYLAYER
 10
12.4793066342
 20
5.9847737615
 11
5.4793066342
 21
5.9847737615
  0
LINE
  5
21A
100
AcDbEntity
  8
0
100
AcDbLine
 62
7
  6
BYLAYER
 10
1.979372427
 20
6.3347737615
 11
15.9792408414
 21
6.3347737615
  0
LINE
  5
21B
100
AcDbEntity
  8
0
100
AcDbLine
 62
7
  6
BYLAYER
 10
13.5247611796
 20
6.8347737615
 11
4.4338520887
 21
6.8347737615
  0
LINE
  5
21C
100
AcDbEntity
  8
0
100
AcDbLine
 62
7
  6
BYLAYER
 10
3.9793066342
 20
6.3347737615
 11
3.9793066342
 21
13.3347737615
  0
LINE
  5
21D
100
AcDbEntity
  8
0
100
AcDbLine
 62
7
  6
BYLAYER
 10
4.4338520887
 20
6.8347737615
 11
4.4338520887
 21
13.3347737615
  0
LINE
  5
21E
100
AcDbEntity
  8
0
100
AcDbLine
 62
7
  6
BYLAYER
 10
4.6314805472
 20
9.8347737615
 11
4.6314805472
 21
10.5347737615
  0
LINE
  5
21F
100
AcDbEntity
  8
0
100
AcDbLine
 62
7
  6
BYLAYER
 10
5.4793066342
 20
5.9847737615
 11
5.4793066342
 21
6.3347737615
  0
LINE
  5
220
100
AcDbEntity
  8
0
100
AcDbLine
 62
7
  6
BYLAYER
 10
5.8038801537
 20
12.7808693554
 11
5.8038801537
 21
10.6886781676
  0
LINE
  5
221
100
AcDbEntity
  8
0
100
AcDbLine
 62
7
  6
BYLAYER
 10
4.6314805472
 20
9.8347737615
 11
13.5247611796
 21
9.8347737615
  0
LINE
  5
222
100
AcDbEntity
  8
0
100
AcDbLine
 62
7
  6
BYLAYER
 10
7.3915933939
 20
12.7808693554
 11
7.3915933939
 21
10.6886781676
  0
LINE
  5
223
100
AcDbEntity
  8
0
100
AcDbLine
 62
7
  6
BYLAYER
 10
7.4793066342
 20
6.8347737615
 11
7.4793066342
 21
9.8347737615
  0
LINE
  5
224
100
AcDbEntity
  8
0
100
AcDbLine
 62
7
  6
BYLAYER
 10
7.4793066342
 20
12.9347737615
 11
7.4793066342
 21
20.0642737615
  0
LINE
  5
225
100
AcDbEntity
  8
0
100
AcDbLine
 62
7
  6
BYLAYER
 10
4.4338520887
 20
10.5347737615
 11
13.3271327212
 21
10.5347737615
  0
LINE
  5
226
100
AcDbEntity
  8
0
100
AcDbLine
 62
7
  6
BYLAYER
 10
3.9793066342
 20
12.6347737615
 11
4.4338520887
 21
12.6347737615
  0
LINE
  5
227
100
AcDbEntity
  8
0
100
AcDbLine
 62
7
  6
BYLAYER
 10
13.5247611796
 20
12.6347737615
 11
13.9793066342
 21
12.6347737615
  0
LINE
  5
228
100
AcDbEntity
  8
0
100
AcDbLine
 62
7
  6
BYLAYER
 10
6.2418066342
 20
12.9347737615
 11
11.7168066342
 21
12.9347737615
  0
LINE
  5
229
100
AcDbEntity
  8
0
100
AcDbLine
 62
7
  6
BYLAYER
 10
1.979372427
 20
13.3347737615
 11
4.4338520887
 21
13.3347737615
  0
LINE
  5
22A
100
AcDbEntity
  8
0
100
AcDbLine
 62
7
  6
BYLAYER
 10
13.5247611796
 20
13.3347737615
 11
15.9792408414
 21
13.3347737615
  0
LINE
  5
22B
100
AcDbEntity
  8
0
100
AcDbLine
 62
7
  6
BYLAYER
 10
10.4793066342
 20
6.8347737615
 11
10.4793066342
 21
9.8347737615
  0
LINE
  5
22C
100
AcDbEntity
  8
0
100
AcDbLine
 62
7
  6
BYLAYER
 10
10.4793066342
 20
12.9347737615
 11
10.4793066342
 21
20.0642737615
  0
LINE
  5
22D
100
AcDbEntity
  8
0
100
AcDbLine
 62
7
  6
BYLAYER
 10
10.5670198745
 20
12.7808693554
 11
10.5670198745
 21
10.6886781676
  0
LINE
  5
22E
100
AcDbEntity
  8
0
100
AcDbLine
 62
7
  6
BYLAYER
 10
12.1547331147
 20
12.7808693554
 11
12.1547331147
 21
10.6886781676
  0
LINE
  5
22F
100
AcDbEntity
  8
0
100
AcDbLine
 62
7
  6
BYLAYER
 10
12.4793066342
 20
5.9847737615
 11
12.4793066342
 21
6.3347737615
  0
LINE
  5
230
100
AcDbEntity
  8
0
100
AcDbLine
 62
7
  6
BYLAYER
 10
13.3271327212
 20
9.8347737615
 11
13.3271327212
 21
10.5347737615
  0
LINE
  5
231
100
AcDbEntity
  8
0
100
AcDbLine
 62
7
  6
BYLAYER
 10
13.5247611796
 20
6.8347737615
 11
13.5247611796
 21
13.3347737615
  0
LINE
  5
232
100
AcDbEntity
  8
0
100
AcDbLine
 62
7
  6
BYLAYER
 10
13.9793066342
 20
6.3347737615
 11
13.9793066342
 21
13.3347737615
  0
LINE
  5
233
100
AcDbEntity
  8
0
100
AcDbLine
 62
7
  6
BYLAYER
 10
15.9793066342
 20
13.3347737615
 11
15.9793066342
 21
6.3347737615
  0
LINE
  5
234
100
AcDbEntity
  8
0
100
AcDbLine
 62
7
  6
BYLAYER
 10
10.2088066342
 20
20.3347737615
 11
10.4793066342
 21
20.0642737615
  0
LINE
  5
235
100
AcDbEntity
  8
0
100
AcDbLine
 62
7
  6
BYLAYER
 10
7.4793066342
 20
20.0642737615
 11
10.4793066342
 21
20.0642737615
  0
LINE
  5
236
100
AcDbEntity
  8
0
100
AcDbLine
 62
7
  6
BYLAYER
 10
7.7498089361
 20
20.3347737615
 11
10.2088043323
 21
20.3347737615
  0
ARC
  5
237
100
AcDbEntity
  8
0
100
AcDbCircle
 62
7
  6
BYLAYER
 10
8.9793066342
 20
9.8347737615
 40
5.2031240616
100
AcDbArc
 50
227.7264544489
 51
312.2735455511
  0
ARC
  5
238
100
AcDbEntity
  8
0
100
AcDbCircle
 62
7
  6
BYLAYER
 10
6.2418066342
 20
11.2347737615
 40
0.7
100
AcDbArc
 50
231.2730806515
 51
270.0
  0
ARC
  5
239
100
AcDbEntity
  8
0
100
AcDbCircle
 62
7
  6
BYLAYER
 10
11.7168066342
 20
11.2347737615
 40
0.7
100
AcDbArc
 50
270.0
 51
308.7269193485
  0
ARC
  5
23A
100
AcDbEntity
  8
0
100
AcDbCircle
 62
7
  6
BYLAYER
 10
11.7168066342
 20
12.2347737615
 40
0.7
100
AcDbArc
 50
51.2730806515
 51
90.0
  0
ARC
  5
23B
100
AcDbEntity
  8
0
100
AcDbCircle
 62
7
  6
BYLAYER
 10
6.2418066342
 20
12.2347737615
 40
0.7
100
AcDbArc
 50
90.0
 51
128.7269193485
  0
SPLINE
  5
23C
100
AcDbEntity
  8
0
100
AcDbSpline
 62
7
  6
BYLAYER
 70
0
 71
3
 72
23
 73
19
 74
0
 42
0.0000001
 43
0.0000001
 44
0.0000000001
 40
0.0
 40
0.0
 40
0.0
 40
0.0
 40
0.0703185027
 40
0.1367878453
 40
0.2008652334
 40
0.2635464126
 40
0.325465663
 40
0.3870036961
 40
0.4483720732
 40
0.5096753053
 40
0.5709581651
 40
0.6322365382
 40
0.6935141505
 40
0.75479174
 40
0.8160698577
 40
0.8773512588
 40
0.9386488463
 40
1.0
 40
1.0
 40
1.0
 40
1.0
 10
7.3915933939
 20
10.6886781676
 30
0.0
 10
7.3700102645
 20
10.6713701651
 30
0.0
 10
7.3254377863
 20
10.6407949556
 30
0.0
 10
7.254486317
 20
10.6055211373
 30
0.0
 10
7.1826994512
 20
10.5800319769
 30
0.0
 10
7.110534404
 20
10.5622290189
 30
0.0
 10
7.038214718
 20
10.5503350792
 30
0.0
 10
6.9658535102
 20
10.5428433979
 30
0.0
 10
6.8934945664
 20
10.5384911505
 30
0.0
 10
6.8211489272
 20
10.5362507739
 30
0.0
 10
6.748814968
 20
10.5352657994
 30
0.0
 10
6.6764865365
 20
10.534931422
 30
0.0
 10
6.6041597758
 20
10.5348694288
 30
0.0
 10
6.5318330716
 20
10.5349051973
 30
0.0
 10
6.4595052545
 20
10.5351767368
 30
0.0
 10
6.3871723285
 20
10.5360021889
 30
0.0
 10
6.3148301957
 20
10.5379650851
 30
0.0
 10
6.2666350409
 20
10.5405717094
 30
0.0
 10
6.2425634484
 20
10.5423576882
 30
0.0
  0
SPLINE
  5
23D
100
AcDbEntity
  8
0
100
AcDbSpline
 62
7
  6
BYLAYER
 70
0
 71
3
 72
13
 73
9
 74
0
 42
0.0000001
 43
0.0000001
 44
0.0000000001
 40
0.0
 40
0.0
 40
0.0
 40
0.0
 40
0.2389496743
 40
0.4809603146
 40
0.6046241858
 40
0.7313152365
 40
0.862485857
 40
1.0
 40
1.0
 40
1.0
 40
1.0
 10
6.2425634484
 20
10.5423576882
 30
0.0
 10
6.2052572023
 20
10.5451256049
 30
0.0
 10
6.1302990538
 20
10.5530380543
 30
0.0
 10
6.0374039305
 20
10.5726478592
 30
0.0
 10
5.9641628691
 20
10.596933719
 30
0.0
 10
5.9092444237
 20
10.6206468273
 30
0.0
 10
5.8550509902
 20
10.6507754938
 30
0.0
 10
5.8206753538
 20
10.6752097145
 30
0.0
 10
5.8038801537
 20
10.6886781676
 30
0.0
  0
SPLINE
  5
23E
100
AcDbEntity
  8
0
100
AcDbSpline
 62
7
  6
BYLAYER
 70
0
 71
3
 72
29
 73
25
 74
0
 42
0.0000001
 43
0.0000001
 44
0.0000000001
 40
0.0
 40
0.0
 40
0.0
 40
0.0
 40
0.0312514367
 40
0.0625084885
 40
0.0937619066
 40
0.1250139165
 40
0.1562671439
 40
0.1875179736
 40
0.2500146646
 40
0.3125115056
 40
0.3750078828
 40
0.4375039654
 40
0.5
 40
0.5624960346
 40
0.6249921172
 40
0.6874884944
 40
0.7499853354
 40
0.8124820264
 40
0.8437328561
 40
0.8749860835
 40
0.9062380934
 40
0.9374915115
 40
0.9687485633
 40
1.0
 40
1.0
 40
1.0
 40
1.0
 10
10.5670198745
 20
10.6886781676
 30
0.0
 10
10.5359996476
 20
10.6762402548
 30
0.0
 10
10.4730001103
 20
10.6536934559
 30
0.0
 10
10.3765845712
 20
10.6259662871
 30
0.0
 10
10.2788205407
 20
10.6034935092
 30
0.0
 10
10.1801507798
 20
10.585504118
 30
0.0
 10
10.0808691046
 20
10.5713492554
 30
0.0
 10
9.9479706416
 20
10.5567616822
 30
0.0
 10
9.7812156613
 20
10.5452236284
 30
0.0
 10
9.5808071814
 20
10.5383875697
 30
0.0
 10
9.3803132887
 20
10.5356776159
 30
0.0
 10
9.1798101693
 20
10.5349457816
 30
0.0
 10
8.9793066342
 20
10.5348551755
 30
0.0
 10
8.7788030991
 20
10.5349457816
 30
0.0
 10
8.5782999797
 20
10.5356776159
 30
0.0
 10
8.377806087
 20
10.5383875697
 30
0.0
 10
8.1773976071
 20
10.5452236284
 30
0.0
 10
8.0106426268
 20
10.5567616822
 30
0.0
 10
7.8777441638
 20
10.5713492554
 30
0.0
 10
7.7784624886
 20
10.585504118
 30
0.0
 10
7.6797927277
 20
10.6034935092
 30
0.0
 10
7.5820286972
 20
10.6259662871
 30
0.0
 10
7.4856131581
 20
10.6536934559
 30
0.0
 10
7.4226136208
 20
10.6762402548
 30
0.0
 10
7.3915933939
 20
10.6886781676
 30
0.0
  0
SPLINE
  5
23F
100
AcDbEntity
  8
0
100
AcDbSpline
 62
7
  6
BYLAYER
 70
0
 71
3
 72
13
 73
9
 74
0
 42
0.0000001
 43
0.0000001
 44
0.0000000001
 40
0.0
 40
0.0
 40
0.0
 40
0.0
 40
0.137514143
 40
0.2686847635
 40
0.3953758142
 40
0.5190396854
 40
0.7610503257
 40
1.0
 40
1.0
 40
1.0
 40
1.0
 10
12.1547331147
 20
10.6886781676
 30
0.0
 10
12.1379379146
 20
10.6752097145
 30
0.0
 10
12.1035622782
 20
10.6507754938
 30
0.0
 10
12.0493688447
 20
10.6206468273
 30
0.0
 10
11.9944503993
 20
10.596933719
 30
0.0
 10
11.9212093379
 20
10.5726478592
 30
0.0
 10
11.8283142146
 20
10.5530380543
 30
0.0
 10
11.7533560661
 20
10.5451256049
 30
0.0
 10
11.71604982
 20
10.5423576882
 30
0.0
  0
SPLINE
  5
240
100
AcDbEntity
  8
0
100
AcDbSpline
 62
7
  6
BYLAYER
 70
0
 71
3
 72
23
 73
19
 74
0
 42
0.0000001
 43
0.0000001
 44
0.0000000001
 40
0.0
 40
0.0
 40
0.0
 40
0.0
 40
0.0613511537
 40
0.1226487412
 40
0.1839301423
 40
0.24520826
 40
0.3064858495
 40
0.3677634618
 40
0.4290418349
 40
0.4903246947
 40
0.5516279268
 40
0.6129963039
 40
0.674534337
 40
0.7364535874
 40
0.7991347666
 40
0.8632121547
 40
0.9296814973
 40
1.0
 40
1.0
 40
1.0
 40
1.0
 10
11.71604982
 20
10.5423576882
 30
0.0
 10
11.6919782275
 20
10.5405717094
 30
0.0
 10
11.6437830727
 20
10.5379650851
 30
0.0
 10
11.5714409399
 20
10.5360021889
 30
0.0
 10
11.4991080138
 20
10.5351767368
 30
0.0
 10
11.4267801968
 20
10.5349051973
 30
0.0
 10
11.3544534926
 20
10.5348694288
 30
0.0
 10
11.2821267319
 20
10.534931422
 30
0.0
 10
11.2097983003
 20
10.5352657994
 30
0.0
 10
11.1374643412
 20
10.5362507739
 30
0.0
 10
11.0651187019
 20
10.5384911505
 30
0.0
 10
10.9927597581
 20
10.5428433979
 30
0.0
 10
10.9203985504
 20
10.5503350792
 30
0.0
 10
10.8480788644
 20
10.5622290189
 30
0.0
 10
10.7759138171
 20
10.5800319769
 30
0.0
 10
10.7041269514
 20
10.6055211373
 30
0.0
 10
10.6331754821
 20
10.6407949556
 30
0.0
 10
10.5886030039
 20
10.6713701651
 30
0.0
 10
10.5670198745
 20
10.6886781676
 30
0.0
  0
SPLINE
  5
241
100
AcDbEntity
  8
0
100
AcDbSpline
 62
7
  6
BYLAYER
 70
0
 71
3
 72
23
 73
19
 74
0
 42
0.0000001
 43
0.0000001
 44
0.0000000001
 40
0.0
 40
0.0
 40
0.0
 40
0.0
 40
0.0703185027
 40
0.1367878453
 40
0.2008652334
 40
0.2635464126
 40
0.325465663
 40
0.3870036961
 40
0.4483720732
 40
0.5096753053
 40
0.5709581651
 40
0.6322365382
 40
0.6935141505
 40
0.75479174
 40
0.8160698577
 40
0.8773512588
 40
0.9386488463
 40
1.0
 40
1.0
 40
1.0
 40
1.0
 10
10.5670198745
 20
12.7808693554
 30
0.0
 10
10.5886030039
 20
12.7981773579
 30
0.0
 10
10.6331754821
 20
12.8287525674
 30
0.0
 10
10.7041269514
 20
12.8640263857
 30
0.0
 10
10.7759138171
 20
12.8895155462
 30
0.0
 10
10.8480788644
 20
12.9073185041
 30
0.0
 10
10.9203985504
 20
12.9192124438
 30
0.0
 10
10.9927597582
 20
12.9267041251
 30
0.0
 10
11.065118702
 20
12.9310563725
 30
0.0
 10
11.1374643412
 20
12.9332967491
 30
0.0
 10
11.2097983004
 20
12.9342817237
 30
0.0
 10
11.2821267319
 20
12.934616101
 30
0.0
 10
11.3544534926
 20
12.9346780942
 30
0.0
 10
11.4267801968
 20
12.9346423257
 30
0.0
 10
11.4991080139
 20
12.9343707862
 30
0.0
 10
11.5714409399
 20
12.9335453341
 30
0.0
 10
11.6437830727
 20
12.931582438
 30
0.0
 10
11.6919782275
 20
12.9289758136
 30
0.0
 10
11.71604982
 20
12.9271898348
 30
0.0
  0
SPLINE
  5
242
100
AcDbEntity
  8
0
100
AcDbSpline
 62
7
  6
BYLAYER
 70
0
 71
3
 72
13
 73
9
 74
0
 42
0.0000001
 43
0.0000001
 44
0.0000000001
 40
0.0
 40
0.0
 40
0.0
 40
0.0
 40
0.2389496743
 40
0.4809603146
 40
0.6046241858
 40
0.7313152365
 40
0.862485857
 40
1.0
 40
1.0
 40
1.0
 40
1.0
 10
11.71604982
 20
12.9271898348
 30
0.0
 10
11.7533560661
 20
12.9244219181
 30
0.0
 10
11.8283142146
 20
12.9165094687
 30
0.0
 10
11.9212093379
 20
12.8968996638
 30
0.0
 10
11.9944503993
 20
12.872613804
 30
0.0
 10
12.0493688447
 20
12.8489006957
 30
0.0
 10
12.1035622782
 20
12.8187720292
 30
0.0
 10
12.1379379146
 20
12.7943378085
 30
0.0
 10
12.1547331147
 20
12.7808693554
 30
0.0
  0
SPLINE
  5
243
100
AcDbEntity
  8
0
100
AcDbSpline
 62
7
  6
BYLAYER
 70
0
 71
3
 72
29
 73
25
 74
0
 42
0.0000001
 43
0.0000001
 44
0.0000000001
 40
0.0
 40
0.0
 40
0.0
 40
0.0
 40
0.0312514367
 40
0.0625084885
 40
0.0937619066
 40
0.1250139165
 40
0.1562671439
 40
0.1875179736
 40
0.2500146646
 40
0.3125115056
 40
0.3750078828
 40
0.4375039654
 40
0.5
 40
0.5624960346
 40
0.6249921172
 40
0.6874884944
 40
0.7499853354
 40
0.8124820264
 40
0.8437328561
 40
0.8749860835
 40
0.9062380934
 40
0.9374915115
 40
0.9687485633
 40
1.0
 40
1.0
 40
1.0
 40
1.0
 10
7.3915933939
 20
12.7808693554
 30
0.0
 10
7.4226136208
 20
12.7933072682
 30
0.0
 10
7.4856131581
 20
12.8158540671
 30
0.0
 10
7.5820286972
 20
12.8435812359
 30
0.0
 10
7.6797927277
 20
12.8660540138
 30
0.0
 10
7.7784624886
 20
12.884043405
 30
0.0
 10
7.8777441638
 20
12.8981982677
 30
0.0
 10
8.0106426268
 20
12.9127858408
 30
0.0
 10
8.1773976071
 20
12.9243238946
 30
0.0
 10
8.377806087
 20
12.9311599534
 30
0.0
 10
8.5782999797
 20
12.9338699071
 30
0.0
 10
8.7788030991
 20
12.9346017414
 30
0.0
 10
8.9793066342
 20
12.9346923475
 30
0.0
 10
9.1798101693
 20
12.9346017414
 30
0.0
 10
9.3803132887
 20
12.9338699071
 30
0.0
 10
9.5808071814
 20
12.9311599534
 30
0.0
 10
9.7812156613
 20
12.9243238946
 30
0.0
 10
9.9479706416
 20
12.9127858408
 30
0.0
 10
10.0808691046
 20
12.8981982677
 30
0.0
 10
10.1801507798
 20
12.884043405
 30
0.0
 10
10.2788205407
 20
12.8660540138
 30
0.0
 10
10.3765845712
 20
12.8435812359
 30
0.0
 10
10.4730001103
 20
12.8158540671
 30
0.0
 10
10.5359996476
 20
12.7933072682
 30
0.0
 10
10.5670198745
 20
12.7808693554
 30
0.0
  0
SPLINE
  5
244
100
AcDbEntity
  8
0
100
AcDbSpline
 62
7
  6
BYLAYER
 70
0
 71
3
 72
13
 73
9
 74
0
 42
0.0000001
 43
0.0000001
 44
0.0000000001
 40
0.0
 40
0.0
 40
0.0
 40
0.0
 40
0.137514143
 40
0.2686847635
 40
0.3953758142
 40
0.5190396854
 40
0.7610503257
 40
1.0
 40
1.0
 40
1.0
 40
1.0
 10
5.8038801537
 20
12.7808693554
 30
0.0
 10
5.8206753538
 20
12.7943378085
 30
0.0
 10
5.8550509902
 20
12.8187720292
 30
0.0
 10
5.9092444237
 20
12.8489006957
 30
0.0
 10
5.9641628691
 20
12.872613804
 30
0.0
 10
6.0374039305
 20
12.8968996638
 30
0.0
 10
6.1302990538
 20
12.9165094687
 30
0.0
 10
6.2052572023
 20
12.9244219181
 30
0.0
 10
6.2425634484
 20
12.9271898348
 30
0.0
  0
SPLINE
  5
245
100
AcDbEntity
  8
0
100
AcDbSpline
 62
7
  6
BYLAYER
 70
0
 71
3
 72
23
 73
19
 74
0
 42
0.0000001
 43
0.0000001
 44
0.0000000001
 40
0.0
 40
0.0
 40
0.0
 40
0.0
 40
0.0613511537
 40
0.1226487412
 40
0.1839301423
 40
0.24520826
 40
0.3064858495
 40
0.3677634618
 40
0.4290418349
 40
0.4903246947
 40
0.5516279268
 40
0.6129963039
 40
0.674534337
 40
0.7364535874
 40
0.7991347666
 40
0.8632121547
 40
0.9296814973
 40
1.0
 40
1.0
 40
1.0
 40
1.0
 10
6.2425634484
 20
12.9271898348
 30
0.0
 10
6.2666350409
 20
12.9289758136
 30
0.0
 10
6.3148301957
 20
12.931582438
 30
0.0
 10
6.3871723285
 20
12.9335453341
 30
0.0
 10
6.4595052546
 20
12.9343707862
 30
0.0
 10
6.5318330716
 20
12.9346423257
 30
0.0
 10
6.6041597758
 20
12.9346780942
 30
0.0
 10
6.6764865365
 20
12.934616101
 30
0.0
 10
6.748814968
 20
12.9342817237
 30
0.0
 10
6.8211489272
 20
12.9332967491
 30
0.0
 10
6.8934945664
 20
12.9310563725
 30
0.0
 10
6.9658535102
 20
12.9267041251
 30
0.0
 10
7.038214718
 20
12.9192124438
 30
0.0
 10
7.110534404
 20
12.9073185041
 30
0.0
 10
7.1826994513
 20
12.8895155462
 30
0.0
 10
7.254486317
 20
12.8640263857
 30
0.0
 10
7.3254377863
 20
12.8287525674
 30
0.0
 10
7.3700102645
 20
12.7981773579
 30
0.0
 10
7.3915933939
 20
12.7808693554
 30
0.0
  0
ENDSEC
  0
SECTION
  2
OBJECTS
  0
DICTIONARY
  5
C
100
AcDbDictionary
280
0
281
1
  3
ACAD_GROUP
350
D
  3
ACAD_MLINESTYLE
350
17
  3
ACAD_LAYOUT
350
1A
  3
ACAD_PLOTSETTINGS
350
19
  3
ACAD_PLOTSTYLENAME
350
E
  0
DICTIONARY
  5
D
102
{ACAD_REACTORS
330
C
102
}
100
AcDbDictionary
280
0
281
1
  0
ACDBDICTIONARYWDFLT
  5
E
102
{ACAD_REACTORS
330
C
102
}
100
AcDbDictionary
281
1
  3
Normal
350
F
100
AcDbDictionaryWithDefault
340
F
  0
DICTIONARY
  5
17
102
{ACAD_REACTORS
330
C
102
}
100
AcDbDictionary
280
0
281
1
  3
Standard
350
18
  0
DICTIONARY
  5
19
102
{ACAD_REACTORS
330
C
102
}
100
AcDbDictionary
281
1
  0
DICTIONARY
  5
1A
102
{ACAD_REACTORS
330
C
102
}
100
AcDbDictionary
281
1
  3
Model
350
246
  3
Layout1
350
247
  0
ACDBPLACEHOLDER
  5
F
102
{ACAD_REACTORS
330
E
102
}
  0
MLINESTYLE
  5
18
102
{ACAD_REACTORS
330
17
102
}
100
AcDbMlineStyle
  2
STANDARD
 70
0
  3

 62
256
 51
90.0
 52
90.0
 71
2
 49
0.5
 62
256
  6
BYLAYER
 49
-0.5
 62
256
  6
BYLAYER
  0
LAYOUT
  5
246
102
{ACAD_REACTORS
330
1A
102
}
100
AcDbPlotSettings
  1

  2
none_device
  4

  6

 40
0.0
 41
0.0
 42
0.0
 43
0.0
 44
210.0
 45
297.0
 46
0.0
 47
0.0
 48
0.0
 49
0.0
140
0.0
141
0.0
142
1.0
143
1.0
 70
1024
 72
1
 73
0
 74
0
  7

 75
0
147
1.0
148
0.0
149
0.0
100
AcDbLayout
  1
Model
 70
0
 71
0
 10
0.0
 20
0.0
 11
210.0
 21
297.0
 12
0.0
 22
0.0
 32
0.0
 14
0.0
 24
0.0
 34
0.0
 15
0.0
 25
0.0
 35
0.0
146
0.0
 13
0.0
 23
0.0
 33
0.0
 16
1.0
 26
0.0
 36
0.0
 17
0.0
 27
1.0
 37
0.0
 76
0
330
210
345
0
346
0
  0
LAYOUT
  5
247
102
{ACAD_REACTORS
330
1A
102
}
100
AcDbPlotSettings
  1

  2
none_device
  4

  6

 40
0.0
 41
0.0
 42
0.0
 43
0.0
 44
210.0
 45
297.0
 46
0.0
 47
0.0
 48
0.0
 49
0.0
140
0.0
141
0.0
142
1.0
143
1.0
 70
0
 72
1
 73
0
 74
0
  7

 75
0
147
1.0
148
0.0
149
0.0
100
AcDbLayout
  1
Layout1
 70
0
 71
1
 10
0.0
 20
0.0
 11
210.0
 21
297.0
 12
0.0
 22
0.0
 32
0.0
 14
0.0
 24
0.0
 34
0.0
 15
0.0
 25
0.0
 35
0.0
146
0.0
 13
0.0
 23
0.0
 33
0.0
 16
1.0
 26
0.0
 36
0.0
 17
0.0
 27
1.0
 37
0.0
 76
0
330
211
345
0
346
0
  0
ENDSEC
  0
EOF
