999
DXF file: C:\Users\sesa63760\Dev\_Creo\CAD\MCADID0004691_3D-CAD\drw0001_6.dxf
999
Pro/ENGINEER 2019471 by Parametric Technology Corporation
  0
SECTION
  2
HEADER
  9
$ACADVER
  1
AC1024
  9
$DWGCODEPAGE
  3
ANSI_1252
  9
$EXTMAX
 10
289.6492561055
 20
409.6468050635
 30
0.0
  9
$EXTMIN
 10
0.0
 20
0.0
 30
0.0
  9
$LIMMIN
 10
0.0
 20
0.0
  9
$LIMMAX
 10
289.6492561055
 20
409.6468050635
  9
$VIEWCTR
 10
144.8246280528
 20
204.8234025318
  9
$VIEWSIZE
 40
409.6468050635
  9
$CLAYER
  8
0
  9
$LTSCALE
 40
26.7029028486
  9
$CELTYPE
  6
BYLAYER
  9
$DIMSCALE
 40
1.0
  9
$DIMASZ
 40
3.4482054298
  9
$DIMEXO
 40
1.0
  9
$DIMDLI
 40
18.4492783318
  9
$DIMEXE
 40
1.0
  9
$DIMCEN
 40
4.3695659207
  9
$DIMLFAC
 40
1.0
  9
$DIMBLK
  1
_FILLED
  9
$DIMALT
 70
0
  9
$DIMALTF
 40
0.0393700787
  9
$DIMTXT
 40
4.8274876018
  9
$DIMTOL
 70
1
  9
$DIMLIM
 70
0
  9
$DIMTFAC
 40
1.0
  9
$DIMTP
 40
0.01
  9
$DIMTM
 40
0.01
  9
$DIMGAP
 40
0.625
  9
$DIMDSEP
 70
46
  9
$AUNITS
 70
0
  9
$PDMODE
 70
3
  9
$PDSIZE
 40
0.3125
  9
$HANDSEED
  5
2F3
  9
$TILEMODE
 70
1
  9
$MEASUREMENT
 70
1
  9
$INSUNITS
 70
4
  0
ENDSEC
  0
SECTION
  2
CLASSES
  0
CLASS
  1
ACDBDICTIONARYWDFLT
  2
AcDbDictionaryWithDefault
  3
AutoCAD 2000
 90
0
 91
1
280
0
281
0
  0
CLASS
  1
ACDBPLACEHOLDER
  2
AcDbPlaceHolder
  3
AutoCAD 2000
 90
0
 91
1
280
0
281
0
  0
CLASS
  1
LAYOUT
  2
AcDbLayout
  3
AutoCAD 2000
 90
0
 91
0
280
0
281
0
  0
ENDSEC
  0
SECTION
  2
TABLES
  0
TABLE
  2
VPORT
  5
8
100
AcDbSymbolTable
 70
2
  0
VPORT
  5
1F4
100
AcDbSymbolTableRecord
100
AcDbViewportTableRecord
  2
*ACTIVE
 70
0
 10
0.0
 20
0.0
 11
1.0
 21
1.0
 12
144.8246280528
 22
204.8234025318
 13
0.0
 23
0.0
 14
1.0
 24
1.0
 15
0.0
 25
0.0
 16
0.0
 26
0.0
 36
1.0
 17
0.0
 27
0.0
 37
0.0
 40
409.6468050635
 41
0.7070707071
 42
50.0
 43
0.0
 44
0.0
 50
0.0
 51
0.0
 71
0
 72
100
 73
1
 74
1
 75
0
 76
0
 77
0
 78
0
  0
ENDTAB
  0
TABLE
  2
LTYPE
  5
5
100
AcDbSymbolTable
 70
6
  0
LTYPE
  5
14
100
AcDbSymbolTableRecord
100
AcDbLinetypeTableRecord
  2
BYBLOCK
 70
0
  3

 72
65
 73
0
 40
0.0
  0
LTYPE
  5
15
100
AcDbSymbolTableRecord
100
AcDbLinetypeTableRecord
  2
BYLAYER
 70
0
  3

 72
65
 73
0
 40
0.0
  0
LTYPE
  5
16
100
AcDbSymbolTableRecord
100
AcDbLinetypeTableRecord
  2
CONTINUOUS
 70
64
  3
Solid line
 72
65
 73
0
 40
0.0
  0
LTYPE
  5
1F5
100
AcDbSymbolTableRecord
100
AcDbLinetypeTableRecord
  2
CENTER
 70
64
  3
____ _ ____ _ ____ _ ____ _ ____ _ ____ _ ____
 72
65
 73
4
 40
0.6
 49
0.375
 74
0
 49
-0.075
 74
0
 49
0.075
 74
0
 49
-0.075
 74
0
  0
LTYPE
  5
1F6
100
AcDbSymbolTableRecord
100
AcDbLinetypeTableRecord
  2
HIDDEN
 70
64
  3
- - - - - - - - - - - - - - - - - - - -
 72
65
 73
2
 40
0.2
 49
0.1
 74
0
 49
-0.1
 74
0
  0
LTYPE
  5
1F7
100
AcDbSymbolTableRecord
100
AcDbLinetypeTableRecord
  2
PHANTOM
 70
64
  3
_____ _ _ _____ _ _ _____ _ _ _____
 72
65
 73
6
 40
0.8
 49
0.45
 74
0
 49
-0.05
 74
0
 49
0.1
 74
0
 49
-0.05
 74
0
 49
0.1
 74
0
 49
-0.05
 74
0
  0
LTYPE
  5
1F8
100
AcDbSymbolTableRecord
100
AcDbLinetypeTableRecord
  2
DOT
 70
64
  3
. . . . . . . . . . . . . . . . . . . .
 72
65
 73
2
 40
0.2
 49
0.1
 74
0
 49
-0.1
 74
0
  0
LTYPE
  5
1F9
100
AcDbSymbolTableRecord
100
AcDbLinetypeTableRecord
  2
DASHED
 70
64
  3
- - - - - - - - - - - - - - - - - - - -
 72
65
 73
2
 40
0.2
 49
0.1
 74
0
 49
-0.1
 74
0
  0
ENDTAB
  0
TABLE
  2
LAYER
  5
2
100
AcDbSymbolTable
 70
36
  0
LAYER
  5
10
100
AcDbSymbolTableRecord
100
AcDbLayerTableRecord
  2
0
 70
0
 62
7
  6
CONTINUOUS
370
-3
390
F
  0
LAYER
  5
1FA
100
AcDbSymbolTableRecord
100
AcDbLayerTableRecord
  2
DEFAULT_1
 70
0
 62
7
  6
CENTER
370
-3
390
F
  0
LAYER
  5
1FB
100
AcDbSymbolTableRecord
100
AcDbLayerTableRecord
  2
DEFAULT_2
 70
0
 62
7
  6
HIDDEN
370
-3
390
F
  0
LAYER
  5
1FC
100
AcDbSymbolTableRecord
100
AcDbLayerTableRecord
  2
DEFAULT_3
 70
0
 62
7
  6
PHANTOM
370
-3
390
F
  0
LAYER
  5
1FD
100
AcDbSymbolTableRecord
100
AcDbLayerTableRecord
  2
00_COMPONENTS
 70
0
 62
7
  6
CONTINUOUS
370
-3
390
F
  0
LAYER
  5
1FE
100
AcDbSymbolTableRecord
100
AcDbLayerTableRecord
  2
01_1_DEFAULT_DATUMS
 70
0
 62
7
  6
CONTINUOUS
370
-3
390
F
  0
LAYER
  5
1FF
100
AcDbSymbolTableRecord
100
AcDbLayerTableRecord
  2
01_PLANES
 70
0
 62
7
  6
CONTINUOUS
370
-3
390
F
  0
LAYER
  5
200
100
AcDbSymbolTableRecord
100
AcDbLayerTableRecord
  2
02_COORD_SYS
 70
0
 62
7
  6
CONTINUOUS
370
-3
390
F
  0
LAYER
  5
201
100
AcDbSymbolTableRecord
100
AcDbLayerTableRecord
  2
03_AXES
 70
0
 62
7
  6
CONTINUOUS
370
-3
390
F
  0
LAYER
  5
202
100
AcDbSymbolTableRecord
100
AcDbLayerTableRecord
  2
04_POINTS
 70
0
 62
7
  6
CONTINUOUS
370
-3
390
F
  0
LAYER
  5
203
100
AcDbSymbolTableRecord
100
AcDbLayerTableRecord
  2
05_CURVES
 70
0
 62
7
  6
CONTINUOUS
370
-3
390
F
  0
LAYER
  5
204
100
AcDbSymbolTableRecord
100
AcDbLayerTableRecord
  2
06_SURFS
 70
0
 62
7
  6
CONTINUOUS
370
-3
390
F
  0
LAYER
  5
205
100
AcDbSymbolTableRecord
100
AcDbLayerTableRecord
  2
07_COSMETICS
 70
0
 62
7
  6
CONTINUOUS
370
-3
390
F
  0
LAYER
  5
206
100
AcDbSymbolTableRecord
100
AcDbLayerTableRecord
  2
10_NOTES
 70
0
 62
7
  6
CONTINUOUS
370
-3
390
F
  0
LAYER
  5
207
100
AcDbSymbolTableRecord
100
AcDbLayerTableRecord
  2
11_NOTES_PUB
 70
0
 62
7
  6
CONTINUOUS
370
-3
390
F
  0
LAYER
  5
208
100
AcDbSymbolTableRecord
100
AcDbLayerTableRecord
  2
13_REF_GTOL
 70
0
 62
7
  6
CONTINUOUS
370
-3
390
F
  0
LAYER
  5
209
100
AcDbSymbolTableRecord
100
AcDbLayerTableRecord
  2
16_MISC
 70
0
 62
7
  6
CONTINUOUS
370
-3
390
F
  0
LAYER
  5
20A
100
AcDbSymbolTableRecord
100
AcDbLayerTableRecord
  2
17_NO_PRINT
 70
0
 62
7
  6
CONTINUOUS
370
-3
390
F
  0
LAYER
  5
20B
100
AcDbSymbolTableRecord
100
AcDbLayerTableRecord
  2
18_DATUM_CAMS_JOINTS
 70
0
 62
7
  6
CONTINUOUS
370
-3
390
F
  0
LAYER
  5
20C
100
AcDbSymbolTableRecord
100
AcDbLayerTableRecord
  2
19_DATUM_FUNCTIONAL
 70
0
 62
7
  6
CONTINUOUS
370
-3
390
F
  0
LAYER
  5
20D
100
AcDbSymbolTableRecord
100
AcDbLayerTableRecord
  2
20_DATUM_KINEMATIC_SCHEME
 70
0
 62
7
  6
CONTINUOUS
370
-3
390
F
  0
ENDTAB
  0
TABLE
  2
STYLE
  5
3
100
AcDbSymbolTable
 70
1
  0
STYLE
  5
11
100
AcDbSymbolTableRecord
100
AcDbTextStyleTableRecord
  2
STANDARD
 70
0
 40
0.0
 41
1.0
 50
0.0
 71
0
 42
0.2
  3
ARIAL.TTF
  4

  0
STYLE
  5
20E
100
AcDbSymbolTableRecord
100
AcDbTextStyleTableRecord
  2
TEXTSTYLE_1
 70
0
 40
0.0
 41
0.8
 50
0.0
 71
0
 42
0.2
  3
gdt
  4

  0
ENDTAB
  0
TABLE
  2
VIEW
  5
6
100
AcDbSymbolTable
 70
0
  0
ENDTAB
  0
TABLE
  2
UCS
  5
7
100
AcDbSymbolTable
 70
0
  0
ENDTAB
  0
TABLE
  2
APPID
  5
9
100
AcDbSymbolTable
 70
1
  0
APPID
  5
20F
100
AcDbSymbolTableRecord
100
AcDbRegAppTableRecord
  2
ACAD
 70
0
  0
ENDTAB
  0
TABLE
  2
BLOCK_RECORD
  5
1
100
AcDbSymbolTable
 70
0
  0
BLOCK_RECORD
  5
210
100
AcDbSymbolTableRecord
100
AcDbBlockTableRecord
  2
*Model_Space
  0
BLOCK_RECORD
  5
211
100
AcDbSymbolTableRecord
100
AcDbBlockTableRecord
  2
*Paper_Space
  0
BLOCK_RECORD
  5
212
100
AcDbSymbolTableRecord
100
AcDbBlockTableRecord
  2
_FILLED
  0
ENDTAB
  0
TABLE
  2
DIMSTYLE
  5
A
100
AcDbSymbolTable
 70
1
100
AcDbDimStyleTable
 71
0
  0
DIMSTYLE
105
213
100
AcDbSymbolTableRecord
100
AcDbDimStyleTableRecord
  2
STANDARD
 70
0
  3

  4

 40
1.0
 41
3.4482054298
 42
1.0
 43
0.38
 44
1.0
 45
0.0
 46
0.0
 47
0.01
 48
0.01
140
4.8274876018
141
0.09
142
0.0
143
25.4
144
1.0
145
0.0
146
1.0
147
0.625
 71
1
 72
0
 73
0
 74
0
 75
0
 76
0
 77
1
 78
8
 79
2
170
0
171
1
172
0
173
0
174
0
175
0
176
0
177
0
178
0
270
2
179
2
271
2
272
2
273
2
274
2
275
0
280
0
281
0
282
0
283
1
284
8
285
0
286
0
287
3
288
0
340
11
278
46
341
212
342
212
343
212
344
212
  0
ENDTAB
  0
ENDSEC
  0
SECTION
  2
BLOCKS
  0
BLOCK
  5
20
100
AcDbEntity
  8
0
100
AcDbBlockBegin
  2
*Model_Space
 70
0
 10
0.0
 20
0.0
 30
0.0
  3
*Model_Space
  1

  0
ENDBLK
  5
21
100
AcDbEntity
  8
0
100
AcDbBlockEnd
  0
BLOCK
  5
1C
100
AcDbEntity
  8
0
100
AcDbBlockBegin
  2
*Paper_Space
 70
0
 10
0.0
 20
0.0
 30
0.0
  3
*Paper_Space
  1

  0
ENDBLK
  5
1D
100
AcDbEntity
  8
0
100
AcDbBlockEnd
  0
BLOCK
  5
214
100
AcDbEntity
  8
0
100
AcDbBlockBegin
  2
_FILLED
 70
64
 10
0.0
 20
0.0
  3
_FILLED
  1

  0
SOLID
  5
215
100
AcDbEntity
  8
0
  6
BYBLOCK
 62
0
100
AcDbTrace
 10
0.0
 20
0.0
 11
-1.0
 21
0.25
 12
-1.0
 22
-0.25
 13
-1.0
 23
-0.25
  0
ENDBLK
  5
216
100
AcDbEntity
  8
0
  6
BYBLOCK
 62
0
100
AcDbBlockEnd
  0
ENDSEC
  0
SECTION
  2
ENTITIES
  0
LINE
  5
217
100
AcDbEntity
  8
0
100
AcDbLine
 62
7
  6
BYLAYER
 10
32.7609059821
 20
208.4998595705
 11
32.7609059821
 21
209.6493310751
  0
LINE
  5
218
100
AcDbEntity
  8
0
100
AcDbLine
 62
7
  6
BYLAYER
 10
32.7609059821
 20
209.9140731327
 11
32.7609059821
 21
211.0635446373
  0
LINE
  5
219
100
AcDbEntity
  8
0
100
AcDbLine
 62
7
  6
BYLAYER
 10
82.7609059821
 20
207.4320095297
 11
82.7609059821
 21
212.1311897517
  0
LINE
  5
21A
100
AcDbEntity
  8
0
100
AcDbLine
 62
7
  6
BYLAYER
 10
225.7609059821
 20
214.537741396
 11
229.2609059821
 21
215.2816893618
  0
LINE
  5
21B
100
AcDbEntity
  8
0
100
AcDbLine
 62
7
  6
BYLAYER
 10
246.3862627025
 20
204.7346831199
 11
246.5848384734
 21
204.7544167036
  0
LINE
  5
21C
100
AcDbEntity
  8
0
100
AcDbLine
 62
7
  6
BYLAYER
 10
260.2146037221
 20
206.8160021416
 11
260.069755258
 21
206.8016077405
  0
LINE
  5
21D
100
AcDbEntity
  8
0
100
AcDbLine
 62
7
  6
BYLAYER
 10
246.5848384734
 20
205.4615362267
 11
246.3862627025
 21
205.441802643
  0
LINE
  5
21E
100
AcDbEntity
  8
0
100
AcDbLine
 62
7
  6
BYLAYER
 10
259.4590328603
 20
208.3319357709
 11
259.1327254324
 21
208.2995087789
  0
LINE
  5
21F
100
AcDbEntity
  8
0
100
AcDbLine
 62
7
  6
BYLAYER
 10
247.4681409924
 20
207.1403338596
 11
247.1418335645
 21
207.1079068676
  0
LINE
  5
220
100
AcDbEntity
  8
0
100
AcDbLine
 62
7
  6
BYLAYER
 10
246.6479661405
 20
204.1461407498
 11
239.2484732367
 21
204.1461408266
  0
LINE
  5
221
100
AcDbEntity
  8
0
100
AcDbLine
 62
7
  6
BYLAYER
 10
237.7609059821
 20
204.4816893618
 11
239.1371830957
 21
204.4816893618
  0
LINE
  5
222
100
AcDbEntity
  8
0
100
AcDbLine
 62
7
  6
BYLAYER
 10
229.2609059821
 20
204.7816893618
 11
237.7609059821
 21
204.7816893618
  0
LINE
  5
223
100
AcDbEntity
  8
0
100
AcDbLine
 62
7
  6
BYLAYER
 10
239.3020602553
 20
205.1293700139
 11
246.3078155831
 21
205.1293702071
  0
LINE
  5
224
100
AcDbEntity
  8
0
100
AcDbLine
 62
7
  6
BYLAYER
 10
239.3020602553
 20
205.8364895371
 11
246.3078157163
 21
205.8364896576
  0
LINE
  5
225
100
AcDbEntity
  8
0
100
AcDbLine
 62
7
  6
BYLAYER
 10
239.2484704168
 20
205.9784020936
 11
246.4821070736
 21
205.9784020936
  0
LINE
  5
226
100
AcDbEntity
  8
0
100
AcDbLine
 62
7
  6
BYLAYER
 10
225.7609059821
 20
207.4316893618
 11
82.7609059821
 21
207.4316893618
  0
LINE
  5
227
100
AcDbEntity
  8
0
100
AcDbLine
 62
7
  6
BYLAYER
 10
239.2484806373
 20
208.0352982037
 11
246.9575068214
 21
208.0352981237
  0
LINE
  5
228
100
AcDbEntity
  8
0
100
AcDbLine
 62
7
  6
BYLAYER
 10
32.7609059821
 20
208.4995953228
 11
82.7609059821
 21
208.4995953228
  0
LINE
  5
229
100
AcDbEntity
  8
0
100
AcDbLine
 62
7
  6
BYLAYER
 10
247.1934006965
 20
208.5226169935
 11
239.0877011709
 21
208.5226168877
  0
LINE
  5
22A
100
AcDbEntity
  8
0
100
AcDbLine
 62
7
  6
BYLAYER
 10
32.7609059821
 20
209.6495953228
 11
82.7609059821
 21
209.6495953228
  0
LINE
  5
22B
100
AcDbEntity
  8
0
100
AcDbLine
 62
7
  6
BYLAYER
 10
32.7609059821
 20
209.913808885
 11
82.7609059821
 21
209.913808885
  0
LINE
  5
22C
100
AcDbEntity
  8
0
100
AcDbLine
 62
7
  6
BYLAYER
 10
32.7609059821
 20
211.063808885
 11
82.7609059821
 21
211.063808885
  0
LINE
  5
22D
100
AcDbEntity
  8
0
100
AcDbLine
 62
7
  6
BYLAYER
 10
225.7609059821
 20
212.1316893618
 11
82.7609059821
 21
212.1316893618
  0
LINE
  5
22E
100
AcDbEntity
  8
0
100
AcDbLine
 62
7
  6
BYLAYER
 10
248.5998090385
 20
212.2232172981
 11
238.5609059821
 21
212.2232172981
  0
LINE
  5
22F
100
AcDbEntity
  8
0
100
AcDbLine
 62
7
  6
BYLAYER
 10
238.5609059821
 20
214.2702502763
 11
249.2609059821
 21
214.2702502763
  0
LINE
  5
230
100
AcDbEntity
  8
0
100
AcDbLine
 62
7
  6
BYLAYER
 10
258.7004610876
 20
214.4340085893
 11
258.4868094101
 21
214.4340067657
  0
LINE
  5
231
100
AcDbEntity
  8
0
100
AcDbLine
 62
7
  6
BYLAYER
 10
238.5609059821
 20
214.4859182226
 11
248.1500783675
 21
214.4859182226
  0
LINE
  5
232
100
AcDbEntity
  8
0
100
AcDbLine
 62
7
  6
BYLAYER
 10
229.2609059821
 20
214.7816893618
 11
237.7609059821
 21
214.7816893618
  0
LINE
  5
233
100
AcDbEntity
  8
0
100
AcDbLine
 62
7
  6
BYLAYER
 10
237.7609059821
 20
215.0816893618
 11
246.6144652972
 21
215.0816893618
  0
LINE
  5
234
100
AcDbEntity
  8
0
100
AcDbLine
 62
7
  6
BYLAYER
 10
258.0507699825
 20
215.4172379771
 11
257.5101659227
 21
215.4172379748
  0
LINE
  5
235
100
AcDbEntity
  8
0
100
AcDbLine
 62
7
  6
BYLAYER
 10
246.1513314453
 20
215.4172379265
 11
239.2484732362
 21
215.4172378971
  0
LINE
  5
236
100
AcDbEntity
  8
0
100
AcDbLine
 62
7
  6
BYLAYER
 10
225.7609059821
 20
205.0256373277
 11
229.2609059821
 21
204.2816893618
  0
LINE
  5
237
100
AcDbEntity
  8
0
100
AcDbLine
 62
7
  6
BYLAYER
 10
257.3772046131
 20
199.2170930962
 11
257.0703142713
 21
198.9674548729
  0
LINE
  5
238
100
AcDbEntity
  8
0
100
AcDbLine
 62
7
  6
BYLAYER
 10
258.0506296445
 20
198.3648616742
 11
258.3575199864
 21
198.6144998974
  0
LINE
  5
239
100
AcDbEntity
  8
0
100
AcDbLine
 62
7
  6
BYLAYER
 10
225.7609059821
 20
205.0257022657
 11
225.7609059821
 21
214.537676458
  0
LINE
  5
23A
100
AcDbEntity
  8
0
100
AcDbLine
 62
7
  6
BYLAYER
 10
229.2609059821
 20
215.2816677335
 11
229.2609059821
 21
204.2817109902
  0
LINE
  5
23B
100
AcDbEntity
  8
0
100
AcDbLine
 62
7
  6
BYLAYER
 10
257.0703142713
 20
198.2674422591
 11
256.8741154211
 21
198.5297394113
  0
LINE
  5
23C
100
AcDbEntity
  8
0
100
AcDbLine
 62
7
  6
BYLAYER
 10
237.7609059821
 20
204.4817617268
 11
237.7609059821
 21
215.0806645596
  0
LINE
  5
23D
100
AcDbEntity
  8
0
100
AcDbLine
 62
7
  6
BYLAYER
 10
238.5609059821
 20
214.4859182226
 11
238.5609059821
 21
212.2232172981
  0
LINE
  5
23E
100
AcDbEntity
  8
0
100
AcDbLine
 62
7
  6
BYLAYER
 10
239.0877009013
 20
208.5226168534
 11
239.0877009013
 21
204.6334596506
  0
LINE
  5
23F
100
AcDbEntity
  8
0
100
AcDbLine
 62
7
  6
BYLAYER
 10
239.2484704168
 20
204.1461407106
 11
239.2484704168
 21
205.2712825705
  0
LINE
  5
240
100
AcDbEntity
  8
0
100
AcDbLine
 62
7
  6
BYLAYER
 10
239.2484704168
 20
205.9784020936
 11
239.2484704168
 21
208.0352982397
  0
LINE
  5
241
100
AcDbEntity
  8
0
100
AcDbLine
 62
7
  6
BYLAYER
 10
239.3020602553
 20
205.1293700067
 11
239.3020602553
 21
205.8364895424
  0
LINE
  5
242
100
AcDbEntity
  8
0
100
AcDbLine
 62
7
  6
BYLAYER
 10
248.0386339427
 20
196.6839315589
 11
248.1054527271
 21
196.0083028916
  0
LINE
  5
243
100
AcDbEntity
  8
0
100
AcDbLine
 62
7
  6
BYLAYER
 10
247.2745208157
 20
198.7501265397
 11
247.3445939281
 21
198.0406993191
  0
LINE
  5
244
100
AcDbEntity
  8
0
100
AcDbLine
 62
7
  6
BYLAYER
 10
247.6878323806
 20
198.1089208642
 11
247.6211146397
 21
198.7845695042
  0
LINE
  5
245
100
AcDbEntity
  8
0
100
AcDbLine
 62
7
  6
BYLAYER
 10
246.5092002116
 20
202.2419049376
 11
246.43948221
 21
202.9514024303
  0
LINE
  5
246
100
AcDbEntity
  8
0
100
AcDbLine
 62
7
  6
BYLAYER
 10
249.506445901
 20
196.6506997075
 11
249.4544494952
 21
197.1816505882
  0
LINE
  5
247
100
AcDbEntity
  8
0
100
AcDbLine
 62
7
  6
BYLAYER
 10
247.3440069216
 20
198.0405830899
 11
246.5089683159
 21
202.2418589806
  0
LINE
  5
248
100
AcDbEntity
  8
0
100
AcDbLine
 62
7
  6
BYLAYER
 10
248.1048111864
 20
196.0081758925
 11
247.6872918835
 21
198.1088138378
  0
LINE
  5
249
100
AcDbEntity
  8
0
100
AcDbLine
 62
7
  6
BYLAYER
 10
246.3406758861
 20
204.9640418005
 11
246.3078155831
 21
205.1293702071
  0
LINE
  5
24A
100
AcDbEntity
  8
0
100
AcDbLine
 62
7
  6
BYLAYER
 10
246.3078157163
 20
205.8364896576
 11
246.3862627025
 21
205.441802643
  0
LINE
  5
24B
100
AcDbEntity
  8
0
100
AcDbLine
 62
7
  6
BYLAYER
 10
246.5848384733
 20
205.4615362267
 11
246.4821070736
 21
205.9784020936
  0
LINE
  5
24C
100
AcDbEntity
  8
0
100
AcDbLine
 62
7
  6
BYLAYER
 10
246.9575068214
 20
208.0352981237
 11
247.1418335645
 21
207.1079068676
  0
LINE
  5
24D
100
AcDbEntity
  8
0
100
AcDbLine
 62
7
  6
BYLAYER
 10
247.4681409923
 20
207.1403338596
 11
247.1934006965
 21
208.5226169935
  0
LINE
  5
24E
100
AcDbEntity
  8
0
100
AcDbLine
 62
7
  6
BYLAYER
 10
245.8897303858
 20
215.0816893618
 11
245.8695268124
 21
215.1833382976
  0
LINE
  5
24F
100
AcDbEntity
  8
0
100
AcDbLine
 62
7
  6
BYLAYER
 10
250.4812983843
 20
199.4404654434
 11
251.1111566997
 21
196.2714999166
  0
LINE
  5
250
100
AcDbEntity
  8
0
100
AcDbLine
 62
7
  6
BYLAYER
 10
246.5848384734
 20
204.7544167036
 11
246.6309184209
 21
204.4497209662
  0
LINE
  5
251
100
AcDbEntity
  8
0
100
AcDbLine
 62
7
  6
BYLAYER
 10
254.2277461972
 20
196.4972853003
 11
254.218442263
 21
196.584010578
  0
LINE
  5
252
100
AcDbEntity
  8
0
100
AcDbLine
 62
7
  6
BYLAYER
 10
255.9916208525
 20
196.8478711018
 11
256.0009247867
 21
196.7611458241
  0
LINE
  5
253
100
AcDbEntity
  8
0
100
AcDbLine
 62
7
  6
BYLAYER
 10
251.1486112499
 20
196.2789443207
 11
251.1873292687
 21
195.892976629
  0
LINE
  5
254
100
AcDbEntity
  8
0
100
AcDbLine
 62
7
  6
BYLAYER
 10
261.902386905
 20
198.06165014
 11
261.8355681205
 21
198.7372788074
  0
LINE
  5
255
100
AcDbEntity
  8
0
100
AcDbLine
 62
7
  6
BYLAYER
 10
259.0707557998
 20
197.0662120814
 11
259.0328629156
 21
197.4523428385
  0
LINE
  5
256
100
AcDbEntity
  8
0
100
AcDbLine
 62
7
  6
BYLAYER
 10
252.0037729166
 20
196.5196538241
 11
251.9981005814
 21
196.5775757383
  0
LINE
  5
257
100
AcDbEntity
  8
0
100
AcDbLine
 62
7
  6
BYLAYER
 10
253.1807499287
 20
196.7535878167
 11
253.1864222639
 21
196.6956659024
  0
LINE
  5
258
100
AcDbEntity
  8
0
100
AcDbLine
 62
7
  6
BYLAYER
 10
254.4794430884
 20
194.9978761914
 11
254.4737707532
 21
195.0557981057
  0
LINE
  5
259
100
AcDbEntity
  8
0
100
AcDbLine
 62
7
  6
BYLAYER
 10
254.4794430884
 20
198.5334738071
 11
254.4737707532
 21
198.5913957213
  0
LINE
  5
25A
100
AcDbEntity
  8
0
100
AcDbLine
 62
7
  6
BYLAYER
 10
255.6564201005
 20
195.2318101841
 11
255.6620924357
 21
195.1738882698
  0
LINE
  5
25B
100
AcDbEntity
  8
0
100
AcDbLine
 62
7
  6
BYLAYER
 10
255.6564201005
 20
198.7674077997
 11
255.6620924357
 21
198.7094858854
  0
LINE
  5
25C
100
AcDbEntity
  8
0
100
AcDbLine
 62
7
  6
BYLAYER
 10
256.9551132603
 20
197.0116961745
 11
256.9494409251
 21
197.0696180887
  0
LINE
  5
25D
100
AcDbEntity
  8
0
100
AcDbLine
 62
7
  6
BYLAYER
 10
258.1320902724
 20
197.2456301671
 11
258.1377626076
 21
197.1877082528
  0
LINE
  5
25E
100
AcDbEntity
  8
0
100
AcDbLine
 62
7
  6
BYLAYER
 10
260.2954018456
 20
198.7950946399
 11
260.3473982514
 21
198.2641437591
  0
LINE
  5
25F
100
AcDbEntity
  8
0
100
AcDbLine
 62
7
  6
BYLAYER
 10
249.2609059821
 20
214.9945300104
 11
249.2609059821
 21
212.552669098
  0
LINE
  5
260
100
AcDbEntity
  8
0
100
AcDbLine
 62
7
  6
BYLAYER
 10
256.9384265808
 20
201.4246887164
 11
257.3772046131
 21
199.2170930962
  0
LINE
  5
261
100
AcDbEntity
  8
0
100
AcDbLine
 62
7
  6
BYLAYER
 10
257.4518475816
 20
201.3774752556
 11
258.0506296445
 21
198.3648616742
  0
LINE
  5
262
100
AcDbEntity
  8
0
100
AcDbLine
 62
7
  6
BYLAYER
 10
258.3575199864
 20
198.6144998974
 11
257.8375795561
 21
201.2304426564
  0
LINE
  5
263
100
AcDbEntity
  8
0
100
AcDbLine
 62
7
  6
BYLAYER
 10
258.3438707788
 20
200.919228882
 11
259.032940232
 21
197.4523581765
  0
LINE
  5
264
100
AcDbEntity
  8
0
100
AcDbLine
 62
7
  6
BYLAYER
 10
257.7645069308
 20
215.1833382976
 11
259.1327254324
 21
208.2995087789
  0
LINE
  5
265
100
AcDbEntity
  8
0
100
AcDbLine
 62
7
  6
BYLAYER
 10
259.4590328602
 20
208.3319357709
 11
258.0507699825
 21
215.4172379771
  0
LINE
  5
266
100
AcDbEntity
  8
0
100
AcDbLine
 62
7
  6
BYLAYER
 10
258.4867508395
 20
214.5633915676
 11
259.9699696144
 21
207.100968589
  0
LINE
  5
267
100
AcDbEntity
  8
0
100
AcDbLine
 62
7
  6
BYLAYER
 10
260.2146037221
 20
206.8160021416
 11
258.7004610876
 21
214.4340085893
  0
LINE
  5
268
100
AcDbEntity
  8
0
100
AcDbLine
 62
7
  6
BYLAYER
 10
261.8362096613
 20
198.7374058065
 11
261.4186903585
 21
200.8380437518
  0
LINE
  5
269
100
AcDbEntity
  8
0
100
AcDbLine
 62
7
  6
BYLAYER
 10
261.7619753203
 20
200.9062744996
 11
260.9269367145
 21
205.1075503903
  0
LINE
  5
26A
100
AcDbEntity
  8
0
100
AcDbLine
 62
7
  6
BYLAYER
 10
261.8250769711
 20
200.4137381193
 11
261.7610839818
 21
200.9060976845
  0
ARC
  5
26B
100
AcDbEntity
  8
0
100
AcDbCircle
 62
7
  6
BYLAYER
 10
251.3540518165
 20
198.9936089281
 40
4.1437734842
100
AcDbArc
 50
213.48439315
 51
218.5050016618
  0
ARC
  5
26C
100
AcDbEntity
  8
0
100
AcDbCircle
 62
7
  6
BYLAYER
 10
250.8963161452
 20
198.7464005405
 40
3.6216001481
100
AcDbArc
 50
191.2378918695
 51
192.5383569688
  0
ARC
  5
26D
100
AcDbEntity
  8
0
100
AcDbCircle
 62
7
  6
BYLAYER
 10
252.7617187756
 20
195.7847820962
 40
1.284532038
100
AcDbArc
 50
95.9713216923
 51
106.5244360558
  0
ARC
  5
26E
100
AcDbEntity
  8
0
100
AcDbCircle
 62
7
  6
BYLAYER
 10
252.7545167739
 20
195.8084571306
 40
1.2597864053
100
AcDbArc
 50
106.5166682254
 51
109.1337022812
  0
ARC
  5
26F
100
AcDbEntity
  8
0
100
AcDbCircle
 62
7
  6
BYLAYER
 10
252.7575532128
 20
195.8195155064
 40
1.2495538541
100
AcDbArc
 50
93.3087470457
 51
95.9470369768
  0
ARC
  5
270
100
AcDbEntity
  8
0
100
AcDbCircle
 62
7
  6
BYLAYER
 10
252.7567946805
 20
195.8335540755
 40
1.2354949085
100
AcDbArc
 50
90.4553881279
 51
93.311204369
  0
ARC
  5
271
100
AcDbEntity
  8
0
100
AcDbCircle
 62
7
  6
BYLAYER
 10
252.3925052969
 20
196.2682573531
 40
0.6640961835
100
AcDbArc
 50
145.3720529329
 51
149.9390115563
  0
ARC
  5
272
100
AcDbEntity
  8
0
100
AcDbCircle
 62
7
  6
BYLAYER
 10
250.1747045148
 20
202.9506249199
 40
3.7352223857
100
AcDbArc
 50
175.9965488964
 51
179.9880735164
  0
ARC
  5
273
100
AcDbEntity
  8
0
100
AcDbCircle
 62
7
  6
BYLAYER
 10
249.9737358609
 20
205.0847795862
 40
3.6051947416
100
AcDbArc
 50
174.3166737611
 51
179.3082582033
  0
ARC
  5
274
100
AcDbEntity
  8
0
100
AcDbCircle
 62
7
  6
BYLAYER
 10
249.9092064779
 20
205.0864720178
 40
3.5406497468
100
AcDbArc
 50
179.3230367145
 51
179.999816778
  0
ARC
  5
275
100
AcDbEntity
  8
0
100
AcDbCircle
 62
7
  6
BYLAYER
 10
249.886842571
 20
205.086399652
 40
3.5182858409
100
AcDbArc
 50
179.9986371271
 51
181.916519205
  0
ARC
  5
276
100
AcDbEntity
  8
0
100
AcDbCircle
 62
7
  6
BYLAYER
 10
249.8575374353
 20
205.085443382
 40
3.4889651173
100
AcDbArc
 50
181.916918691
 51
183.845568615
  0
ARC
  5
277
100
AcDbEntity
  8
0
100
AcDbCircle
 62
7
  6
BYLAYER
 10
249.8346261359
 20
205.0839270881
 40
3.46600371
100
AcDbArc
 50
183.8459607697
 51
185.7830930808
  0
ARC
  5
278
100
AcDbEntity
  8
0
100
AcDbCircle
 62
7
  6
BYLAYER
 10
258.0236807564
 20
200.2001691361
 40
3.8077822219
100
AcDbArc
 50
351.957637563
 51
359.9482670374
  0
ARC
  5
279
100
AcDbEntity
  8
0
100
AcDbCircle
 62
7
  6
BYLAYER
 10
258.1486488261
 20
200.1969783373
 40
3.6828126084
100
AcDbArc
 50
359.996152798
 51
3.3742152208
  0
ARC
  5
27A
100
AcDbEntity
  8
0
100
AcDbCircle
 62
7
  6
BYLAYER
 10
258.2110699222
 20
200.1997372741
 40
3.6203861864
100
AcDbArc
 50
11.2533941714
 51
12.6726292819
  0
ARC
  5
27B
100
AcDbEntity
  8
0
100
AcDbCircle
 62
7
  6
BYLAYER
 10
255.2373889475
 20
197.7986020792
 40
1.284532038
100
AcDbArc
 50
95.9713216967
 51
106.5244360601
  0
ARC
  5
27C
100
AcDbEntity
  8
0
100
AcDbCircle
 62
7
  6
BYLAYER
 10
255.2373889475
 20
194.2630044636
 40
1.284532038
100
AcDbArc
 50
95.9713216967
 51
106.5244360602
  0
ARC
  5
27D
100
AcDbEntity
  8
0
100
AcDbCircle
 62
7
  6
BYLAYER
 10
257.7130591193
 20
196.2768244466
 40
1.284532038
100
AcDbArc
 50
95.9713216921
 51
106.5244360558
  0
ARC
  5
27E
100
AcDbEntity
  8
0
100
AcDbCircle
 62
7
  6
BYLAYER
 10
255.2301869458
 20
197.8222771136
 40
1.2597864053
100
AcDbArc
 50
106.5166682297
 51
109.1337022854
  0
ARC
  5
27F
100
AcDbEntity
  8
0
100
AcDbCircle
 62
7
  6
BYLAYER
 10
255.2301869457
 20
194.2866794982
 40
1.2597864051
100
AcDbArc
 50
106.5166682296
 51
109.1337022858
  0
ARC
  5
280
100
AcDbEntity
  8
0
100
AcDbCircle
 62
7
  6
BYLAYER
 10
257.7058571176
 20
196.3004994811
 40
1.2597864052
100
AcDbArc
 50
106.5166682252
 51
109.1337022812
  0
ARC
  5
281
100
AcDbEntity
  8
0
100
AcDbCircle
 62
7
  6
BYLAYER
 10
255.2332233847
 20
197.8333354895
 40
1.2495538541
100
AcDbArc
 50
93.3087470501
 51
95.9470369813
  0
ARC
  5
282
100
AcDbEntity
  8
0
100
AcDbCircle
 62
7
  6
BYLAYER
 10
255.2332233847
 20
194.297737874
 40
1.249553854
100
AcDbArc
 50
93.3087470501
 51
95.9470369815
  0
ARC
  5
283
100
AcDbEntity
  8
0
100
AcDbCircle
 62
7
  6
BYLAYER
 10
257.7088935565
 20
196.3115578569
 40
1.249553854
100
AcDbArc
 50
93.3087470456
 51
95.9470369769
  0
ARC
  5
284
100
AcDbEntity
  8
0
100
AcDbCircle
 62
7
  6
BYLAYER
 10
255.2324648524
 20
194.3117764428
 40
1.2354949085
100
AcDbArc
 50
90.4553881345
 51
93.3112043735
  0
ARC
  5
285
100
AcDbEntity
  8
0
100
AcDbCircle
 62
7
  6
BYLAYER
 10
257.7081350242
 20
196.3255964258
 40
1.2354949085
100
AcDbArc
 50
90.4553881271
 51
93.3112043689
  0
ARC
  5
286
100
AcDbEntity
  8
0
100
AcDbCircle
 62
7
  6
BYLAYER
 10
255.2324648524
 20
197.8473740584
 40
1.2354949086
100
AcDbArc
 50
90.4553881342
 51
93.3112043734
  0
ARC
  5
287
100
AcDbEntity
  8
0
100
AcDbCircle
 62
7
  6
BYLAYER
 10
257.3438456406
 20
196.7602997035
 40
0.6640961835
100
AcDbArc
 50
145.3720529325
 51
149.9390115559
  0
ARC
  5
288
100
AcDbEntity
  8
0
100
AcDbCircle
 62
7
  6
BYLAYER
 10
254.8681754687
 20
194.7464797206
 40
0.6640961834
100
AcDbArc
 50
145.3720529384
 51
149.939011562
  0
ARC
  5
289
100
AcDbEntity
  8
0
100
AcDbCircle
 62
7
  6
BYLAYER
 10
254.8681754687
 20
198.2820773362
 40
0.6640961834
100
AcDbArc
 50
145.3720529381
 51
149.9390115619
  0
ARC
  5
28A
100
AcDbEntity
  8
0
100
AcDbCircle
 62
7
  6
BYLAYER
 10
254.1482438358
 20
201.3760971732
 40
7.579788737
100
AcDbArc
 50
269.9449907175
 51
274.9364749503
  0
ARC
  5
28B
100
AcDbEntity
  8
0
100
AcDbCircle
 62
7
  6
BYLAYER
 10
255.9796401516
 20
204.4171258994
 40
4.7945015677
100
AcDbArc
 50
48.4611997031
 51
50.9726538537
  0
ARC
  5
28C
100
AcDbEntity
  8
0
100
AcDbCircle
 62
7
  6
BYLAYER
 10
256.5957264637
 20
205.0041180715
 40
3.9416189914
100
AcDbArc
 50
33.9050356024
 51
37.5138891685
  0
ARC
  5
28D
100
AcDbEntity
  8
0
100
AcDbCircle
 62
7
  6
BYLAYER
 10
257.1606792137
 20
204.3088348209
 40
3.8551311444
100
AcDbArc
 50
26.1452374407
 51
30.4140789112
  0
ARC
  5
28E
100
AcDbEntity
  8
0
100
AcDbCircle
 62
7
  6
BYLAYER
 10
256.7021643834
 20
205.0761337667
 40
3.813107794
100
AcDbArc
 50
31.1191665359
 51
33.8990644477
  0
ARC
  5
28F
100
AcDbEntity
  8
0
100
AcDbCircle
 62
7
  6
BYLAYER
 10
257.2686253707
 20
204.3615798594
 40
3.7349880514
100
AcDbArc
 50
20.4707676982
 51
26.1485831842
  0
ARC
  5
290
100
AcDbEntity
  8
0
100
AcDbCircle
 62
7
  6
BYLAYER
 10
256.8245128841
 20
205.1489103557
 40
3.6707536863
100
AcDbArc
 50
25.499874388
 51
31.1336592507
  0
ARC
  5
291
100
AcDbEntity
  8
0
100
AcDbCircle
 62
7
  6
BYLAYER
 10
257.3641544807
 20
204.3979446803
 40
3.6327737448
100
AcDbArc
 50
11.7075112027
 51
20.4603729561
  0
ARC
  5
292
100
AcDbEntity
  8
0
100
AcDbCircle
 62
7
  6
BYLAYER
 10
257.3948342715
 20
204.4056093095
 40
3.6011771637
100
AcDbArc
 50
11.2400477282
 51
11.6871497548
  0
ARC
  5
293
100
AcDbEntity
  8
0
100
AcDbCircle
 62
7
  6
BYLAYER
 10
256.7521762706
 20
206.4656163566
 40
3.4801112131
100
AcDbArc
 50
1.6470681112
 51
5.7784647281
  0
ARC
  5
294
100
AcDbEntity
  8
0
100
AcDbCircle
 62
7
  6
BYLAYER
 10
289.5998723243
 20
198.5289766233
 40
53.1081609452
100
AcDbArc
 50
161.4581359759
 51
161.8395372867
  0
ARC
  5
295
100
AcDbEntity
  8
0
100
AcDbCircle
 62
7
  6
BYLAYER
 10
286.8878464853
 20
224.0229810934
 40
50.2505242021
100
AcDbArc
 50
197.9665523218
 51
198.5516571884
  0
ARC
  5
296
100
AcDbEntity
  8
0
100
AcDbCircle
 62
7
  6
BYLAYER
 10
286.8877631206
 20
220.133263279
 40
50.2502738794
100
AcDbArc
 50
197.9659731041
 51
198.5510789355
  0
SPLINE
  5
297
100
AcDbEntity
  8
0
100
AcDbSpline
 62
7
  6
BYLAYER
 70
0
 71
3
 72
9
 73
5
 74
0
 42
0.0000001
 43
0.0000001
 44
0.0000000001
 40
0.0
 40
0.0
 40
0.0
 40
0.0
 40
0.2804725073
 40
1.0
 40
1.0
 40
1.0
 40
1.0
 10
252.724474648
 20
197.0633939234
 30
0.0
 10
252.7667151708
 20
197.0607010303
 30
0.0
 10
252.9151790565
 20
197.0396304779
 30
0.0
 10
253.0640786081
 20
196.9619821092
 30
0.0
 10
253.1275818432
 20
196.8739031987
 30
0.0
  0
SPLINE
  5
298
100
AcDbEntity
  8
0
100
AcDbSpline
 62
7
  6
BYLAYER
 70
0
 71
3
 72
8
 73
4
 74
0
 42
0.0000001
 43
0.0000001
 44
0.0000000001
 40
0.0
 40
0.0
 40
0.0
 40
0.0
 40
1.0
 40
1.0
 40
1.0
 40
1.0
 10
253.1275818432
 20
196.8739031987
 30
0.0
 10
253.1532203654
 20
196.8383425992
 30
0.0
 10
253.1720208267
 20
196.7965495601
 30
0.0
 10
253.1806532007
 20
196.7535684924
 30
0.0
  0
SPLINE
  5
299
100
AcDbEntity
  8
0
100
AcDbSpline
 62
7
  6
BYLAYER
 70
0
 71
3
 72
9
 73
5
 74
0
 42
0.0000001
 43
0.0000001
 44
0.0000000001
 40
0.0
 40
0.0
 40
0.0
 40
0.0
 40
0.4550205897
 40
1.0
 40
1.0
 40
1.0
 40
1.0
 10
258.0507699475
 20
215.4172380131
 30
0.0
 10
258.1603612263
 20
215.3187936007
 30
0.0
 10
258.355530831
 20
215.0500689113
 30
0.0
 10
258.4523311888
 20
214.7364242162
 30
0.0
 10
258.4867264316
 20
214.5633702786
 30
0.0
  0
SPLINE
  5
29A
100
AcDbEntity
  8
0
100
AcDbSpline
 62
7
  6
BYLAYER
 70
0
 71
3
 72
9
 73
5
 74
0
 42
0.0000001
 43
0.0000001
 44
0.0000000001
 40
0.0
 40
0.0
 40
0.0
 40
0.0
 40
0.2804725073
 40
1.0
 40
1.0
 40
1.0
 40
1.0
 10
255.2001448198
 20
199.0772139064
 30
0.0
 10
255.2423853426
 20
199.0745210133
 30
0.0
 10
255.3908492283
 20
199.0534504609
 30
0.0
 10
255.5397487799
 20
198.9758020922
 30
0.0
 10
255.603252015
 20
198.8877231817
 30
0.0
  0
SPLINE
  5
29B
100
AcDbEntity
  8
0
100
AcDbSpline
 62
7
  6
BYLAYER
 70
0
 71
3
 72
8
 73
4
 74
0
 42
0.0000001
 43
0.0000001
 44
0.0000000001
 40
0.0
 40
0.0
 40
0.0
 40
0.0
 40
1.0
 40
1.0
 40
1.0
 40
1.0
 10
255.603252015
 20
198.8877231817
 30
0.0
 10
255.6288905372
 20
198.8521625822
 30
0.0
 10
255.6476909985
 20
198.8103695431
 30
0.0
 10
255.6563233725
 20
198.7673884754
 30
0.0
  0
SPLINE
  5
29C
100
AcDbEntity
  8
0
100
AcDbSpline
 62
7
  6
BYLAYER
 70
0
 71
3
 72
9
 73
5
 74
0
 42
0.0000001
 43
0.0000001
 44
0.0000000001
 40
0.0
 40
0.0
 40
0.0
 40
0.0
 40
0.2804725073
 40
1.0
 40
1.0
 40
1.0
 40
1.0
 10
255.2001448198
 20
195.5416162908
 30
0.0
 10
255.2423853426
 20
195.5389233977
 30
0.0
 10
255.3908492283
 20
195.5178528452
 30
0.0
 10
255.5397487799
 20
195.4402044766
 30
0.0
 10
255.603252015
 20
195.3521255661
 30
0.0
  0
SPLINE
  5
29D
100
AcDbEntity
  8
0
100
AcDbSpline
 62
7
  6
BYLAYER
 70
0
 71
3
 72
8
 73
4
 74
0
 42
0.0000001
 43
0.0000001
 44
0.0000000001
 40
0.0
 40
0.0
 40
0.0
 40
0.0
 40
1.0
 40
1.0
 40
1.0
 40
1.0
 10
255.603252015
 20
195.3521255661
 30
0.0
 10
255.6288905372
 20
195.3165649666
 30
0.0
 10
255.6476909985
 20
195.2747719275
 30
0.0
 10
255.6563233725
 20
195.2317908598
 30
0.0
  0
SPLINE
  5
29E
100
AcDbEntity
  8
0
100
AcDbSpline
 62
7
  6
BYLAYER
 70
0
 71
3
 72
9
 73
5
 74
0
 42
0.0000001
 43
0.0000001
 44
0.0000000001
 40
0.0
 40
0.0
 40
0.0
 40
0.0
 40
0.2804725073
 40
1.0
 40
1.0
 40
1.0
 40
1.0
 10
257.6758149917
 20
197.5554362738
 30
0.0
 10
257.7180555145
 20
197.5527433807
 30
0.0
 10
257.8665194002
 20
197.5316728283
 30
0.0
 10
258.0154189518
 20
197.4540244596
 30
0.0
 10
258.0789221869
 20
197.3659455491
 30
0.0
  0
SPLINE
  5
29F
100
AcDbEntity
  8
0
100
AcDbSpline
 62
7
  6
BYLAYER
 70
0
 71
3
 72
8
 73
4
 74
0
 42
0.0000001
 43
0.0000001
 44
0.0000000001
 40
0.0
 40
0.0
 40
0.0
 40
0.0
 40
1.0
 40
1.0
 40
1.0
 40
1.0
 10
258.0789221869
 20
197.3659455491
 30
0.0
 10
258.1045607091
 20
197.3303849496
 30
0.0
 10
258.1233611704
 20
197.2885919105
 30
0.0
 10
258.1319935444
 20
197.2456108428
 30
0.0
  0
SPLINE
  5
2A0
100
AcDbEntity
  8
0
100
AcDbSpline
 62
7
  6
BYLAYER
 70
0
 71
3
 72
9
 73
5
 74
0
 42
0.0000001
 43
0.0000001
 44
0.0000000001
 40
0.0
 40
0.0
 40
0.0
 40
0.0
 40
0.462338467
 40
1.0
 40
1.0
 40
1.0
 40
1.0
 10
256.8739339987
 20
198.529703342
 30
0.0
 10
256.8589599518
 20
198.6049980501
 30
0.0
 10
256.8868919311
 20
198.7814147766
 30
0.0
 10
257.0010577129
 20
198.9111185149
 30
0.0
 10
257.0703142714
 20
198.9674548731
 30
0.0
  0
SPLINE
  5
2A1
100
AcDbEntity
  8
0
100
AcDbSpline
 62
7
  6
BYLAYER
 70
0
 71
3
 72
17
 73
13
 74
0
 42
0.0000001
 43
0.0000001
 44
0.0000000001
 40
0.0
 40
0.0
 40
0.0
 40
0.0
 40
0.0510691578
 40
0.10385762
 40
0.2189930431
 40
0.3499345219
 40
0.4919629614
 40
0.6358692085
 40
0.771766783
 40
0.892816487
 40
0.9478599386
 40
1.0
 40
1.0
 40
1.0
 40
1.0
 10
251.1865832543
 20
195.8928282974
 30
0.0
 10
251.2209084743
 20
195.7202605482
 30
0.0
 10
251.3390189345
 20
195.3771276589
 30
0.0
 10
251.7657571365
 20
194.7459695323
 30
0.0
 10
252.6345828733
 20
194.1333749443
 30
0.0
 10
253.9466125975
 20
193.7866252363
 30
0.0
 10
255.3995018403
 20
193.8160333579
 30
0.0
 10
256.8133567236
 20
194.2178883147
 30
0.0
 10
258.0109254326
 20
194.9401570253
 30
0.0
 10
258.7276389736
 20
195.7793303876
 30
0.0
 10
259.0203574046
 20
196.5159242254
 30
0.0
 10
259.0707557998
 20
196.8865740739
 30
0.0
 10
259.0707557998
 20
197.0662120814
 30
0.0
  0
SPLINE
  5
2A2
100
AcDbEntity
  8
0
100
AcDbSpline
 62
7
  6
BYLAYER
 70
0
 71
3
 72
19
 73
15
 74
0
 42
0.0000001
 43
0.0000001
 44
0.0000000001
 40
0.0
 40
0.0
 40
0.0
 40
0.0
 40
0.0509924175
 40
0.1037147388
 40
0.159581612
 40
0.2193437874
 40
0.3501355718
 40
0.4920037385
 40
0.635747078
 40
0.7714925104
 40
0.8342474196
 40
0.8929418566
 40
0.9479010099
 40
1.0
 40
1.0
 40
1.0
 40
1.0
 10
248.1049530731
 20
196.008203597
 30
0.0
 10
248.1649388365
 20
195.7063029339
 30
0.0
 10
248.3717804246
 20
195.1060302796
 30
0.0
 10
248.9167647318
 20
194.3001794632
 30
0.0
 10
249.6730454215
 20
193.6087934925
 30
0.0
 10
250.9608181983
 20
192.8472900425
 30
0.0
 10
252.9367665172
 20
192.3204609819
 30
0.0
 10
255.4773668379
 20
192.3746607993
 30
0.0
 10
257.9504318496
 20
193.075391444
 30
0.0
 10
259.747319887
 20
194.1616266355
 30
0.0
 10
260.8427083335
 20
195.2719430562
 30
0.0
 10
261.4415825534
 20
196.1612192061
 30
0.0
 10
261.814451147
 20
197.0985310776
 30
0.0
 10
261.902386905
 20
197.7471682288
 30
0.0
 10
261.902386905
 20
198.06165014
 30
0.0
  0
SPLINE
  5
2A3
100
AcDbEntity
  8
0
100
AcDbSpline
 62
7
  6
BYLAYER
 70
0
 71
3
 72
9
 73
5
 74
0
 42
0.0000001
 43
0.0000001
 44
0.0000000001
 40
0.0
 40
0.0
 40
0.0
 40
0.0
 40
0.2475597046
 40
1.0
 40
1.0
 40
1.0
 40
1.0
 10
247.3610879313
 20
197.960175949
 30
0.0
 10
247.3855823519
 20
197.8500379911
 30
0.0
 10
247.5050965492
 20
197.4098460057
 30
0.0
 10
247.7089080883
 20
196.9935441228
 30
0.0
 10
247.8979950006
 20
196.707448397
 30
0.0
  0
SPLINE
  5
2A4
100
AcDbEntity
  8
0
100
AcDbSpline
 62
7
  6
BYLAYER
 70
0
 71
3
 72
9
 73
5
 74
0
 42
0.0000001
 43
0.0000001
 44
0.0000000001
 40
0.0
 40
0.0
 40
0.0
 40
0.0
 40
0.2542427903
 40
1.0
 40
1.0
 40
1.0
 40
1.0
 10
261.5986003574
 20
198.8694402902
 30
0.0
 10
261.6216367351
 20
198.9352125673
 30
0.0
 10
261.7061286734
 20
199.1959990182
 30
0.0
 10
261.7655623371
 20
199.4650125848
 30
0.0
 10
261.7940130537
 20
199.6674404831
 30
0.0
  0
SPLINE
  5
2A5
100
AcDbEntity
  8
0
100
AcDbSpline
 62
7
  6
BYLAYER
 70
0
 71
3
 72
9
 73
5
 74
0
 42
0.0000001
 43
0.0000001
 44
0.0000000001
 40
0.0
 40
0.0
 40
0.0
 40
0.0
 40
0.2454589141
 40
1.0
 40
1.0
 40
1.0
 40
1.0
 10
246.6413269982
 20
204.3035932559
 30
0.0
 10
246.6511059083
 20
204.381963916
 30
0.0
 10
246.7010911372
 20
204.6999385545
 30
0.0
 10
246.7914532249
 20
205.0112353253
 30
0.0
 10
246.8784186059
 20
205.237904722
 30
0.0
  0
SPLINE
  5
2A6
100
AcDbEntity
  8
0
100
AcDbSpline
 62
7
  6
BYLAYER
 70
0
 71
3
 72
9
 73
5
 74
0
 42
0.0000001
 43
0.0000001
 44
0.0000000001
 40
0.0
 40
0.0
 40
0.0
 40
0.0
 40
0.2388716
 40
1.0
 40
1.0
 40
1.0
 40
1.0
 10
246.8784186059
 20
205.237904722
 30
0.0
 10
246.9347383645
 20
205.3846983724
 30
0.0
 10
247.2037090675
 20
205.9864288204
 30
0.0
 10
247.597080052
 20
206.5286693834
 30
0.0
 10
247.9370724346
 20
206.896617641
 30
0.0
  0
SPLINE
  5
2A7
100
AcDbEntity
  8
0
100
AcDbSpline
 62
7
  6
BYLAYER
 70
0
 71
3
 72
10
 73
6
 74
0
 42
0.0000001
 43
0.0000001
 44
0.0000000001
 40
0.0
 40
0.0
 40
0.0
 40
0.0
 40
0.2330952149
 40
0.6091924669
 40
1.0
 40
1.0
 40
1.0
 40
1.0
 10
247.9370724346
 20
206.896617641
 30
0.0
 10
248.269042212
 20
207.2558836347
 30
0.0
 10
249.2470158274
 20
208.0953981494
 30
0.0
 10
251.1409616356
 20
209.0547286783
 30
0.0
 10
252.7289748732
 20
209.4132114268
 30
0.0
 10
253.5450783107
 20
209.4943121845
 30
0.0
  0
SPLINE
  5
2A8
100
AcDbEntity
  8
0
100
AcDbSpline
 62
7
  6
BYLAYER
 70
0
 71
3
 72
9
 73
5
 74
0
 42
0.0000001
 43
0.0000001
 44
0.0000000001
 40
0.0
 40
0.0
 40
0.0
 40
0.0
 40
0.2538946594
 40
1.0
 40
1.0
 40
1.0
 40
1.0
 10
258.446655177
 20
208.5316356677
 30
0.0
 10
258.4954035332
 20
208.5016703844
 30
0.0
 10
258.6855488976
 20
208.3806631435
 30
0.0
 10
258.8680818858
 20
208.2476174853
 30
0.0
 10
258.9986957689
 20
208.1417129185
 30
0.0
  0
SPLINE
  5
2A9
100
AcDbEntity
  8
0
100
AcDbSpline
 62
7
  6
BYLAYER
 70
0
 71
3
 72
9
 73
5
 74
0
 42
0.0000001
 43
0.0000001
 44
0.0000000001
 40
0.0
 40
0.0
 40
0.0
 40
0.0
 40
0.2550759309
 40
1.0
 40
1.0
 40
1.0
 40
1.0
 10
259.1590039943
 20
208.0058430572
 30
0.0
 10
259.211482883
 20
207.9593358049
 30
0.0
 10
259.4131157451
 20
207.7724535704
 30
0.0
 10
259.5975706532
 20
207.5668399785
 30
0.0
 10
259.7222412965
 20
207.4043816557
 30
0.0
  0
SPLINE
  5
2AA
100
AcDbEntity
  8
0
100
AcDbSpline
 62
7
  6
BYLAYER
 70
0
 71
3
 72
9
 73
5
 74
0
 42
0.0000001
 43
0.0000001
 44
0.0000000001
 40
0.0
 40
0.0
 40
0.0
 40
0.0
 40
0.2683889988
 40
1.0
 40
1.0
 40
1.0
 40
1.0
 10
253.5450783107
 20
209.4943121845
 30
0.0
 10
253.9938386725
 20
209.5389080087
 30
0.0
 10
255.6700562364
 20
209.5920492348
 30
0.0
 10
257.3993739645
 20
209.1753923128
 30
0.0
 10
258.446655177
 20
208.5316356677
 30
0.0
  0
SPLINE
  5
2AB
100
AcDbEntity
  8
0
100
AcDbSpline
 62
7
  6
BYLAYER
 70
0
 71
3
 72
9
 73
5
 74
0
 42
0.0000001
 43
0.0000001
 44
0.0000000001
 40
0.0
 40
0.0
 40
0.0
 40
0.0
 40
0.4866119102
 40
1.0
 40
1.0
 40
1.0
 40
1.0
 10
246.4485966439
 20
203.2114052977
 30
0.0
 10
246.4705430011
 20
203.5258256557
 30
0.0
 10
246.5966944453
 20
204.1681631847
 30
0.0
 10
246.8625292077
 20
204.7646009909
 30
0.0
 10
247.0262091521
 20
205.0540559657
 30
0.0
  0
SPLINE
  5
2AC
100
AcDbEntity
  8
0
100
AcDbSpline
 62
7
  6
BYLAYER
 70
0
 71
3
 72
13
 73
9
 74
0
 42
0.0000001
 43
0.0000001
 44
0.0000000001
 40
0.0
 40
0.0
 40
0.0
 40
0.0
 40
0.2292095385
 40
0.3567794154
 40
0.489355024
 40
0.623520561
 40
0.7556455589
 40
1.0
 40
1.0
 40
1.0
 40
1.0
 10
247.0262091521
 20
205.0540559657
 30
0.0
 10
247.5025570154
 20
205.8964393089
 30
0.0
 10
248.6124959692
 20
207.0067350946
 30
0.0
 10
250.4118798059
 20
208.0272062394
 30
0.0
 10
251.9853207285
 20
208.5979387207
 30
0.0
 10
253.6484011304
 20
208.9103796224
 30
0.0
 10
255.8072245873
 20
208.9641494125
 30
0.0
 10
257.4085709923
 20
208.6022090526
 30
0.0
 10
258.336216416
 20
208.1507232932
 30
0.0
  0
SPLINE
  5
2AD
100
AcDbEntity
  8
0
100
AcDbSpline
 62
7
  6
BYLAYER
 70
0
 71
3
 72
9
 73
5
 74
0
 42
0.0000001
 43
0.0000001
 44
0.0000000001
 40
0.0
 40
0.0
 40
0.0
 40
0.0
 40
0.2540392409
 40
1.0
 40
1.0
 40
1.0
 40
1.0
 10
258.336216416
 20
208.1507232932
 30
0.0
 10
258.39130491
 20
208.1239116797
 30
0.0
 10
258.6066359136
 20
208.0152879074
 30
0.0
 10
258.8157237795
 20
207.8942026257
 30
0.0
 10
258.9669785805
 20
207.7968002129
 30
0.0
  0
SPLINE
  5
2AE
100
AcDbEntity
  8
0
100
AcDbSpline
 62
7
  6
BYLAYER
 70
0
 71
3
 72
9
 73
5
 74
0
 42
0.0000001
 43
0.0000001
 44
0.0000000001
 40
0.0
 40
0.0
 40
0.0
 40
0.0
 40
0.5162136788
 40
1.0
 40
1.0
 40
1.0
 40
1.0
 10
258.9669785805
 20
207.7968002129
 30
0.0
 10
259.2816164012
 20
207.5941852697
 30
0.0
 10
259.8547571506
 20
207.1400667889
 30
0.0
 10
260.3078015265
 20
206.5629686967
 30
0.0
 10
260.4853030583
 20
206.2604783418
 30
0.0
  0
SPLINE
  5
2AF
100
AcDbEntity
  8
0
100
AcDbSpline
 62
7
  6
BYLAYER
 70
0
 71
3
 72
19
 73
15
 74
0
 42
0.0000001
 43
0.0000001
 44
0.0000000001
 40
0.0
 40
0.0
 40
0.0
 40
0.0
 40
0.0520899594
 40
0.107054268
 40
0.1657420326
 40
0.2284938034
 40
0.3642379918
 40
0.5079833395
 40
0.6498523061
 40
0.7806473206
 40
0.8404118092
 40
0.8962775536
 40
0.949000434
 40
1.0
 40
1.0
 40
1.0
 40
1.0
 10
249.4544494952
 20
197.1816505882
 30
0.0
 10
249.4544494952
 20
197.4287006642
 30
0.0
 10
249.5236040342
 20
197.9383118192
 30
0.0
 10
249.816438626
 20
198.6747613017
 30
0.0
 10
250.2869443044
 20
199.3734890742
 30
0.0
 10
251.147593922
 20
200.245814343
 30
0.0
 10
252.5593579317
 20
201.0993758174
 30
0.0
 10
254.5024957243
 20
201.6499620567
 30
0.0
 10
256.4986941189
 20
201.6926251936
 30
0.0
 10
258.051293041
 20
201.2787291173
 30
0.0
 10
259.0630801061
 20
200.6803256823
 30
0.0
 10
259.6574091692
 20
200.1372090195
 30
0.0
 10
260.0856417875
 20
199.5039991274
 30
0.0
 10
260.2480962016
 20
199.0323022681
 30
0.0
 10
260.2952510574
 20
198.7950646689
 30
0.0
  0
SPLINE
  5
2B0
100
AcDbEntity
  8
0
100
AcDbSpline
 62
7
  6
BYLAYER
 70
0
 71
3
 72
15
 73
11
 74
0
 42
0.0000001
 43
0.0000001
 44
0.0000000001
 40
0.0
 40
0.0
 40
0.0
 40
0.0
 40
0.1065532472
 40
0.2278031878
 40
0.3638926085
 40
0.5080227784
 40
0.6502767252
 40
0.7814291737
 40
0.896743323
 40
1.0
 40
1.0
 40
1.0
 40
1.0
 10
254.218442263
 20
196.584010578
 30
0.0
 10
254.218442263
 20
196.6664717952
 30
0.0
 10
254.2691968665
 20
196.8438896891
 30
0.0
 10
254.4567791884
 20
197.0618614304
 30
0.0
 10
254.7262585545
 20
197.2249468286
 30
0.0
 10
255.044291503
 20
197.3151681954
 30
0.0
 10
255.3711644204
 20
197.3221050228
 30
0.0
 10
255.6663652442
 20
197.2434124345
 30
0.0
 10
255.8947128793
 20
197.0846041359
 30
0.0
 10
255.9766380903
 20
196.9263666696
 30
0.0
 10
255.9923133876
 20
196.848009187
 30
0.0
  0
SPLINE
  5
2B1
100
AcDbEntity
  8
0
100
AcDbSpline
 62
7
  6
BYLAYER
 70
0
 71
3
 72
9
 73
5
 74
0
 42
0.0000001
 43
0.0000001
 44
0.0000000001
 40
0.0
 40
0.0
 40
0.0
 40
0.0
 40
0.2384670978
 40
1.0
 40
1.0
 40
1.0
 40
1.0
 10
256.9494409251
 20
197.0696180887
 30
0.0
 10
256.9494409251
 20
197.0855448999
 30
0.0
 10
256.9548605767
 20
197.1523286777
 30
0.0
 10
256.9811512767
 20
197.2165284813
 30
0.0
 10
257.0082813459
 20
197.2595499877
 30
0.0
  0
SPLINE
  5
2B2
100
AcDbEntity
  8
0
100
AcDbSpline
 62
7
  6
BYLAYER
 70
0
 71
3
 72
9
 73
5
 74
0
 42
0.0000001
 43
0.0000001
 44
0.0000000001
 40
0.0
 40
0.0
 40
0.0
 40
0.0
 40
0.2317244711
 40
1.0
 40
1.0
 40
1.0
 40
1.0
 10
257.0082813459
 20
197.2595499877
 30
0.0
 10
257.0235347191
 20
197.2837380237
 30
0.0
 10
257.0995649415
 20
197.3816697536
 30
0.0
 10
257.2075182434
 20
197.451693167
 30
0.0
 10
257.2946425213
 20
197.4890841916
 30
0.0
  0
SPLINE
  5
2B3
100
AcDbEntity
  8
0
100
AcDbSpline
 62
7
  6
BYLAYER
 70
0
 71
3
 72
9
 73
5
 74
0
 42
0.0000001
 43
0.0000001
 44
0.0000000001
 40
0.0
 40
0.0
 40
0.0
 40
0.0
 40
0.2384670978
 40
1.0
 40
1.0
 40
1.0
 40
1.0
 10
254.4737707532
 20
195.0557981057
 30
0.0
 10
254.4737707532
 20
195.0717249169
 30
0.0
 10
254.4791904048
 20
195.1385086947
 30
0.0
 10
254.5054811048
 20
195.2027084983
 30
0.0
 10
254.532611174
 20
195.2457300046
 30
0.0
  0
SPLINE
  5
2B4
100
AcDbEntity
  8
0
100
AcDbSpline
 62
7
  6
BYLAYER
 70
0
 71
3
 72
9
 73
5
 74
0
 42
0.0000001
 43
0.0000001
 44
0.0000000001
 40
0.0
 40
0.0
 40
0.0
 40
0.0
 40
0.2317244711
 40
1.0
 40
1.0
 40
1.0
 40
1.0
 10
254.532611174
 20
195.2457300046
 30
0.0
 10
254.5478645472
 20
195.2699180407
 30
0.0
 10
254.6238947696
 20
195.3678497706
 30
0.0
 10
254.7318480715
 20
195.437873184
 30
0.0
 10
254.8189723494
 20
195.4752642086
 30
0.0
  0
SPLINE
  5
2B5
100
AcDbEntity
  8
0
100
AcDbSpline
 62
7
  6
BYLAYER
 70
0
 71
3
 72
9
 73
5
 74
0
 42
0.0000001
 43
0.0000001
 44
0.0000000001
 40
0.0
 40
0.0
 40
0.0
 40
0.0
 40
0.2384670978
 40
1.0
 40
1.0
 40
1.0
 40
1.0
 10
254.4737707532
 20
198.5913957213
 30
0.0
 10
254.4737707532
 20
198.6073225325
 30
0.0
 10
254.4791904048
 20
198.6741063103
 30
0.0
 10
254.5054811048
 20
198.7383061139
 30
0.0
 10
254.532611174
 20
198.7813276203
 30
0.0
  0
SPLINE
  5
2B6
100
AcDbEntity
  8
0
100
AcDbSpline
 62
7
  6
BYLAYER
 70
0
 71
3
 72
9
 73
5
 74
0
 42
0.0000001
 43
0.0000001
 44
0.0000000001
 40
0.0
 40
0.0
 40
0.0
 40
0.0
 40
0.2317244711
 40
1.0
 40
1.0
 40
1.0
 40
1.0
 10
254.532611174
 20
198.7813276203
 30
0.0
 10
254.5478645472
 20
198.8055156563
 30
0.0
 10
254.6238947696
 20
198.9034473862
 30
0.0
 10
254.7318480715
 20
198.9734707996
 30
0.0
 10
254.8189723494
 20
199.0108618242
 30
0.0
  0
SPLINE
  5
2B7
100
AcDbEntity
  8
0
100
AcDbSpline
 62
7
  6
BYLAYER
 70
0
 71
3
 72
9
 73
5
 74
0
 42
0.0000001
 43
0.0000001
 44
0.0000000001
 40
0.0
 40
0.0
 40
0.0
 40
0.0
 40
0.2384670978
 40
1.0
 40
1.0
 40
1.0
 40
1.0
 10
251.9981005814
 20
196.5775757383
 30
0.0
 10
251.9981005814
 20
196.5935025495
 30
0.0
 10
252.003520233
 20
196.6602863273
 30
0.0
 10
252.029810933
 20
196.7244861309
 30
0.0
 10
252.0569410022
 20
196.7675076373
 30
0.0
  0
SPLINE
  5
2B8
100
AcDbEntity
  8
0
100
AcDbSpline
 62
7
  6
BYLAYER
 70
0
 71
3
 72
9
 73
5
 74
0
 42
0.0000001
 43
0.0000001
 44
0.0000000001
 40
0.0
 40
0.0
 40
0.0
 40
0.0
 40
0.2317244711
 40
1.0
 40
1.0
 40
1.0
 40
1.0
 10
252.0569410022
 20
196.7675076373
 30
0.0
 10
252.0721943754
 20
196.7916956733
 30
0.0
 10
252.1482245978
 20
196.8896274032
 30
0.0
 10
252.2561778997
 20
196.9596508166
 30
0.0
 10
252.3433021776
 20
196.9970418412
 30
0.0
  0
SPLINE
  5
2B9
100
AcDbEntity
  8
0
100
AcDbSpline
 62
7
  6
BYLAYER
 70
0
 71
3
 72
9
 73
5
 74
0
 42
0.0000001
 43
0.0000001
 44
0.0000000001
 40
0.0
 40
0.0
 40
0.0
 40
0.0
 40
0.2745214961
 40
1.0
 40
1.0
 40
1.0
 40
1.0
 10
252.7469750429
 20
197.0690099604
 30
0.0
 10
252.8069861624
 20
197.0694823926
 30
0.0
 10
253.0243572989
 20
197.0558277047
 30
0.0
 10
253.2452244272
 20
196.9726371655
 30
0.0
 10
253.3623443847
 20
196.8656991474
 30
0.0
  0
SPLINE
  5
2BA
100
AcDbEntity
  8
0
100
AcDbSpline
 62
7
  6
BYLAYER
 70
0
 71
3
 72
9
 73
5
 74
0
 42
0.0000001
 43
0.0000001
 44
0.0000000001
 40
0.0
 40
0.0
 40
0.0
 40
0.0
 40
0.5126868674
 40
1.0
 40
1.0
 40
1.0
 40
1.0
 10
253.3623443847
 20
196.8656991474
 30
0.0
 10
253.4122402499
 20
196.8201410287
 30
0.0
 10
253.4954641329
 20
196.712810854
 30
0.0
 10
253.5252546148
 20
196.5793465195
 30
0.0
 10
253.5252546148
 20
196.5151246489
 30
0.0
  0
SPLINE
  5
2BB
100
AcDbEntity
  8
0
100
AcDbSpline
 62
7
  6
BYLAYER
 70
0
 71
3
 72
19
 73
15
 74
0
 42
0.0000001
 43
0.0000001
 44
0.0000000001
 40
0.0
 40
0.0
 40
0.0
 40
0.0
 40
0.0509924175
 40
0.1037147388
 40
0.159581612
 40
0.2193437874
 40
0.3501355718
 40
0.4920037385
 40
0.635747078
 40
0.7714925104
 40
0.8342474196
 40
0.8929418566
 40
0.9479010099
 40
1.0
 40
1.0
 40
1.0
 40
1.0
 10
261.8360677746
 20
198.7373781019
 30
0.0
 10
261.7760820112
 20
199.039278765
 30
0.0
 10
261.5692404231
 20
199.6395514194
 30
0.0
 10
261.0242561159
 20
200.4454022358
 30
0.0
 10
260.2679754262
 20
201.1367882064
 30
0.0
 10
258.9802026494
 20
201.8982916565
 30
0.0
 10
257.0042543305
 20
202.4251207171
 30
0.0
 10
254.4636540098
 20
202.3709208996
 30
0.0
 10
251.9905889981
 20
201.6701902549
 30
0.0
 10
250.1937009607
 20
200.5839550634
 30
0.0
 10
249.0983125142
 20
199.4736386428
 30
0.0
 10
248.4994382943
 20
198.5843624929
 30
0.0
 10
248.1265697007
 20
197.6470506213
 30
0.0
 10
248.0386339427
 20
196.9984134701
 30
0.0
 10
248.0386339427
 20
196.6839315589
 30
0.0
  0
SPLINE
  5
2BC
100
AcDbEntity
  8
0
100
AcDbSpline
 62
7
  6
BYLAYER
 70
0
 71
3
 72
9
 73
5
 74
0
 42
0.0000001
 43
0.0000001
 44
0.0000000001
 40
0.0
 40
0.0
 40
0.0
 40
0.0
 40
0.2611948817
 40
1.0
 40
1.0
 40
1.0
 40
1.0
 10
247.1418335645
 20
207.1079068676
 30
0.0
 10
247.0652668554
 20
206.9766530121
 30
0.0
 10
246.7955818738
 20
206.4612113283
 30
0.0
 10
246.6285389187
 20
205.8891198714
 30
0.0
 10
246.5848384734
 20
205.4615362267
 30
0.0
  0
SPLINE
  5
2BD
100
AcDbEntity
  8
0
100
AcDbSpline
 62
7
  6
BYLAYER
 70
0
 71
3
 72
19
 73
15
 74
0
 42
0.0000001
 43
0.0000001
 44
0.0000000001
 40
0.0
 40
0.0
 40
0.0
 40
0.0
 40
0.0510261587
 40
0.1039086419
 40
0.1599978912
 40
0.2199872074
 40
0.3510970857
 40
0.4929883974
 40
0.6365077848
 40
0.7719276438
 40
0.8345297932
 40
0.8930997
 40
0.9479657684
 40
1.0
 40
1.0
 40
1.0
 40
1.0
 10
261.7432615286
 20
200.9939781659
 30
0.0
 10
261.6726436324
 20
201.3080368643
 30
0.0
 10
261.4410272495
 20
201.9309783735
 30
0.0
 10
260.85261693
 20
202.7630226373
 30
0.0
 10
260.0472172556
 20
203.4742703488
 30
0.0
 10
258.6865760576
 20
204.2538153216
 30
0.0
 10
256.6137631657
 20
204.7851834255
 30
0.0
 10
253.9586644455
 20
204.710609937
 30
0.0
 10
251.3813881952
 20
203.9657829736
 30
0.0
 10
249.512376599
 20
202.8249226061
 30
0.0
 10
248.3744638659
 20
201.6631683409
 30
0.0
 10
247.7526869247
 20
200.7339187413
 30
0.0
 10
247.3657189197
 20
199.7552634232
 30
0.0
 10
247.2745208157
 20
199.0783862236
 30
0.0
 10
247.2745208157
 20
198.7501265397
 30
0.0
  0
SPLINE
  5
2BE
100
AcDbEntity
  8
0
100
AcDbSpline
 62
7
  6
BYLAYER
 70
0
 71
3
 72
10
 73
6
 74
0
 42
0.0000001
 43
0.0000001
 44
0.0000000001
 40
0.0
 40
0.0
 40
0.0
 40
0.0
 40
0.5096266509
 40
0.7611704069
 40
1.0
 40
1.0
 40
1.0
 40
1.0
 10
247.1934006426
 20
208.5226168534
 30
0.0
 10
247.4098668757
 20
209.159502253
 30
0.0
 10
247.792957183
 20
210.0896515835
 30
0.0
 10
248.2981073842
 20
211.3084053058
 30
0.0
 10
248.5166566255
 20
211.9191457537
 30
0.0
 10
248.5998090385
 20
212.2232172981
 30
0.0
  0
LINE
  5
2BF
100
AcDbEntity
  8
0
100
AcDbLine
 62
7
  6
BYLAYER
 10
239.3020602553
 20
205.8364895371
 11
239.2484704168
 21
205.9784020936
  0
SPLINE
  5
2C0
100
AcDbEntity
  8
0
100
AcDbSpline
 62
7
  6
BYLAYER
 70
0
 71
3
 72
9
 73
5
 74
0
 42
0.0000001
 43
0.0000001
 44
0.0000000001
 40
0.0
 40
0.0
 40
0.0
 40
0.0
 40
0.4720914601
 40
1.0
 40
1.0
 40
1.0
 40
1.0
 10
246.4821070736
 20
205.9784020936
 30
0.0
 10
246.5091303444
 20
206.3101419517
 30
0.0
 10
246.6324674005
 20
207.007470464
 30
0.0
 10
246.8361175163
 20
207.6834586865
 30
0.0
 10
246.9575068566
 20
208.0352982397
 30
0.0
  0
SPLINE
  5
2C1
100
AcDbEntity
  8
0
100
AcDbSpline
 62
7
  6
BYLAYER
 70
0
 71
3
 72
9
 73
5
 74
0
 42
0.0000001
 43
0.0000001
 44
0.0000000001
 40
0.0
 40
0.0
 40
0.0
 40
0.0
 40
0.2475847961
 40
1.0
 40
1.0
 40
1.0
 40
1.0
 10
259.9699615306
 20
207.1009669838
 30
0.0
 10
259.9484423116
 20
207.2092367516
 30
0.0
 10
259.840044173
 20
207.6421297886
 30
0.0
 10
259.6437951484
 20
208.0519302496
 30
0.0
 10
259.4590328603
 20
208.3319357709
 30
0.0
  0
SPLINE
  5
2C2
100
AcDbEntity
  8
0
100
AcDbSpline
 62
7
  6
BYLAYER
 70
0
 71
3
 72
9
 73
5
 74
0
 42
0.0000001
 43
0.0000001
 44
0.0000000001
 40
0.0
 40
0.0
 40
0.0
 40
0.0
 40
0.2745214961
 40
1.0
 40
1.0
 40
1.0
 40
1.0
 10
255.2226452147
 20
195.5472323278
 30
0.0
 10
255.2826563342
 20
195.54770476
 30
0.0
 10
255.5000274707
 20
195.5340500722
 30
0.0
 10
255.7208945991
 20
195.450859533
 30
0.0
 10
255.8380145566
 20
195.3439215149
 30
0.0
  0
SPLINE
  5
2C3
100
AcDbEntity
  8
0
100
AcDbSpline
 62
7
  6
BYLAYER
 70
0
 71
3
 72
9
 73
5
 74
0
 42
0.0000001
 43
0.0000001
 44
0.0000000001
 40
0.0
 40
0.0
 40
0.0
 40
0.0
 40
0.5126868674
 40
1.0
 40
1.0
 40
1.0
 40
1.0
 10
255.8380145566
 20
195.3439215149
 30
0.0
 10
255.8879104217
 20
195.2983633961
 30
0.0
 10
255.9711343048
 20
195.1910332214
 30
0.0
 10
256.0009247867
 20
195.0575688869
 30
0.0
 10
256.0009247867
 20
194.9933470163
 30
0.0
  0
SPLINE
  5
2C4
100
AcDbEntity
  8
0
100
AcDbSpline
 62
7
  6
BYLAYER
 70
0
 71
3
 72
9
 73
5
 74
0
 42
0.0000001
 43
0.0000001
 44
0.0000000001
 40
0.0
 40
0.0
 40
0.0
 40
0.0
 40
0.2460713631
 40
1.0
 40
1.0
 40
1.0
 40
1.0
 10
259.1327254324
 20
208.2995087789
 30
0.0
 10
259.1026012991
 20
208.3425841368
 30
0.0
 10
258.976346906
 20
208.5149356164
 30
0.0
 10
258.8352471626
 20
208.676313912
 30
0.0
 10
258.7223155656
 20
208.7911309505
 30
0.0
  0
SPLINE
  5
2C5
100
AcDbEntity
  8
0
100
AcDbSpline
 62
7
  6
BYLAYER
 70
0
 71
3
 72
14
 73
10
 74
0
 42
0.0000001
 43
0.0000001
 44
0.0000000001
 40
0.0
 40
0.0
 40
0.0
 40
0.0
 40
0.108924662
 40
0.2285865007
 40
0.3576869654
 40
0.4927337736
 40
0.6291065306
 40
0.7619478999
 40
1.0
 40
1.0
 40
1.0
 40
1.0
 10
258.7223155656
 20
208.7911309505
 30
0.0
 10
258.3996578998
 20
209.1191755246
 30
0.0
 10
257.6035624262
 20
209.6947090473
 30
0.0
 10
256.1774384952
 20
210.232663619
 30
0.0
 10
254.5605397084
 20
210.4625730105
 30
0.0
 10
252.8616405693
 20
210.3712146654
 30
0.0
 10
251.1908166841
 20
209.9641112393
 30
0.0
 10
249.2360799653
 20
209.0799099388
 30
0.0
 10
247.9943121854
 20
207.9972982046
 30
0.0
 10
247.4681409924
 20
207.1403338596
 30
0.0
  0
SPLINE
  5
2C6
100
AcDbEntity
  8
0
100
AcDbSpline
 62
7
  6
BYLAYER
 70
0
 71
3
 72
9
 73
5
 74
0
 42
0.0000001
 43
0.0000001
 44
0.0000000001
 40
0.0
 40
0.0
 40
0.0
 40
0.0
 40
0.2745214961
 40
1.0
 40
1.0
 40
1.0
 40
1.0
 10
257.6983153866
 20
197.5610523108
 30
0.0
 10
257.7583265061
 20
197.561524743
 30
0.0
 10
257.9756976426
 20
197.5478700551
 30
0.0
 10
258.1965647709
 20
197.4646795159
 30
0.0
 10
258.3136847284
 20
197.3577414978
 30
0.0
  0
SPLINE
  5
2C7
100
AcDbEntity
  8
0
100
AcDbSpline
 62
7
  6
BYLAYER
 70
0
 71
3
 72
9
 73
5
 74
0
 42
0.0000001
 43
0.0000001
 44
0.0000000001
 40
0.0
 40
0.0
 40
0.0
 40
0.0
 40
0.5126868674
 40
1.0
 40
1.0
 40
1.0
 40
1.0
 10
258.3136847284
 20
197.3577414978
 30
0.0
 10
258.3635805936
 20
197.3121833791
 30
0.0
 10
258.4468044766
 20
197.2048532044
 30
0.0
 10
258.4765949585
 20
197.0713888699
 30
0.0
 10
258.4765949585
 20
197.0071669993
 30
0.0
  0
SPLINE
  5
2C8
100
AcDbEntity
  8
0
100
AcDbSpline
 62
7
  6
BYLAYER
 70
0
 71
3
 72
9
 73
5
 74
0
 42
0.0000001
 43
0.0000001
 44
0.0000000001
 40
0.0
 40
0.0
 40
0.0
 40
0.0
 40
0.2745214961
 40
1.0
 40
1.0
 40
1.0
 40
1.0
 10
255.2226452147
 20
199.0828299434
 30
0.0
 10
255.2826563342
 20
199.0833023756
 30
0.0
 10
255.5000274707
 20
199.0696476878
 30
0.0
 10
255.7208945991
 20
198.9864571486
 30
0.0
 10
255.8380145566
 20
198.8795191305
 30
0.0
  0
SPLINE
  5
2C9
100
AcDbEntity
  8
0
100
AcDbSpline
 62
7
  6
BYLAYER
 70
0
 71
3
 72
9
 73
5
 74
0
 42
0.0000001
 43
0.0000001
 44
0.0000000001
 40
0.0
 40
0.0
 40
0.0
 40
0.0
 40
0.5126868674
 40
1.0
 40
1.0
 40
1.0
 40
1.0
 10
255.8380145566
 20
198.8795191305
 30
0.0
 10
255.8879104217
 20
198.8339610117
 30
0.0
 10
255.9711343048
 20
198.7266308371
 30
0.0
 10
256.0009247867
 20
198.5931665025
 30
0.0
 10
256.0009247867
 20
198.5289446319
 30
0.0
  0
SPLINE
  5
2CA
100
AcDbEntity
  8
0
100
AcDbSpline
 62
7
  6
BYLAYER
 70
0
 71
3
 72
9
 73
5
 74
0
 42
0.0000001
 43
0.0000001
 44
0.0000000001
 40
0.0
 40
0.0
 40
0.0
 40
0.0
 40
0.2581494063
 40
1.0
 40
1.0
 40
1.0
 40
1.0
 10
246.2926445451
 20
205.4684133572
 30
0.0
 10
246.2926446032
 20
205.4392037768
 30
0.0
 10
246.2938469603
 20
205.3260600959
 30
0.0
 10
246.299990925
 20
205.2129455053
 30
0.0
 10
246.3078152665
 20
205.1293706436
 30
0.0
  0
SPLINE
  5
2CB
100
AcDbEntity
  8
0
100
AcDbSpline
 62
7
  6
BYLAYER
 70
0
 71
3
 72
9
 73
5
 74
0
 42
0.0000001
 43
0.0000001
 44
0.0000000001
 40
0.0
 40
0.0
 40
0.0
 40
0.0
 40
0.2572048721
 40
1.0
 40
1.0
 40
1.0
 40
1.0
 10
246.3078153621
 20
205.8364897017
 30
0.0
 10
246.3053153641
 20
205.805000413
 30
0.0
 10
246.2967038771
 20
205.6824884075
 30
0.0
 10
246.2926444341
 20
205.5596386828
 30
0.0
 10
246.2926446155
 20
205.4684130029
 30
0.0
  0
SPLINE
  5
2CC
100
AcDbEntity
  8
0
100
AcDbSpline
 62
7
  6
BYLAYER
 70
0
 71
3
 72
9
 73
5
 74
0
 42
0.0000001
 43
0.0000001
 44
0.0000000001
 40
0.0
 40
0.0
 40
0.0
 40
0.0
 40
0.4871367924
 40
1.0
 40
1.0
 40
1.0
 40
1.0
 10
259.0328978634
 20
197.4523497822
 30
0.0
 10
258.9898371382
 20
197.6691536502
 30
0.0
 10
258.8231871282
 20
198.1016382928
 30
0.0
 10
258.5284896508
 20
198.4566254955
 30
0.0
 10
258.3575199864
 20
198.6144998974
 30
0.0
  0
SPLINE
  5
2CD
100
AcDbEntity
  8
0
100
AcDbSpline
 62
7
  6
BYLAYER
 70
0
 71
3
 72
9
 73
5
 74
0
 42
0.0000001
 43
0.0000001
 44
0.0000000001
 40
0.0
 40
0.0
 40
0.0
 40
0.0
 40
0.2354347499
 40
1.0
 40
1.0
 40
1.0
 40
1.0
 10
246.6144899329
 20
215.0817786128
 30
0.0
 10
246.7452664384
 20
215.0819060855
 30
0.0
 10
247.2991569572
 20
215.0264404641
 30
0.0
 10
247.8347195503
 20
214.7703685393
 30
0.0
 10
248.1500783676
 20
214.4859182226
 30
0.0
  0
SPLINE
  5
2CE
100
AcDbEntity
  8
0
100
AcDbSpline
 62
7
  6
BYLAYER
 70
0
 71
3
 72
11
 73
7
 74
0
 42
0.0000001
 43
0.0000001
 44
0.0000000001
 40
0.0
 40
0.0
 40
0.0
 40
0.0
 40
0.2270157081
 40
0.467150815
 40
0.7244086777
 40
1.0
 40
1.0
 40
1.0
 40
1.0
 10
247.6211146397
 20
198.7845695042
 30
0.0
 10
247.6211146397
 20
199.1117129868
 30
0.0
 10
247.7164834254
 20
199.7875595735
 30
0.0
 10
248.1196206982
 20
200.7604897624
 30
0.0
 10
248.7646248433
 20
201.6780082435
 30
0.0
 10
249.3202642287
 20
202.2147685101
 30
0.0
 10
249.6273043128
 20
202.4666606866
 30
0.0
  0
SPLINE
  5
2CF
100
AcDbEntity
  8
0
100
AcDbSpline
 62
7
  6
BYLAYER
 70
0
 71
3
 72
11
 73
7
 74
0
 42
0.0000001
 43
0.0000001
 44
0.0000000001
 40
0.0
 40
0.0
 40
0.0
 40
0.0
 40
0.2431759
 40
0.4995647501
 40
0.7561832075
 40
1.0
 40
1.0
 40
1.0
 40
1.0
 10
249.6273043128
 20
202.4666606866
 30
0.0
 10
250.1740988083
 20
202.9152446424
 30
0.0
 10
251.4328784101
 20
203.6777028271
 30
0.0
 10
253.5437612981
 20
204.3547005488
 30
0.0
 10
255.7534780394
 20
204.5534180196
 30
0.0
 10
257.2123216676
 20
204.3421991898
 30
0.0
 10
257.8927979711
 20
204.1426900748
 30
0.0
  0
SPLINE
  5
2D0
100
AcDbEntity
  8
0
100
AcDbSpline
 62
7
  6
BYLAYER
 70
0
 71
3
 72
11
 73
7
 74
0
 42
0.0000001
 43
0.0000001
 44
0.0000000001
 40
0.0
 40
0.0
 40
0.0
 40
0.0
 40
0.2792407562
 40
0.536373004
 40
0.7739561106
 40
1.0
 40
1.0
 40
1.0
 40
1.0
 10
257.8927979711
 20
204.1426900748
 30
0.0
 10
258.3453021866
 20
204.010020186
 30
0.0
 10
259.1938578153
 20
203.6712406992
 30
0.0
 10
260.2757457728
 20
202.9141586362
 30
0.0
 10
261.0582603988
 20
201.9593732717
 30
0.0
 10
261.3441552077
 20
201.2124151566
 30
0.0
 10
261.418547157
 20
200.8380154576
 30
0.0
  0
SPLINE
  5
2D1
100
AcDbEntity
  8
0
100
AcDbSpline
 62
7
  6
BYLAYER
 70
0
 71
3
 72
20
 73
16
 74
0
 42
0.0000001
 43
0.0000001
 44
0.0000000001
 40
0.0
 40
0.0
 40
0.0
 40
0.0
 40
0.0525714893
 40
0.1082069647
 40
0.1678397005
 40
0.2317416934
 40
0.3698892499
 40
0.5151249858
 40
0.6564336765
 40
0.7227092419
 40
0.7848826769
 40
0.842812042
 40
0.897026735
 40
0.948824092
 40
1.0
 40
1.0
 40
1.0
 40
1.0
 10
261.274582106
 20
197.99926167
 30
0.0
 10
261.274582106
 20
197.6998240963
 30
0.0
 10
261.186675812
 20
197.0810300962
 30
0.0
 10
260.8154211949
 20
196.1909136188
 30
0.0
 10
260.2214563257
 20
195.3519758199
 30
0.0
 10
259.139954491
 20
194.3158925193
 30
0.0
 10
257.3835998484
 20
193.3334992755
 30
0.0
 10
255.006190546
 20
192.7637030857
 30
0.0
 10
252.9660632473
 20
192.831392453
 30
0.0
 10
251.4792116398
 20
193.243165423
 30
0.0
 10
250.5158280768
 20
193.7041347625
 30
0.0
 10
249.7185034711
 20
194.308766447
 30
0.0
 10
249.1193806819
 20
195.0379051731
 30
0.0
 10
248.7482621876
 20
195.8647833184
 30
0.0
 10
248.6664387417
 20
196.4548314312
 30
0.0
 10
248.6664387417
 20
196.746320029
 30
0.0
  0
SPLINE
  5
2D2
100
AcDbEntity
  8
0
100
AcDbSpline
 62
7
  6
BYLAYER
 70
0
 71
3
 72
9
 73
5
 74
0
 42
0.0000001
 43
0.0000001
 44
0.0000000001
 40
0.0
 40
0.0
 40
0.0
 40
0.0
 40
0.2473433033
 40
1.0
 40
1.0
 40
1.0
 40
1.0
 10
248.6664387417
 20
196.746320029
 30
0.0
 10
248.6664387417
 20
196.7984618872
 30
0.0
 10
248.6716104995
 20
197.0092472579
 30
0.0
 10
248.6973201535
 20
197.2194522225
 30
0.0
 10
248.7272195986
 20
197.3752753715
 30
0.0
  0
SPLINE
  5
2D3
100
AcDbEntity
  8
0
100
AcDbSpline
 62
7
  6
BYLAYER
 70
0
 71
3
 72
20
 73
16
 74
0
 42
0.0000001
 43
0.0000001
 44
0.0000000001
 40
0.0
 40
0.0
 40
0.0
 40
0.0
 40
0.054131734
 40
0.1118072531
 40
0.173526699
 40
0.239143335
 40
0.3789223882
 40
0.5232077058
 40
0.6619372294
 40
0.7267545227
 40
0.7876014281
 40
0.8444610588
 40
0.8979139356
 40
0.9492132937
 40
1.0
 40
1.0
 40
1.0
 40
1.0
 10
248.7272195986
 20
197.3752753715
 30
0.0
 10
248.7831921499
 20
197.6669804242
 30
0.0
 10
248.9767589493
 20
198.2563508985
 30
0.0
 10
249.4696501612
 20
199.0783939353
 30
0.0
 10
250.1522654784
 20
199.8374778657
 30
0.0
 10
251.306026032
 20
200.7503751815
 30
0.0
 10
253.0663412801
 20
201.5817130882
 30
0.0
 10
255.3701046274
 20
202.0072370691
 30
0.0
 10
257.3015860528
 20
201.8564974072
 30
0.0
 10
258.6881374765
 20
201.4102598031
 30
0.0
 10
259.5794210439
 20
200.9407690765
 30
0.0
 10
260.3129996357
 20
200.3431327339
 30
0.0
 10
260.861559761
 20
199.6351540919
 30
0.0
 10
261.2000087364
 20
198.8411616964
 30
0.0
 10
261.274582106
 20
198.2779336879
 30
0.0
 10
261.274582106
 20
197.99926167
 30
0.0
  0
SPLINE
  5
2D4
100
AcDbEntity
  8
0
100
AcDbSpline
 62
7
  6
BYLAYER
 70
0
 71
3
 72
11
 73
7
 74
0
 42
0.0000001
 43
0.0000001
 44
0.0000000001
 40
0.0
 40
0.0
 40
0.0
 40
0.0
 40
0.214268623
 40
0.4515599913
 40
0.71546656
 40
1.0
 40
1.0
 40
1.0
 40
1.0
 10
260.3473982514
 20
198.2641437591
 30
0.0
 10
260.3473982514
 20
197.8523376606
 30
0.0
 10
260.1461884432
 20
196.9786913525
 30
0.0
 10
259.3564490614
 20
195.824599623
 30
0.0
 10
258.1711342038
 20
194.8620071728
 30
0.0
 10
257.2082100666
 20
194.4077655098
 30
0.0
 10
256.6917573167
 20
194.2279864614
 30
0.0
  0
SPLINE
  5
2D5
100
AcDbEntity
  8
0
100
AcDbSpline
 62
7
  6
BYLAYER
 70
0
 71
3
 72
12
 73
8
 74
0
 42
0.0000001
 43
0.0000001
 44
0.0000000001
 40
0.0
 40
0.0
 40
0.0
 40
0.0
 40
0.287637151
 40
0.5502618275
 40
0.7843184311
 40
0.8935020094
 40
1.0
 40
1.0
 40
1.0
 40
1.0
 10
254.140966534
 20
193.7963119296
 30
0.0
 10
253.5790976137
 20
193.7970005951
 30
0.0
 10
252.4984670686
 20
193.9203413039
 30
0.0
 10
251.055003603
 20
194.4908069551
 30
0.0
 10
250.1328110842
 20
195.2823660668
 30
0.0
 10
249.6779969144
 20
196.0415308359
 30
0.0
 10
249.5471532145
 20
196.4466884928
 30
0.0
 10
249.5065966893
 20
196.6507296785
 30
0.0
  0
SPLINE
  5
2D6
100
AcDbEntity
  8
0
100
AcDbSpline
 62
7
  6
BYLAYER
 70
0
 71
3
 72
9
 73
5
 74
0
 42
0.0000001
 43
0.0000001
 44
0.0000000001
 40
0.0
 40
0.0
 40
0.0
 40
0.0
 40
0.2366815317
 40
1.0
 40
1.0
 40
1.0
 40
1.0
 10
257.3772046132
 20
199.2170930962
 30
0.0
 10
257.1845472175
 20
199.2939944588
 30
0.0
 10
256.3444480211
 20
199.5523771139
 30
0.0
 10
255.4375296343
 20
199.5633163375
 30
0.0
 10
254.7768783519
 20
199.4579121428
 30
0.0
  0
SPLINE
  5
2D7
100
AcDbEntity
  8
0
100
AcDbSpline
 62
7
  6
BYLAYER
 70
0
 71
3
 72
12
 73
8
 74
0
 42
0.0000001
 43
0.0000001
 44
0.0000000001
 40
0.0
 40
0.0
 40
0.0
 40
0.0
 40
0.2834468398
 40
0.5507286284
 40
0.788861624
 40
0.8972391338
 40
1.0
 40
1.0
 40
1.0
 40
1.0
 10
254.7768783519
 20
199.4579121428
 30
0.0
 10
254.2924655165
 20
199.3806260675
 30
0.0
 10
253.3655969512
 20
199.1085386297
 30
0.0
 10
252.1879923123
 20
198.3860605482
 30
0.0
 10
251.484781958
 20
197.5527675353
 30
0.0
 10
251.1979195099
 20
196.8235314933
 30
0.0
 10
251.1486112499
 20
196.4567845704
 30
0.0
 10
251.1486112499
 20
196.2789443207
 30
0.0
  0
SPLINE
  5
2D8
100
AcDbEntity
  8
0
100
AcDbSpline
 62
7
  6
BYLAYER
 70
0
 71
3
 72
9
 73
5
 74
0
 42
0.0000001
 43
0.0000001
 44
0.0000000001
 40
0.0
 40
0.0
 40
0.0
 40
0.0
 40
0.5134013941
 40
1.0
 40
1.0
 40
1.0
 40
1.0
 10
258.0506296445
 20
198.3648616742
 30
0.0
 10
257.9143464408
 20
198.2540028683
 30
0.0
 10
257.5765182815
 20
198.1271575967
 30
0.0
 10
257.2121647384
 20
198.1802477408
 30
0.0
 10
257.0703142713
 20
198.2674422591
 30
0.0
  0
SPLINE
  5
2D9
100
AcDbEntity
  8
0
100
AcDbSpline
 62
7
  6
BYLAYER
 70
0
 71
3
 72
9
 73
5
 74
0
 42
0.0000001
 43
0.0000001
 44
0.0000000001
 40
0.0
 40
0.0
 40
0.0
 40
0.0
 40
0.2397878338
 40
1.0
 40
1.0
 40
1.0
 40
1.0
 10
256.6941124348
 20
196.8300317532
 30
0.0
 10
256.6941124348
 20
196.852030103
 30
0.0
 10
256.7009130203
 20
196.9437578702
 30
0.0
 10
256.7341766971
 20
197.0325767428
 30
0.0
 10
256.7690752492
 20
197.0929597975
 30
0.0
  0
SPLINE
  5
2DA
100
AcDbEntity
  8
0
100
AcDbSpline
 62
7
  6
BYLAYER
 70
0
 71
3
 72
9
 73
5
 74
0
 42
0.0000001
 43
0.0000001
 44
0.0000000001
 40
0.0
 40
0.0
 40
0.0
 40
0.0
 40
0.2407462369
 40
1.0
 40
1.0
 40
1.0
 40
1.0
 10
256.7973879236
 20
197.1376691571
 30
0.0
 10
256.8079257594
 20
197.1529476677
 30
0.0
 10
256.8542346245
 20
197.2146483139
 30
0.0
 10
256.9098488241
 20
197.2691491234
 30
0.0
 10
256.9552731337
 20
197.3060661886
 30
0.0
  0
SPLINE
  5
2DB
100
AcDbEntity
  8
0
100
AcDbSpline
 62
7
  6
BYLAYER
 70
0
 71
3
 72
9
 73
5
 74
0
 42
0.0000001
 43
0.0000001
 44
0.0000000001
 40
0.0
 40
0.0
 40
0.0
 40
0.0
 40
0.2410569115
 40
1.0
 40
1.0
 40
1.0
 40
1.0
 10
256.9552731337
 20
197.3060661886
 30
0.0
 10
256.9793387586
 20
197.3256247081
 30
0.0
 10
257.0831691839
 20
197.4017848967
 30
0.0
 10
257.200693577
 20
197.458679908
 30
0.0
 10
257.2929322963
 20
197.4906905912
 30
0.0
  0
SPLINE
  5
2DC
100
AcDbEntity
  8
0
100
AcDbSpline
 62
7
  6
BYLAYER
 70
0
 71
3
 72
15
 73
11
 74
0
 42
0.0000001
 43
0.0000001
 44
0.0000000001
 40
0.0
 40
0.0
 40
0.0
 40
0.0
 40
0.1077488505
 40
0.2311695496
 40
0.3698184645
 40
0.5155930603
 40
0.6574258216
 40
0.785839643
 40
0.8976425714
 40
1.0
 40
1.0
 40
1.0
 40
1.0
 10
258.4765949585
 20
197.0071669993
 30
0.0
 10
258.4765949585
 20
196.9207235484
 30
0.0
 10
258.4204618891
 20
196.7341466947
 30
0.0
 10
258.2163248501
 20
196.5098612718
 30
0.0
 10
257.9267753376
 20
196.3476229194
 30
0.0
 10
257.590203828
 20
196.2669881448
 30
0.0
 10
257.2521909752
 20
196.2782168083
 30
0.0
 10
256.9574737236
 20
196.3817847391
 30
0.0
 10
256.745861656
 20
196.5727355173
 30
0.0
 10
256.6941124348
 20
196.7479136674
 30
0.0
 10
256.6941124348
 20
196.8300317532
 30
0.0
  0
SPLINE
  5
2DD
100
AcDbEntity
  8
0
100
AcDbSpline
 62
7
  6
BYLAYER
 70
0
 71
3
 72
9
 73
5
 74
0
 42
0.0000001
 43
0.0000001
 44
0.0000000001
 40
0.0
 40
0.0
 40
0.0
 40
0.0
 40
0.2397878338
 40
1.0
 40
1.0
 40
1.0
 40
1.0
 10
254.218442263
 20
194.8162117702
 30
0.0
 10
254.218442263
 20
194.83821012
 30
0.0
 10
254.2252428485
 20
194.9299378871
 30
0.0
 10
254.2585065253
 20
195.0187567597
 30
0.0
 10
254.2934050774
 20
195.0791398144
 30
0.0
  0
SPLINE
  5
2DE
100
AcDbEntity
  8
0
100
AcDbSpline
 62
7
  6
BYLAYER
 70
0
 71
3
 72
9
 73
5
 74
0
 42
0.0000001
 43
0.0000001
 44
0.0000000001
 40
0.0
 40
0.0
 40
0.0
 40
0.0
 40
0.2407462369
 40
1.0
 40
1.0
 40
1.0
 40
1.0
 10
254.3217177518
 20
195.123849174
 30
0.0
 10
254.3322555876
 20
195.1391276846
 30
0.0
 10
254.3785644526
 20
195.2008283309
 30
0.0
 10
254.4341786523
 20
195.2553291403
 30
0.0
 10
254.4796029619
 20
195.2922462056
 30
0.0
  0
SPLINE
  5
2DF
100
AcDbEntity
  8
0
100
AcDbSpline
 62
7
  6
BYLAYER
 70
0
 71
3
 72
9
 73
5
 74
0
 42
0.0000001
 43
0.0000001
 44
0.0000000001
 40
0.0
 40
0.0
 40
0.0
 40
0.0
 40
0.2410569115
 40
1.0
 40
1.0
 40
1.0
 40
1.0
 10
254.4796029619
 20
195.2922462056
 30
0.0
 10
254.5036685868
 20
195.3118047251
 30
0.0
 10
254.6074990121
 20
195.3879649137
 30
0.0
 10
254.7250234051
 20
195.444859925
 30
0.0
 10
254.8172621244
 20
195.4768706082
 30
0.0
  0
SPLINE
  5
2E0
100
AcDbEntity
  8
0
100
AcDbSpline
 62
7
  6
BYLAYER
 70
0
 71
3
 72
15
 73
11
 74
0
 42
0.0000001
 43
0.0000001
 44
0.0000000001
 40
0.0
 40
0.0
 40
0.0
 40
0.0
 40
0.1077488505
 40
0.2311695496
 40
0.3698184645
 40
0.5155930603
 40
0.6574258216
 40
0.785839643
 40
0.8976425714
 40
1.0
 40
1.0
 40
1.0
 40
1.0
 10
256.0009247867
 20
194.9933470163
 30
0.0
 10
256.0009247867
 20
194.9069035654
 30
0.0
 10
255.9447917173
 20
194.7203267117
 30
0.0
 10
255.7406546783
 20
194.4960412888
 30
0.0
 10
255.4511051658
 20
194.3338029364
 30
0.0
 10
255.1145336562
 20
194.2531681618
 30
0.0
 10
254.7765208034
 20
194.2643968253
 30
0.0
 10
254.4818035518
 20
194.3679647561
 30
0.0
 10
254.2701914842
 20
194.5589155343
 30
0.0
 10
254.218442263
 20
194.7340936844
 30
0.0
 10
254.218442263
 20
194.8162117702
 30
0.0
  0
SPLINE
  5
2E1
100
AcDbEntity
  8
0
100
AcDbSpline
 62
7
  6
BYLAYER
 70
0
 71
3
 72
15
 73
11
 74
0
 42
0.0000001
 43
0.0000001
 44
0.0000000001
 40
0.0
 40
0.0
 40
0.0
 40
0.0
 40
0.1065532472
 40
0.2278031878
 40
0.3638926085
 40
0.5080227784
 40
0.6502767252
 40
0.7814291737
 40
0.896743323
 40
1.0
 40
1.0
 40
1.0
 40
1.0
 10
256.0009247867
 20
196.7611458241
 30
0.0
 10
256.0009247867
 20
196.6786846069
 30
0.0
 10
255.9501701832
 20
196.5012667129
 30
0.0
 10
255.7625878613
 20
196.2832949716
 30
0.0
 10
255.4931084952
 20
196.1202095735
 30
0.0
 10
255.1750755466
 20
196.0299882067
 30
0.0
 10
254.8482026293
 20
196.0230513793
 30
0.0
 10
254.5530018055
 20
196.1017439675
 30
0.0
 10
254.3246541704
 20
196.2605522662
 30
0.0
 10
254.2427289594
 20
196.4187897325
 30
0.0
 10
254.227053662
 20
196.4971472151
 30
0.0
  0
SPLINE
  5
2E2
100
AcDbEntity
  8
0
100
AcDbSpline
 62
7
  6
BYLAYER
 70
0
 71
3
 72
9
 73
5
 74
0
 42
0.0000001
 43
0.0000001
 44
0.0000000001
 40
0.0
 40
0.0
 40
0.0
 40
0.0
 40
0.2397878338
 40
1.0
 40
1.0
 40
1.0
 40
1.0
 10
254.218442263
 20
198.3518093858
 30
0.0
 10
254.218442263
 20
198.3738077356
 30
0.0
 10
254.2252428485
 20
198.4655355028
 30
0.0
 10
254.2585065253
 20
198.5543543754
 30
0.0
 10
254.2934050774
 20
198.61473743
 30
0.0
  0
SPLINE
  5
2E3
100
AcDbEntity
  8
0
100
AcDbSpline
 62
7
  6
BYLAYER
 70
0
 71
3
 72
9
 73
5
 74
0
 42
0.0000001
 43
0.0000001
 44
0.0000000001
 40
0.0
 40
0.0
 40
0.0
 40
0.0
 40
0.2407462369
 40
1.0
 40
1.0
 40
1.0
 40
1.0
 10
254.3217177518
 20
198.6594467896
 30
0.0
 10
254.3322555876
 20
198.6747253002
 30
0.0
 10
254.3785644526
 20
198.7364259465
 30
0.0
 10
254.4341786523
 20
198.790926756
 30
0.0
 10
254.4796029619
 20
198.8278438212
 30
0.0
  0
SPLINE
  5
2E4
100
AcDbEntity
  8
0
100
AcDbSpline
 62
7
  6
BYLAYER
 70
0
 71
3
 72
9
 73
5
 74
0
 42
0.0000001
 43
0.0000001
 44
0.0000000001
 40
0.0
 40
0.0
 40
0.0
 40
0.0
 40
0.2410569115
 40
1.0
 40
1.0
 40
1.0
 40
1.0
 10
254.4796029619
 20
198.8278438212
 30
0.0
 10
254.5036685868
 20
198.8474023407
 30
0.0
 10
254.6074990121
 20
198.9235625293
 30
0.0
 10
254.7250234051
 20
198.9804575406
 30
0.0
 10
254.8172621244
 20
199.0124682238
 30
0.0
  0
SPLINE
  5
2E5
100
AcDbEntity
  8
0
100
AcDbSpline
 62
7
  6
BYLAYER
 70
0
 71
3
 72
15
 73
11
 74
0
 42
0.0000001
 43
0.0000001
 44
0.0000000001
 40
0.0
 40
0.0
 40
0.0
 40
0.0
 40
0.1077488505
 40
0.2311695496
 40
0.3698184645
 40
0.5155930603
 40
0.6574258216
 40
0.785839643
 40
0.8976425714
 40
1.0
 40
1.0
 40
1.0
 40
1.0
 10
256.0009247867
 20
198.5289446319
 30
0.0
 10
256.0009247867
 20
198.442501181
 30
0.0
 10
255.9447917173
 20
198.2559243273
 30
0.0
 10
255.7406546783
 20
198.0316389044
 30
0.0
 10
255.4511051658
 20
197.869400552
 30
0.0
 10
255.1145336562
 20
197.7887657775
 30
0.0
 10
254.7765208034
 20
197.7999944409
 30
0.0
 10
254.4818035518
 20
197.9035623717
 30
0.0
 10
254.2701914842
 20
198.0945131499
 30
0.0
 10
254.218442263
 20
198.2696913
 30
0.0
 10
254.218442263
 20
198.3518093858
 30
0.0
  0
SPLINE
  5
2E6
100
AcDbEntity
  8
0
100
AcDbSpline
 62
7
  6
BYLAYER
 70
0
 71
3
 72
9
 73
5
 74
0
 42
0.0000001
 43
0.0000001
 44
0.0000000001
 40
0.0
 40
0.0
 40
0.0
 40
0.0
 40
0.2397878338
 40
1.0
 40
1.0
 40
1.0
 40
1.0
 10
251.7427720911
 20
196.3379894028
 30
0.0
 10
251.7427720911
 20
196.3599877526
 30
0.0
 10
251.7495726766
 20
196.4517155198
 30
0.0
 10
251.7828363534
 20
196.5405343924
 30
0.0
 10
251.8177349055
 20
196.6009174471
 30
0.0
  0
SPLINE
  5
2E7
100
AcDbEntity
  8
0
100
AcDbSpline
 62
7
  6
BYLAYER
 70
0
 71
3
 72
9
 73
5
 74
0
 42
0.0000001
 43
0.0000001
 44
0.0000000001
 40
0.0
 40
0.0
 40
0.0
 40
0.0
 40
0.2407462369
 40
1.0
 40
1.0
 40
1.0
 40
1.0
 10
251.8460475799
 20
196.6456268067
 30
0.0
 10
251.8565854157
 20
196.6609053173
 30
0.0
 10
251.9028942808
 20
196.7226059635
 30
0.0
 10
251.9585084804
 20
196.777106773
 30
0.0
 10
252.00393279
 20
196.8140238382
 30
0.0
  0
SPLINE
  5
2E8
100
AcDbEntity
  8
0
100
AcDbSpline
 62
7
  6
BYLAYER
 70
0
 71
3
 72
9
 73
5
 74
0
 42
0.0000001
 43
0.0000001
 44
0.0000000001
 40
0.0
 40
0.0
 40
0.0
 40
0.0
 40
0.2410569115
 40
1.0
 40
1.0
 40
1.0
 40
1.0
 10
252.00393279
 20
196.8140238382
 30
0.0
 10
252.0279984149
 20
196.8335823577
 30
0.0
 10
252.1318288402
 20
196.9097425463
 30
0.0
 10
252.2493532333
 20
196.9666375576
 30
0.0
 10
252.3415919526
 20
196.9986482408
 30
0.0
  0
SPLINE
  5
2E9
100
AcDbEntity
  8
0
100
AcDbSpline
 62
7
  6
BYLAYER
 70
0
 71
3
 72
15
 73
11
 74
0
 42
0.0000001
 43
0.0000001
 44
0.0000000001
 40
0.0
 40
0.0
 40
0.0
 40
0.0
 40
0.1077488505
 40
0.2311695496
 40
0.3698184645
 40
0.5155930603
 40
0.6574258216
 40
0.785839643
 40
0.8976425714
 40
1.0
 40
1.0
 40
1.0
 40
1.0
 10
253.5252546148
 20
196.5151246489
 30
0.0
 10
253.5252546148
 20
196.428681198
 30
0.0
 10
253.4691215454
 20
196.2421043443
 30
0.0
 10
253.2649845064
 20
196.0178189214
 30
0.0
 10
252.9754349939
 20
195.855580569
 30
0.0
 10
252.6388634843
 20
195.7749457944
 30
0.0
 10
252.3008506315
 20
195.7861744579
 30
0.0
 10
252.0061333799
 20
195.8897423887
 30
0.0
 10
251.7945213123
 20
196.0806931669
 30
0.0
 10
251.7427720911
 20
196.255871317
 30
0.0
 10
251.7427720911
 20
196.3379894028
 30
0.0
  0
SPLINE
  5
2EA
100
AcDbEntity
  8
0
100
AcDbSpline
 62
7
  6
BYLAYER
 70
0
 71
3
 72
15
 73
11
 74
0
 42
0.0000001
 43
0.0000001
 44
0.0000000001
 40
0.0
 40
0.0
 40
0.0
 40
0.0
 40
0.1065025216
 40
0.2278040419
 40
0.3638697445
 40
0.5079837273
 40
0.6502320592
 40
0.7813965469
 40
0.8967173986
 40
1.0
 40
1.0
 40
1.0
 40
1.0
 10
253.1864222639
 20
196.6956659024
 30
0.0
 10
253.1864222639
 20
196.6407186971
 30
0.0
 10
253.1525242465
 20
196.5224709632
 30
0.0
 10
253.0275794975
 20
196.3770825374
 30
0.0
 10
252.8478513112
 20
196.2684604838
 30
0.0
 10
252.6358947419
 20
196.2082232284
 30
0.0
 10
252.4179812274
 20
196.2036210967
 30
0.0
 10
252.2211661949
 20
196.2559964338
 30
0.0
 10
252.0688818612
 20
196.3618944011
 30
0.0
 10
252.0143621418
 20
196.4674304241
 30
0.0
 10
252.0038696447
 20
196.5196731483
 30
0.0
  0
SPLINE
  5
2EB
100
AcDbEntity
  8
0
100
AcDbSpline
 62
7
  6
BYLAYER
 70
0
 71
3
 72
15
 73
11
 74
0
 42
0.0000001
 43
0.0000001
 44
0.0000000001
 40
0.0
 40
0.0
 40
0.0
 40
0.0
 40
0.1065025216
 40
0.2278040419
 40
0.3638697445
 40
0.5079837273
 40
0.6502320592
 40
0.7813965469
 40
0.8967173986
 40
1.0
 40
1.0
 40
1.0
 40
1.0
 10
258.1377626076
 20
197.1877082528
 30
0.0
 10
258.1377626076
 20
197.1327610475
 30
0.0
 10
258.1038645902
 20
197.0145133136
 30
0.0
 10
257.9789198412
 20
196.8691248878
 30
0.0
 10
257.7991916549
 20
196.7605028342
 30
0.0
 10
257.5872350856
 20
196.7002655788
 30
0.0
 10
257.3693215711
 20
196.6956634472
 30
0.0
 10
257.1725065386
 20
196.7480387842
 30
0.0
 10
257.0202222049
 20
196.8539367515
 30
0.0
 10
256.9657024855
 20
196.9594727745
 30
0.0
 10
256.9552099884
 20
197.0117154987
 30
0.0
  0
SPLINE
  5
2EC
100
AcDbEntity
  8
0
100
AcDbSpline
 62
7
  6
BYLAYER
 70
0
 71
3
 72
15
 73
11
 74
0
 42
0.0000001
 43
0.0000001
 44
0.0000000001
 40
0.0
 40
0.0
 40
0.0
 40
0.0
 40
0.1065025216
 40
0.2278040419
 40
0.3638697445
 40
0.5079837273
 40
0.6502320592
 40
0.7813965469
 40
0.8967173986
 40
1.0
 40
1.0
 40
1.0
 40
1.0
 10
255.6620924357
 20
195.1738882698
 30
0.0
 10
255.6620924357
 20
195.1189410645
 30
0.0
 10
255.6281944183
 20
195.0006933305
 30
0.0
 10
255.5032496693
 20
194.8553049048
 30
0.0
 10
255.323521483
 20
194.7466828512
 30
0.0
 10
255.1115649137
 20
194.6864455958
 30
0.0
 10
254.8936513992
 20
194.6818434641
 30
0.0
 10
254.6968363667
 20
194.7342188012
 30
0.0
 10
254.544552033
 20
194.8401167685
 30
0.0
 10
254.4900323136
 20
194.9456527915
 30
0.0
 10
254.4795398165
 20
194.9978955157
 30
0.0
  0
SPLINE
  5
2ED
100
AcDbEntity
  8
0
100
AcDbSpline
 62
7
  6
BYLAYER
 70
0
 71
3
 72
15
 73
11
 74
0
 42
0.0000001
 43
0.0000001
 44
0.0000000001
 40
0.0
 40
0.0
 40
0.0
 40
0.0
 40
0.1065025216
 40
0.2278040419
 40
0.3638697445
 40
0.5079837273
 40
0.6502320592
 40
0.7813965469
 40
0.8967173986
 40
1.0
 40
1.0
 40
1.0
 40
1.0
 10
255.6620924357
 20
198.7094858854
 30
0.0
 10
255.6620924357
 20
198.6545386801
 30
0.0
 10
255.6281944183
 20
198.5362909462
 30
0.0
 10
255.5032496693
 20
198.3909025204
 30
0.0
 10
255.323521483
 20
198.2822804668
 30
0.0
 10
255.1115649137
 20
198.2220432114
 30
0.0
 10
254.8936513992
 20
198.2174410798
 30
0.0
 10
254.6968363667
 20
198.2698164168
 30
0.0
 10
254.544552033
 20
198.3757143841
 30
0.0
 10
254.4900323136
 20
198.4812504071
 30
0.0
 10
254.4795398165
 20
198.5334931313
 30
0.0
  0
ELLIPSE
  5
2EE
100
AcDbEntity
  8
0
100
AcDbEllipse
 62
7
  6
BYLAYER
 10
252.7290037375
 20
208.6503388996
 30
0.0
 11
6.5638792214
 21
-0.0
 31
0.0
 40
0.7002378845
 41
2.1274652624
 42
2.2511634019
  0
ELLIPSE
  5
2EF
100
AcDbEntity
  8
0
100
AcDbEllipse
 62
7
  6
BYLAYER
 10
251.734866461
 20
213.6520776729
 30
0.0
 11
6.5662056484
 21
0.1536204542
 31
0.0
 40
0.5507109987
 41
6.6775667129
 42
8.9454824675
  0
ELLIPSE
  5
2F0
100
AcDbEntity
  8
0
100
AcDbEllipse
 62
7
  6
BYLAYER
 10
252.2792730665
 20
210.9130398241
 30
0.0
 11
6.5638792214
 21
-0.0
 31
0.0
 40
0.7002378845
 41
2.0486169752
 42
2.2511634019
  0
ENDSEC
  0
SECTION
  2
OBJECTS
  0
DICTIONARY
  5
C
100
AcDbDictionary
280
0
281
1
  3
ACAD_GROUP
350
D
  3
ACAD_MLINESTYLE
350
17
  3
ACAD_LAYOUT
350
1A
  3
ACAD_PLOTSETTINGS
350
19
  3
ACAD_PLOTSTYLENAME
350
E
  0
DICTIONARY
  5
D
102
{ACAD_REACTORS
330
C
102
}
100
AcDbDictionary
280
0
281
1
  0
ACDBDICTIONARYWDFLT
  5
E
102
{ACAD_REACTORS
330
C
102
}
100
AcDbDictionary
281
1
  3
Normal
350
F
100
AcDbDictionaryWithDefault
340
F
  0
DICTIONARY
  5
17
102
{ACAD_REACTORS
330
C
102
}
100
AcDbDictionary
280
0
281
1
  3
Standard
350
18
  0
DICTIONARY
  5
19
102
{ACAD_REACTORS
330
C
102
}
100
AcDbDictionary
281
1
  0
DICTIONARY
  5
1A
102
{ACAD_REACTORS
330
C
102
}
100
AcDbDictionary
281
1
  3
Model
350
2F1
  3
Layout1
350
2F2
  0
ACDBPLACEHOLDER
  5
F
102
{ACAD_REACTORS
330
E
102
}
  0
MLINESTYLE
  5
18
102
{ACAD_REACTORS
330
17
102
}
100
AcDbMlineStyle
  2
STANDARD
 70
0
  3

 62
256
 51
90.0
 52
90.0
 71
2
 49
0.5
 62
256
  6
BYLAYER
 49
-0.5
 62
256
  6
BYLAYER
  0
LAYOUT
  5
2F1
102
{ACAD_REACTORS
330
1A
102
}
100
AcDbPlotSettings
  1

  2
none_device
  4

  6

 40
0.0
 41
0.0
 42
0.0
 43
0.0
 44
210.0
 45
297.0
 46
0.0
 47
0.0
 48
0.0
 49
0.0
140
0.0
141
0.0
142
1.0
143
1.0
 70
1024
 72
1
 73
0
 74
0
  7

 75
0
147
1.0
148
0.0
149
0.0
100
AcDbLayout
  1
Model
 70
0
 71
0
 10
0.0
 20
0.0
 11
210.0
 21
297.0
 12
0.0
 22
0.0
 32
0.0
 14
0.0
 24
0.0
 34
0.0
 15
0.0
 25
0.0
 35
0.0
146
0.0
 13
0.0
 23
0.0
 33
0.0
 16
1.0
 26
0.0
 36
0.0
 17
0.0
 27
1.0
 37
0.0
 76
0
330
210
345
0
346
0
  0
LAYOUT
  5
2F2
102
{ACAD_REACTORS
330
1A
102
}
100
AcDbPlotSettings
  1

  2
none_device
  4

  6

 40
0.0
 41
0.0
 42
0.0
 43
0.0
 44
210.0
 45
297.0
 46
0.0
 47
0.0
 48
0.0
 49
0.0
140
0.0
141
0.0
142
1.0
143
1.0
 70
0
 72
1
 73
0
 74
0
  7

 75
0
147
1.0
148
0.0
149
0.0
100
AcDbLayout
  1
Layout1
 70
0
 71
1
 10
0.0
 20
0.0
 11
210.0
 21
297.0
 12
0.0
 22
0.0
 32
0.0
 14
0.0
 24
0.0
 34
0.0
 15
0.0
 25
0.0
 35
0.0
146
0.0
 13
0.0
 23
0.0
 33
0.0
 16
1.0
 26
0.0
 36
0.0
 17
0.0
 27
1.0
 37
0.0
 76
0
330
211
345
0
346
0
  0
ENDSEC
  0
EOF
