999
DXF file: C:\Users\sesa63760\Dev\_Creo\CAD\MCADID0002903_3D-CAD\drw0001_1.dxf
999
Pro/ENGINEER 2019471 by Parametric Technology Corporation
  0
SECTION
  2
HEADER
  9
$ACADVER
  1
AC1024
  9
$DWGCODEPAGE
  3
ANSI_1252
  9
$EXTMAX
 10
77.555453994
 20
109.6855706487
 30
0.0
  9
$EXTMIN
 10
0.0
 20
0.0
 30
0.0
  9
$LIMMIN
 10
0.0
 20
0.0
  9
$LIMMAX
 10
77.555453994
 20
109.6855706487
  9
$VIEWCTR
 10
38.777726997
 20
54.8427853243
  9
$VIEWSIZE
 40
109.6855706487
  9
$CLAYER
  8
0
  9
$LTSCALE
 40
7.1498742349
  9
$CELTYPE
  6
BYLAYER
  9
$DIMSCALE
 40
1.0
  9
$DIMASZ
 40
0.9232792142
  9
$DIMEXO
 40
1.0
  9
$DIMDLI
 40
4.9399131077
  9
$DIMEXE
 40
1.0
  9
$DIMCEN
 40
1.1699794203
  9
$DIMLFAC
 40
1.0
  9
$DIMBLK
  1
_FILLED
  9
$DIMALT
 70
0
  9
$DIMALTF
 40
0.0393700787
  9
$DIMTXT
 40
1.2925908999
  9
$DIMTOL
 70
1
  9
$DIMLIM
 70
0
  9
$DIMTFAC
 40
1.0
  9
$DIMTP
 40
0.01
  9
$DIMTM
 40
0.01
  9
$DIMGAP
 40
0.625
  9
$DIMDSEP
 70
46
  9
$AUNITS
 70
0
  9
$PDMODE
 70
3
  9
$PDSIZE
 40
0.3125
  9
$HANDSEED
  5
264
  9
$TILEMODE
 70
1
  9
$MEASUREMENT
 70
1
  9
$INSUNITS
 70
4
  0
ENDSEC
  0
SECTION
  2
CLASSES
  0
CLASS
  1
ACDBDICTIONARYWDFLT
  2
AcDbDictionaryWithDefault
  3
AutoCAD 2000
 90
0
 91
1
280
0
281
0
  0
CLASS
  1
ACDBPLACEHOLDER
  2
AcDbPlaceHolder
  3
AutoCAD 2000
 90
0
 91
1
280
0
281
0
  0
CLASS
  1
LAYOUT
  2
AcDbLayout
  3
AutoCAD 2000
 90
0
 91
0
280
0
281
0
  0
ENDSEC
  0
SECTION
  2
TABLES
  0
TABLE
  2
VPORT
  5
8
100
AcDbSymbolTable
 70
2
  0
VPORT
  5
1F4
100
AcDbSymbolTableRecord
100
AcDbViewportTableRecord
  2
*ACTIVE
 70
0
 10
0.0
 20
0.0
 11
1.0
 21
1.0
 12
38.777726997
 22
54.8427853243
 13
0.0
 23
0.0
 14
1.0
 24
1.0
 15
0.0
 25
0.0
 16
0.0
 26
0.0
 36
1.0
 17
0.0
 27
0.0
 37
0.0
 40
109.6855706487
 41
0.7070707071
 42
50.0
 43
0.0
 44
0.0
 50
0.0
 51
0.0
 71
0
 72
100
 73
1
 74
1
 75
0
 76
0
 77
0
 78
0
  0
ENDTAB
  0
TABLE
  2
LTYPE
  5
5
100
AcDbSymbolTable
 70
6
  0
LTYPE
  5
14
100
AcDbSymbolTableRecord
100
AcDbLinetypeTableRecord
  2
BYBLOCK
 70
0
  3

 72
65
 73
0
 40
0.0
  0
LTYPE
  5
15
100
AcDbSymbolTableRecord
100
AcDbLinetypeTableRecord
  2
BYLAYER
 70
0
  3

 72
65
 73
0
 40
0.0
  0
LTYPE
  5
16
100
AcDbSymbolTableRecord
100
AcDbLinetypeTableRecord
  2
CONTINUOUS
 70
64
  3
Solid line
 72
65
 73
0
 40
0.0
  0
LTYPE
  5
1F5
100
AcDbSymbolTableRecord
100
AcDbLinetypeTableRecord
  2
CENTER
 70
64
  3
____ _ ____ _ ____ _ ____ _ ____ _ ____ _ ____
 72
65
 73
4
 40
0.6
 49
0.375
 74
0
 49
-0.075
 74
0
 49
0.075
 74
0
 49
-0.075
 74
0
  0
LTYPE
  5
1F6
100
AcDbSymbolTableRecord
100
AcDbLinetypeTableRecord
  2
HIDDEN
 70
64
  3
- - - - - - - - - - - - - - - - - - - -
 72
65
 73
2
 40
0.2
 49
0.1
 74
0
 49
-0.1
 74
0
  0
LTYPE
  5
1F7
100
AcDbSymbolTableRecord
100
AcDbLinetypeTableRecord
  2
PHANTOM
 70
64
  3
_____ _ _ _____ _ _ _____ _ _ _____
 72
65
 73
6
 40
0.8
 49
0.45
 74
0
 49
-0.05
 74
0
 49
0.1
 74
0
 49
-0.05
 74
0
 49
0.1
 74
0
 49
-0.05
 74
0
  0
LTYPE
  5
1F8
100
AcDbSymbolTableRecord
100
AcDbLinetypeTableRecord
  2
DOT
 70
64
  3
. . . . . . . . . . . . . . . . . . . .
 72
65
 73
2
 40
0.2
 49
0.1
 74
0
 49
-0.1
 74
0
  0
LTYPE
  5
1F9
100
AcDbSymbolTableRecord
100
AcDbLinetypeTableRecord
  2
DASHED
 70
64
  3
- - - - - - - - - - - - - - - - - - - -
 72
65
 73
2
 40
0.2
 49
0.1
 74
0
 49
-0.1
 74
0
  0
ENDTAB
  0
TABLE
  2
LAYER
  5
2
100
AcDbSymbolTable
 70
36
  0
LAYER
  5
10
100
AcDbSymbolTableRecord
100
AcDbLayerTableRecord
  2
0
 70
0
 62
7
  6
CONTINUOUS
370
-3
390
F
  0
LAYER
  5
1FA
100
AcDbSymbolTableRecord
100
AcDbLayerTableRecord
  2
DEFAULT_1
 70
0
 62
7
  6
CENTER
370
-3
390
F
  0
LAYER
  5
1FB
100
AcDbSymbolTableRecord
100
AcDbLayerTableRecord
  2
DEFAULT_2
 70
0
 62
7
  6
HIDDEN
370
-3
390
F
  0
LAYER
  5
1FC
100
AcDbSymbolTableRecord
100
AcDbLayerTableRecord
  2
DEFAULT_3
 70
0
 62
7
  6
PHANTOM
370
-3
390
F
  0
LAYER
  5
1FD
100
AcDbSymbolTableRecord
100
AcDbLayerTableRecord
  2
00_COMPONENTS
 70
0
 62
7
  6
CONTINUOUS
370
-3
390
F
  0
LAYER
  5
1FE
100
AcDbSymbolTableRecord
100
AcDbLayerTableRecord
  2
01_1_DEFAULT_DATUMS
 70
0
 62
7
  6
CONTINUOUS
370
-3
390
F
  0
LAYER
  5
1FF
100
AcDbSymbolTableRecord
100
AcDbLayerTableRecord
  2
01_PLANES
 70
0
 62
7
  6
CONTINUOUS
370
-3
390
F
  0
LAYER
  5
200
100
AcDbSymbolTableRecord
100
AcDbLayerTableRecord
  2
02_COORD_SYS
 70
0
 62
7
  6
CONTINUOUS
370
-3
390
F
  0
LAYER
  5
201
100
AcDbSymbolTableRecord
100
AcDbLayerTableRecord
  2
03_AXES
 70
0
 62
7
  6
CONTINUOUS
370
-3
390
F
  0
LAYER
  5
202
100
AcDbSymbolTableRecord
100
AcDbLayerTableRecord
  2
04_POINTS
 70
0
 62
7
  6
CONTINUOUS
370
-3
390
F
  0
LAYER
  5
203
100
AcDbSymbolTableRecord
100
AcDbLayerTableRecord
  2
05_CURVES
 70
0
 62
7
  6
CONTINUOUS
370
-3
390
F
  0
LAYER
  5
204
100
AcDbSymbolTableRecord
100
AcDbLayerTableRecord
  2
06_SURFS
 70
0
 62
7
  6
CONTINUOUS
370
-3
390
F
  0
LAYER
  5
205
100
AcDbSymbolTableRecord
100
AcDbLayerTableRecord
  2
07_COSMETICS
 70
0
 62
7
  6
CONTINUOUS
370
-3
390
F
  0
LAYER
  5
206
100
AcDbSymbolTableRecord
100
AcDbLayerTableRecord
  2
10_NOTES
 70
0
 62
7
  6
CONTINUOUS
370
-3
390
F
  0
LAYER
  5
207
100
AcDbSymbolTableRecord
100
AcDbLayerTableRecord
  2
11_NOTES_PUB
 70
0
 62
7
  6
CONTINUOUS
370
-3
390
F
  0
LAYER
  5
208
100
AcDbSymbolTableRecord
100
AcDbLayerTableRecord
  2
13_REF_GTOL
 70
0
 62
7
  6
CONTINUOUS
370
-3
390
F
  0
LAYER
  5
209
100
AcDbSymbolTableRecord
100
AcDbLayerTableRecord
  2
16_MISC
 70
0
 62
7
  6
CONTINUOUS
370
-3
390
F
  0
LAYER
  5
20A
100
AcDbSymbolTableRecord
100
AcDbLayerTableRecord
  2
17_NO_PRINT
 70
0
 62
7
  6
CONTINUOUS
370
-3
390
F
  0
LAYER
  5
20B
100
AcDbSymbolTableRecord
100
AcDbLayerTableRecord
  2
18_DATUM_CAMS_JOINTS
 70
0
 62
7
  6
CONTINUOUS
370
-3
390
F
  0
LAYER
  5
20C
100
AcDbSymbolTableRecord
100
AcDbLayerTableRecord
  2
19_DATUM_FUNCTIONAL
 70
0
 62
7
  6
CONTINUOUS
370
-3
390
F
  0
LAYER
  5
20D
100
AcDbSymbolTableRecord
100
AcDbLayerTableRecord
  2
20_DATUM_KINEMATIC_SCHEME
 70
0
 62
7
  6
CONTINUOUS
370
-3
390
F
  0
ENDTAB
  0
TABLE
  2
STYLE
  5
3
100
AcDbSymbolTable
 70
1
  0
STYLE
  5
11
100
AcDbSymbolTableRecord
100
AcDbTextStyleTableRecord
  2
STANDARD
 70
0
 40
0.0
 41
1.0
 50
0.0
 71
0
 42
0.2
  3
ARIAL.TTF
  4

  0
STYLE
  5
20E
100
AcDbSymbolTableRecord
100
AcDbTextStyleTableRecord
  2
TEXTSTYLE_1
 70
0
 40
0.0
 41
0.8
 50
0.0
 71
0
 42
0.2
  3
gdt
  4

  0
ENDTAB
  0
TABLE
  2
VIEW
  5
6
100
AcDbSymbolTable
 70
0
  0
ENDTAB
  0
TABLE
  2
UCS
  5
7
100
AcDbSymbolTable
 70
0
  0
ENDTAB
  0
TABLE
  2
APPID
  5
9
100
AcDbSymbolTable
 70
1
  0
APPID
  5
20F
100
AcDbSymbolTableRecord
100
AcDbRegAppTableRecord
  2
ACAD
 70
0
  0
ENDTAB
  0
TABLE
  2
BLOCK_RECORD
  5
1
100
AcDbSymbolTable
 70
0
  0
BLOCK_RECORD
  5
210
100
AcDbSymbolTableRecord
100
AcDbBlockTableRecord
  2
*Model_Space
  0
BLOCK_RECORD
  5
211
100
AcDbSymbolTableRecord
100
AcDbBlockTableRecord
  2
*Paper_Space
  0
BLOCK_RECORD
  5
212
100
AcDbSymbolTableRecord
100
AcDbBlockTableRecord
  2
_FILLED
  0
ENDTAB
  0
TABLE
  2
DIMSTYLE
  5
A
100
AcDbSymbolTable
 70
1
100
AcDbDimStyleTable
 71
0
  0
DIMSTYLE
105
213
100
AcDbSymbolTableRecord
100
AcDbDimStyleTableRecord
  2
STANDARD
 70
0
  3

  4

 40
1.0
 41
0.9232792142
 42
1.0
 43
0.38
 44
1.0
 45
0.0
 46
0.0
 47
0.01
 48
0.01
140
1.2925908999
141
0.09
142
0.0
143
25.4
144
1.0
145
0.0
146
1.0
147
0.625
 71
1
 72
0
 73
0
 74
0
 75
0
 76
0
 77
1
 78
8
 79
2
170
0
171
1
172
0
173
0
174
0
175
0
176
0
177
0
178
0
270
2
179
2
271
2
272
2
273
2
274
2
275
0
280
0
281
0
282
0
283
1
284
8
285
0
286
0
287
3
288
0
340
11
278
46
341
212
342
212
343
212
344
212
  0
ENDTAB
  0
ENDSEC
  0
SECTION
  2
BLOCKS
  0
BLOCK
  5
20
100
AcDbEntity
  8
0
100
AcDbBlockBegin
  2
*Model_Space
 70
0
 10
0.0
 20
0.0
 30
0.0
  3
*Model_Space
  1

  0
ENDBLK
  5
21
100
AcDbEntity
  8
0
100
AcDbBlockEnd
  0
BLOCK
  5
1C
100
AcDbEntity
  8
0
100
AcDbBlockBegin
  2
*Paper_Space
 70
0
 10
0.0
 20
0.0
 30
0.0
  3
*Paper_Space
  1

  0
ENDBLK
  5
1D
100
AcDbEntity
  8
0
100
AcDbBlockEnd
  0
BLOCK
  5
214
100
AcDbEntity
  8
0
100
AcDbBlockBegin
  2
_FILLED
 70
64
 10
0.0
 20
0.0
  3
_FILLED
  1

  0
SOLID
  5
215
100
AcDbEntity
  8
0
  6
BYBLOCK
 62
0
100
AcDbTrace
 10
0.0
 20
0.0
 11
-1.0
 21
0.25
 12
-1.0
 22
-0.25
 13
-1.0
 23
-0.25
  0
ENDBLK
  5
216
100
AcDbEntity
  8
0
  6
BYBLOCK
 62
0
100
AcDbBlockEnd
  0
ENDSEC
  0
SECTION
  2
ENTITIES
  0
LINE
  5
217
100
AcDbEntity
  8
0
100
AcDbLine
 62
7
  6
BYLAYER
 10
8.98916239
 20
41.4762320109
 11
8.98916239
 21
36.2914416621
  0
LINE
  5
218
100
AcDbEntity
  8
0
100
AcDbLine
 62
7
  6
BYLAYER
 10
12.16416239
 20
41.4762320109
 11
12.16416239
 21
45.4944445312
  0
LINE
  5
219
100
AcDbEntity
  8
0
100
AcDbLine
 62
7
  6
BYLAYER
 10
14.78353739
 20
46.012923566
 11
14.78353739
 21
45.4944445312
  0
LINE
  5
21A
100
AcDbEntity
  8
0
100
AcDbLine
 62
7
  6
BYLAYER
 10
19.06978739
 20
46.012923566
 11
19.06978739
 21
45.4944445312
  0
LINE
  5
21B
100
AcDbEntity
  8
0
100
AcDbLine
 62
7
  6
BYLAYER
 10
20.1216812079
 20
39.7612535042
 11
20.1216812079
 21
43.0017474722
  0
LINE
  5
21C
100
AcDbEntity
  8
0
100
AcDbLine
 62
7
  6
BYLAYER
 10
21.68916239
 20
45.0407753756
 11
21.68916239
 21
45.4944445312
  0
LINE
  5
21D
100
AcDbEntity
  8
0
100
AcDbLine
 62
7
  6
BYLAYER
 10
24.86416239
 20
41.4762320109
 11
24.86416239
 21
36.2914416621
  0
LINE
  5
21E
100
AcDbEntity
  8
0
100
AcDbLine
 62
7
  6
BYLAYER
 10
51.6986737228
 20
72.951113963
 11
47.9439843931
 21
70.5548700319
  0
LINE
  5
21F
100
AcDbEntity
  8
0
100
AcDbLine
 62
7
  6
BYLAYER
 10
31.7861098954
 20
54.7539834729
 11
32.9086372369
 21
56.6982686543
  0
LINE
  5
220
100
AcDbEntity
  8
0
100
AcDbLine
 62
7
  6
BYLAYER
 10
46.6110716222
 20
68.0839576911
 11
15.1173293696
 21
47.9821991045
  0
LINE
  5
221
100
AcDbEntity
  8
0
100
AcDbLine
 62
7
  6
BYLAYER
 10
34.8730764421
 20
55.5641248082
 11
33.7505491005
 21
53.6198396267
  0
LINE
  5
222
100
AcDbEntity
  8
0
100
AcDbLine
 62
7
  6
BYLAYER
 10
51.8653177178
 20
67.6428479026
 11
32.9086372369
 21
56.6982686543
  0
LINE
  5
223
100
AcDbEntity
  8
0
100
AcDbLine
 62
7
  6
BYLAYER
 10
53.829756923
 20
66.5087040564
 11
34.8730764421
 21
55.5641248082
  0
LINE
  5
224
100
AcDbEntity
  8
0
100
AcDbLine
 62
7
  6
BYLAYER
 10
31.7861098954
 20
54.7539834729
 11
33.7505491005
 21
53.6198396267
  0
LINE
  5
225
100
AcDbEntity
  8
0
100
AcDbLine
 62
7
  6
BYLAYER
 10
47.9439843931
 20
70.5548700319
 11
46.6110716222
 21
68.0839576911
  0
LINE
  5
226
100
AcDbEntity
  8
0
100
AcDbLine
 62
7
  6
BYLAYER
 10
33.7505491005
 20
53.6198396267
 11
52.7072295814
 21
64.564418875
  0
LINE
  5
227
100
AcDbEntity
  8
0
100
AcDbLine
 62
7
  6
BYLAYER
 10
58.3123539185
 20
64.5688245178
 11
67.1527874163
 21
69.1861462914
  0
LINE
  5
228
100
AcDbEntity
  8
0
100
AcDbLine
 62
7
  6
BYLAYER
 10
34.8730764421
 20
55.5641248082
 11
32.9086372369
 21
56.6982686543
  0
LINE
  5
229
100
AcDbEntity
  8
0
100
AcDbLine
 62
7
  6
BYLAYER
 10
20.1216812079
 20
43.0017474722
 11
56.8389483355
 21
62.1790239049
  0
LINE
  5
22A
100
AcDbEntity
  8
0
100
AcDbLine
 62
7
  6
BYLAYER
 10
56.8389483355
 20
58.9385299369
 11
20.1216812079
 21
39.7612535042
  0
LINE
  5
22B
100
AcDbEntity
  8
0
100
AcDbLine
 62
7
  6
BYLAYER
 10
52.7072295814
 20
64.564418875
 11
53.829756923
 21
66.5087040564
  0
LINE
  5
22C
100
AcDbEntity
  8
0
100
AcDbLine
 62
7
  6
BYLAYER
 10
67.1527874163
 20
62.7051583554
 11
58.3123539185
 21
58.0878365819
  0
LINE
  5
22D
100
AcDbEntity
  8
0
100
AcDbLine
 62
7
  6
BYLAYER
 10
48.7308686997
 20
71.057059848
 11
48.7308480062
 21
73.926633849
  0
LINE
  5
22E
100
AcDbEntity
  8
0
100
AcDbLine
 62
7
  6
BYLAYER
 10
56.8389483355
 20
62.1790239049
 11
58.3123539185
 21
64.5688245178
  0
LINE
  5
22F
100
AcDbEntity
  8
0
100
AcDbLine
 62
7
  6
BYLAYER
 10
58.3123539185
 20
58.0878365819
 11
56.8389483355
 21
58.9385299369
  0
LINE
  5
230
100
AcDbEntity
  8
0
100
AcDbLine
 62
7
  6
BYLAYER
 10
52.6995980061
 20
77.1671564369
 11
52.6996231218
 21
73.6843407286
  0
LINE
  5
231
100
AcDbEntity
  8
0
100
AcDbLine
 62
7
  6
BYLAYER
 10
56.2717654849
 20
72.5845260344
 11
56.3079083877
 21
72.9511250422
  0
LINE
  5
232
100
AcDbEntity
  8
0
100
AcDbLine
 62
7
  6
BYLAYER
 10
56.8389483355
 20
62.1790239049
 11
52.7072295814
 21
64.564418875
  0
LINE
  5
233
100
AcDbEntity
  8
0
100
AcDbLine
 62
7
  6
BYLAYER
 10
49.6202342895
 20
66.3466561181
 11
46.6110716222
 21
68.0839576911
  0
LINE
  5
234
100
AcDbEntity
  8
0
100
AcDbLine
 62
7
  6
BYLAYER
 10
56.3079083877
 20
72.4453898347
 11
56.3079083877
 21
72.9511250422
  0
LINE
  5
235
100
AcDbEntity
  8
0
100
AcDbLine
 62
7
  6
BYLAYER
 10
56.6082760161
 20
73.6843501238
 11
56.6082760161
 21
71.5464102275
  0
LINE
  5
236
100
AcDbEntity
  8
0
100
AcDbLine
 62
7
  6
BYLAYER
 10
56.3079083877
 20
72.9511250422
 11
51.6986737228
 21
72.951113963
  0
LINE
  5
237
100
AcDbEntity
  8
0
100
AcDbLine
 62
7
  6
BYLAYER
 10
53.829756923
 20
66.5087040564
 11
51.8653177178
 21
67.6428479026
  0
LINE
  5
238
100
AcDbEntity
  8
0
100
AcDbLine
 62
7
  6
BYLAYER
 10
58.3123539185
 20
64.5688245178
 11
47.9439843931
 21
70.5548700319
  0
LINE
  5
239
100
AcDbEntity
  8
0
100
AcDbLine
 62
7
  6
BYLAYER
 10
52.6996231218
 20
73.6843407286
 11
56.6082760161
 21
73.6843501238
  0
LINE
  5
23A
100
AcDbEntity
  8
0
100
AcDbLine
 62
7
  6
BYLAYER
 10
61.8277230061
 20
77.1671783782
 11
52.6995980061
 21
77.1671564369
  0
LINE
  5
23B
100
AcDbEntity
  8
0
100
AcDbLine
 62
7
  6
BYLAYER
 10
67.1527874163
 20
69.1861462914
 11
67.1527874163
 21
62.7051583554
  0
LINE
  5
23C
100
AcDbEntity
  8
0
100
AcDbLine
 62
7
  6
BYLAYER
 10
69.765256053
 20
66.1035381945
 11
69.765256053
 21
72.5845261305
  0
ARC
  5
23D
100
AcDbEntity
  8
0
100
AcDbCircle
 62
7
  6
BYLAYER
 10
17.9787589729
 20
43.5430462248
 40
4.6314204299
100
AcDbArc
 50
297.5609689294
 51
299.8227068855
  0
SPLINE
  5
23E
100
AcDbEntity
  8
0
100
AcDbSpline
 62
7
  6
BYLAYER
 70
0
 71
3
 72
11
 73
7
 74
0
 42
0.0000001
 43
0.0000001
 44
0.0000000001
 40
0.0
 40
0.0
 40
0.0
 40
0.0
 40
0.2430609026
 40
0.4968474547
 40
0.7522476012
 40
1.0
 40
1.0
 40
1.0
 40
1.0
 10
19.2532775223
 20
31.9479924946
 30
0.0
 10
18.9170116972
 20
31.8393036327
 30
0.0
 10
18.2105648628
 20
31.6736319722
 30
0.0
 10
17.1181123032
 20
31.5749995243
 30
0.0
 10
16.0154645932
 20
31.6230865638
 30
0.0
 10
15.2928375808
 20
31.7549979059
 30
0.0
 10
14.9445718765
 20
31.8470120845
 30
0.0
  0
SPLINE
  5
23F
100
AcDbEntity
  8
0
100
AcDbSpline
 62
7
  6
BYLAYER
 70
0
 71
3
 72
9
 73
5
 74
0
 42
0.0000001
 43
0.0000001
 44
0.0000000001
 40
0.0
 40
0.0
 40
0.0
 40
0.0
 40
0.4830976561
 40
1.0
 40
1.0
 40
1.0
 40
1.0
 10
22.5393458333
 20
33.0510306731
 30
0.0
 10
22.2157666488
 20
32.864213259
 30
0.0
 10
21.5167541797
 20
32.5270625837
 30
0.0
 10
20.7825286999
 20
32.278215686
 30
0.0
 10
20.3976267088
 20
32.1701609167
 30
0.0
  0
SPLINE
  5
240
100
AcDbEntity
  8
0
100
AcDbSpline
 62
7
  6
BYLAYER
 70
0
 71
3
 72
22
 73
18
 74
0
 42
0.0000001
 43
0.0000001
 44
0.0000000001
 40
0.0
 40
0.0
 40
0.0
 40
0.0
 40
0.0705695546
 40
0.1431079825
 40
0.2910011109
 40
0.364894857
 40
0.4376777442
 40
0.5086067249
 40
0.5770043549
 40
0.6422854752
 40
0.7039894572
 40
0.7618236593
 40
0.8157044806
 40
0.865807388
 40
0.9126216469
 40
0.9569742971
 40
1.0
 40
1.0
 40
1.0
 40
1.0
 10
20.3976267088
 20
32.1701609167
 30
0.0
 10
20.0915661038
 20
32.0842395424
 30
0.0
 10
19.4632118538
 20
31.9363013364
 30
0.0
 10
18.1668316561
 20
31.7360052597
 30
0.0
 10
16.8363694564
 20
31.6809198044
 30
0.0
 10
15.511558607
 20
31.7698672246
 30
0.0
 10
14.5401023967
 20
31.9081063837
 30
0.0
 10
13.6064143604
 20
32.1156357697
 30
0.0
 10
12.7250701919
 20
32.3891699593
 30
0.0
 10
11.9099174605
 20
32.7244799094
 30
0.0
 10
11.173706721
 20
33.1164949621
 30
0.0
 10
10.5278832009
 20
33.5592935383
 30
0.0
 10
9.9825664721
 20
34.0464696524
 30
0.0
 10
9.5466725633
 20
34.5712030571
 30
0.0
 10
9.2279404314
 20
35.1261954925
 30
0.0
 10
9.0331129088
 20
35.7027362897
 30
0.0
 10
8.9892027047
 20
36.0976252527
 30
0.0
 10
8.9891845932
 20
36.2914417485
 30
0.0
  0
SPLINE
  5
241
100
AcDbEntity
  8
0
100
AcDbSpline
 62
7
  6
BYLAYER
 70
0
 71
3
 72
19
 73
15
 74
0
 42
0.0000001
 43
0.0000001
 44
0.0000000001
 40
0.0
 40
0.0
 40
0.0
 40
0.0
 40
0.0428385813
 40
0.0874433473
 40
0.1352550426
 40
0.1871926702
 40
0.2436711226
 40
0.3046633752
 40
0.4382672724
 40
0.5825427179
 40
0.7296393023
 40
0.8711669517
 40
0.9376091523
 40
1.0
 40
1.0
 40
1.0
 40
1.0
 10
19.0697800839
 20
46.0129235701
 30
0.0
 10
19.0697847021
 20
46.0739309252
 30
0.0
 10
19.0534311891
 20
46.1989849816
 30
0.0
 10
18.9817498767
 20
46.3795776875
 30
0.0
 10
18.8653385934
 20
46.5507500836
 30
0.0
 10
18.707608447
 20
46.7091641924
 30
0.0
 10
18.5121457909
 20
46.8520198929
 30
0.0
 10
18.197251452
 20
47.0231835095
 30
0.0
 10
17.7358802068
 20
47.177308084
 30
0.0
 10
17.1337382345
 20
47.2618521165
 30
0.0
 10
16.5147191675
 20
47.2447797784
 30
0.0
 10
16.0157548638
 20
47.1450152264
 30
0.0
 10
15.6532423395
 20
47.0135756338
 30
0.0
 10
15.4881862054
 20
46.9322604157
 30
0.0
 10
15.4112378602
 20
46.8878345331
 30
0.0
  0
SPLINE
  5
242
100
AcDbEntity
  8
0
100
AcDbSpline
 62
7
  6
BYLAYER
 70
0
 71
3
 72
15
 73
11
 74
0
 42
0.0000001
 43
0.0000001
 44
0.0000000001
 40
0.0
 40
0.0
 40
0.0
 40
0.0
 40
0.1485426523
 40
0.2895070996
 40
0.4227375536
 40
0.5486432265
 40
0.6680006939
 40
0.7819416879
 40
0.8919888749
 40
1.0
 40
1.0
 40
1.0
 40
1.0
 10
11.3139789466
 20
44.7166429999
 30
0.0
 10
11.1350131814
 20
44.6133176839
 30
0.0
 10
10.7943345553
 20
44.3973227242
 30
0.0
 10
10.3284770231
 20
44.0368519527
 30
0.0
 10
9.9255647598
 20
43.6511512668
 30
0.0
 10
9.5896018063
 20
43.2439418891
 30
0.0
 10
9.3240343427
 20
42.8187497101
 30
0.0
 10
9.1317305574
 20
42.3794568948
 30
0.0
 10
9.0152856763
 20
41.9304665026
 30
0.0
 10
8.9891708747
 20
41.6264964806
 30
0.0
 10
8.9891848695
 20
41.4762321172
 30
0.0
  0
SPLINE
  5
243
100
AcDbEntity
  8
0
100
AcDbSpline
 62
7
  6
BYLAYER
 70
0
 71
3
 72
22
 73
18
 74
0
 42
0.0000001
 43
0.0000001
 44
0.0000000001
 40
0.0
 40
0.0
 40
0.0
 40
0.0
 40
0.0427874278
 40
0.0872707037
 40
0.1348362231
 40
0.1863990693
 40
0.242384982
 40
0.3028040144
 40
0.3673378173
 40
0.4354111105
 40
0.5062626041
 40
0.5790009733
 40
0.7260658786
 40
0.7984985261
 40
0.8688467072
 40
0.9362812981
 40
1.0
 40
1.0
 40
1.0
 40
1.0
 10
21.6891556583
 20
45.4944445299
 30
0.0
 10
21.6891536427
 20
45.6271174635
 30
0.0
 10
21.654477246
 20
45.8988288995
 30
0.0
 10
21.5019105594
 20
46.291868871
 30
0.0
 10
21.2540247227
 20
46.6654135943
 30
0.0
 10
20.9175203482
 20
47.0122401329
 30
0.0
 10
20.4999476782
 20
47.326470024
 30
0.0
 10
20.0098640305
 20
47.6024548244
 30
0.0
 10
19.4570825581
 20
47.8349525279
 30
0.0
 10
18.8527687549
 20
48.0194338833
 30
0.0
 10
18.2090900906
 20
48.15228217
 30
0.0
 10
17.3131516872
 20
48.2571466749
 30
0.0
 10
16.401972334
 20
48.249610204
 30
0.0
 10
15.5104607613
 20
48.1295517562
 30
0.0
 10
14.8736594338
 20
47.9859275876
 30
0.0
 10
14.2789781734
 20
47.7912693614
 30
0.0
 10
13.9067710084
 20
47.6249407688
 30
0.0
 10
13.731643572
 20
47.5334724346
 30
0.0
  0
SPLINE
  5
244
100
AcDbEntity
  8
0
100
AcDbSpline
 62
7
  6
BYLAYER
 70
0
 71
3
 72
11
 73
7
 74
0
 42
0.0000001
 43
0.0000001
 44
0.0000000001
 40
0.0
 40
0.0
 40
0.0
 40
0.0
 40
0.2435012554
 40
0.4898015142
 40
0.7413570492
 40
1.0
 40
1.0
 40
1.0
 40
1.0
 10
48.7308608036
 20
73.9266338497
 30
0.0
 10
48.7308611649
 20
74.0929350421
 30
0.0
 10
48.7626977223
 20
74.4282805666
 30
0.0
 10
48.9043292222
 20
74.9172537575
 30
0.0
 10
49.135973334
 20
75.381999667
 30
0.0
 10
49.3436363011
 20
75.6641468434
 30
0.0
 10
49.4592691254
 20
75.7976817289
 30
0.0
  0
SPLINE
  5
245
100
AcDbEntity
  8
0
100
AcDbSpline
 62
7
  6
BYLAYER
 70
0
 71
3
 72
11
 73
7
 74
0
 42
0.0000001
 43
0.0000001
 44
0.0000000001
 40
0.0
 40
0.0
 40
0.0
 40
0.0
 40
0.2361472115
 40
0.4833431866
 40
0.7392680528
 40
1.0
 40
1.0
 40
1.0
 40
1.0
 10
49.4592691254
 20
75.7976817289
 30
0.0
 10
49.6457026067
 20
76.0129784987
 30
0.0
 10
50.0853796624
 20
76.405712468
 30
0.0
 10
50.8727931379
 20
76.83783646
 30
0.0
 10
51.760313966
 20
77.1066332103
 30
0.0
 10
52.3851498827
 20
77.167155681
 30
0.0
 10
52.6995980061
 20
77.1671564369
 30
0.0
  0
SPLINE
  5
246
100
AcDbEntity
  8
0
100
AcDbSpline
 62
7
  6
BYLAYER
 70
0
 71
3
 72
14
 73
10
 74
0
 42
0.0000001
 43
0.0000001
 44
0.0000000001
 40
0.0
 40
0.0
 40
0.0
 40
0.0
 40
0.1080437934
 40
0.218128091
 40
0.3321070926
 40
0.4514894014
 40
0.5774354826
 40
0.7107372055
 40
1.0
 40
1.0
 40
1.0
 40
1.0
 10
67.3839838613
 20
72.5845261312
 30
0.0
 10
67.3839733911
 20
72.4793432444
 30
0.0
 10
67.3657248878
 20
72.2665642495
 30
0.0
 10
67.2841870499
 20
71.9522739074
 30
0.0
 10
67.1495778931
 20
71.6447806952
 30
0.0
 10
66.9637273436
 20
71.3471412513
 30
0.0
 10
66.7285134107
 20
71.0620616645
 30
0.0
 10
66.3420757079
 20
70.6922234646
 30
0.0
 10
66.0005104963
 20
70.457039491
 30
0.0
 10
65.7566344634
 20
70.3162384382
 30
0.0
  0
SPLINE
  5
247
100
AcDbEntity
  8
0
100
AcDbSpline
 62
7
  6
BYLAYER
 70
0
 71
3
 72
9
 73
5
 74
0
 42
0.0000001
 43
0.0000001
 44
0.0000000001
 40
0.0
 40
0.0
 40
0.0
 40
0.0
 40
0.4877784162
 40
1.0
 40
1.0
 40
1.0
 40
1.0
 10
49.5327954601
 20
71.6637616778
 30
0.0
 10
49.7505253531
 20
71.8991257854
 30
0.0
 10
50.2669917327
 20
72.3196172049
 30
0.0
 10
50.8691322236
 20
72.5996015092
 30
0.0
 10
51.1882730288
 20
72.7069001094
 30
0.0
  0
SPLINE
  5
248
100
AcDbEntity
  8
0
100
AcDbSpline
 62
7
  6
BYLAYER
 70
0
 71
3
 72
18
 73
14
 74
0
 42
0.0000001
 43
0.0000001
 44
0.0000000001
 40
0.0
 40
0.0
 40
0.0
 40
0.0
 40
0.0450705127
 40
0.0909904585
 40
0.1385333643
 40
0.1883382407
 40
0.2408805888
 40
0.2964714978
 40
0.41713789
 40
0.5502085209
 40
0.6937940442
 40
0.8449242528
 40
1.0
 40
1.0
 40
1.0
 40
1.0
 10
69.765242843
 20
72.5845261209
 30
0.0
 10
69.7652312203
 20
72.734793562
 30
0.0
 10
69.7391337809
 20
73.0387690055
 30
0.0
 10
69.6226616461
 20
73.4877539229
 30
0.0
 10
69.4304066376
 20
73.9270724105
 30
0.0
 10
69.1647751125
 20
74.3522422457
 30
0.0
 10
68.8288204847
 20
74.7595058119
 30
0.0
 10
68.2766076375
 20
75.2879074886
 30
0.0
 10
67.4215463914
 20
75.8767600699
 30
0.0
 10
66.2163128988
 20
76.437832481
 30
0.0
 10
64.8476648836
 20
76.853914884
 30
0.0
 10
63.3666499377
 20
77.1098433223
 30
0.0
 10
62.3447536406
 20
77.167179621
 30
0.0
 10
61.8277230061
 20
77.1671783782
 30
0.0
  0
SPLINE
  5
249
100
AcDbEntity
  8
0
100
AcDbSpline
 62
7
  6
BYLAYER
 70
0
 71
3
 72
14
 73
10
 74
0
 42
0.0000001
 43
0.0000001
 44
0.0000000001
 40
0.0
 40
0.0
 40
0.0
 40
0.0
 40
0.1095261895
 40
0.2208682028
 40
0.335700508
 40
0.4554247187
 40
0.581132625
 40
0.713618724
 40
1.0
 40
1.0
 40
1.0
 40
1.0
 10
69.765242843
 20
66.1035381849
 30
0.0
 10
69.7652537225
 20
65.96287871
 30
0.0
 10
69.7424026486
 20
65.6787287638
 30
0.0
 10
69.6405090776
 20
65.2581455467
 30
0.0
 10
69.4719284975
 20
64.8454514293
 30
0.0
 10
69.2387406096
 20
64.4442916373
 30
0.0
 10
68.9430481248
 20
64.057894627
 30
0.0
 10
68.4567848244
 20
63.5536624485
 30
0.0
 10
68.0240801051
 20
63.227062771
 30
0.0
 10
67.7140510871
 20
63.0292021525
 30
0.0
  0
SPLINE
  5
24A
100
AcDbEntity
  8
0
100
AcDbSpline
 62
7
  6
BYLAYER
 70
0
 71
3
 72
9
 73
5
 74
0
 42
0.0000001
 43
0.0000001
 44
0.0000000001
 40
0.0
 40
0.0
 40
0.0
 40
0.0
 40
0.2453211626
 40
1.0
 40
1.0
 40
1.0
 40
1.0
 10
67.7140510871
 20
63.0292021525
 30
0.0
 10
67.6693689929
 20
63.0006860258
 30
0.0
 10
67.4859017207
 20
62.8865383204
 30
0.0
 10
67.297323101
 20
62.7806487445
 30
0.0
 10
67.1527874163
 20
62.7051583554
 30
0.0
  0
SPLINE
  5
24B
100
AcDbEntity
  8
0
100
AcDbSpline
 62
7
  6
BYLAYER
 70
0
 71
3
 72
15
 73
11
 74
0
 42
0.0000001
 43
0.0000001
 44
0.0000000001
 40
0.0
 40
0.0
 40
0.0
 40
0.0
 40
0.1080097487
 40
0.2180559905
 40
0.3319966556
 40
0.4513535375
 40
0.5772592166
 40
0.7104909887
 40
0.8514574026
 40
1.0
 40
1.0
 40
1.0
 40
1.0
 10
24.8641401867
 20
36.2914415757
 30
0.0
 10
24.8641542283
 20
36.1411791492
 30
0.0
 10
24.8380366875
 20
35.8372128664
 30
0.0
 10
24.7215983288
 20
35.3882247107
 30
0.0
 10
24.5292926883
 20
34.9489355349
 30
0.0
 10
24.2637315585
 20
34.5237412125
 30
0.0
 10
23.9277672627
 20
34.1165314108
 30
0.0
 10
23.5248533675
 20
33.7308260059
 30
0.0
 10
23.0589913579
 20
33.3703537263
 30
0.0
 10
22.718311506
 20
33.1543559356
 30
0.0
 10
22.5393458333
 20
33.0510306731
 30
0.0
  0
SPLINE
  5
24C
100
AcDbEntity
  8
0
100
AcDbSpline
 62
7
  6
BYLAYER
 70
0
 71
3
 72
9
 73
5
 74
0
 42
0.0000001
 43
0.0000001
 44
0.0000000001
 40
0.0
 40
0.0
 40
0.0
 40
0.0
 40
0.4973374672
 40
1.0
 40
1.0
 40
1.0
 40
1.0
 10
24.8641399104
 20
41.4762319045
 30
0.0
 10
24.8641294194
 20
41.5888750541
 30
0.0
 10
24.8495881799
 20
41.8155942276
 30
0.0
 10
24.8065244246
 20
42.0386259202
 30
0.0
 10
24.7781793725
 20
42.148890179
 30
0.0
  0
SPLINE
  5
24D
100
AcDbEntity
  8
0
100
AcDbSpline
 62
7
  6
BYLAYER
 70
0
 71
3
 72
9
 73
5
 74
0
 42
0.0000001
 43
0.0000001
 44
0.0000000001
 40
0.0
 40
0.0
 40
0.0
 40
0.0
 40
0.2558162099
 40
1.0
 40
1.0
 40
1.0
 40
1.0
 10
12.088458369
 20
45.1091293678
 30
0.0
 10
12.0207729423
 20
45.0790778575
 30
0.0
 10
11.7576563917
 20
44.9583407393
 30
0.0
 10
11.5005517739
 20
44.8243602289
 30
0.0
 10
11.3139789466
 20
44.7166429999
 30
0.0
  0
SPLINE
  5
24E
100
AcDbEntity
  8
0
100
AcDbSpline
 62
7
  6
BYLAYER
 70
0
 71
3
 72
24
 73
20
 74
0
 42
0.0000001
 43
0.0000001
 44
0.0000000001
 40
0.0
 40
0.0
 40
0.0
 40
0.0
 40
0.0623734594
 40
0.1287366352
 40
0.1983249539
 40
0.2703063231
 40
0.3436881926
 40
0.4174229099
 40
0.4904516618
 40
0.5617420962
 40
0.6303429282
 40
0.6954352445
 40
0.7563875148
 40
0.8128281783
 40
0.8647335245
 40
0.9125121729
 40
0.9570859122
 40
0.978654508
 40
1.0
 40
1.0
 40
1.0
 40
1.0
 10
65.7566344634
 20
70.3162384382
 30
0.0
 10
65.5570555341
 20
70.2010121774
 30
0.0
 10
65.1292211173
 20
69.990122453
 30
0.0
 10
64.4391715627
 20
69.7400078232
 30
0.0
 10
63.6933803421
 20
69.5507154105
 30
0.0
 10
62.907974104
 20
69.426156711
 30
0.0
 10
62.0994941506
 20
69.3690109298
 30
0.0
 10
61.2852264955
 20
69.3804608418
 30
0.0
 10
60.482531652
 20
69.4602534161
 30
0.0
 10
59.7085174785
 20
69.6067507982
 30
0.0
 10
58.9796230872
 20
69.816811214
 30
0.0
 10
58.3112433353
 20
70.0860354306
 30
0.0
 10
57.7174394199
 20
70.4089807214
 30
0.0
 10
57.210644027
 20
70.7792627114
 30
0.0
 10
56.8016541298
 20
71.1900222192
 30
0.0
 10
56.499837148
 20
71.633574837
 30
0.0
 10
56.3430951992
 20
72.0288137347
 30
0.0
 10
56.2817031366
 20
72.3469062571
 30
0.0
 10
56.2715643
 20
72.5056600487
 30
0.0
 10
56.2715664047
 20
72.5845260361
 30
0.0
  0
SPLINE
  5
24F
100
AcDbEntity
  8
0
100
AcDbSpline
 62
7
  6
BYLAYER
 70
0
 71
3
 72
11
 73
7
 74
0
 42
0.0000001
 43
0.0000001
 44
0.0000000001
 40
0.0
 40
0.0
 40
0.0
 40
0.0
 40
0.2897031353
 40
0.5490914015
 40
0.7822201129
 40
1.0
 40
1.0
 40
1.0
 40
1.0
 10
15.4112378602
 20
46.8878345331
 30
0.0
 10
15.3172008403
 20
46.8335425584
 30
0.0
 10
15.146593005
 20
46.7160333882
 30
0.0
 10
14.9426889932
 20
46.5017465079
 30
0.0
 10
14.8137086778
 20
46.2646870124
 30
0.0
 10
14.783550875
 20
46.0945502451
 30
0.0
 10
14.783544696
 20
46.0129235619
 30
0.0
  0
SPLINE
  5
250
100
AcDbEntity
  8
0
100
AcDbSpline
 62
7
  6
BYLAYER
 70
0
 71
3
 72
14
 73
10
 74
0
 42
0.0000001
 43
0.0000001
 44
0.0000000001
 40
0.0
 40
0.0
 40
0.0
 40
0.0
 40
0.2919953826
 40
0.4260720497
 40
0.5522849712
 40
0.6713864669
 40
0.784556164
 40
0.8934116987
 40
1.0
 40
1.0
 40
1.0
 40
1.0
 10
13.731643572
 20
47.5334724346
 30
0.0
 10
13.4987177873
 20
47.4118162627
 30
0.0
 10
13.1714287871
 20
47.2059548369
 30
0.0
 10
12.7987460207
 20
46.8757584076
 30
0.0
 10
12.5715942028
 20
46.6195549489
 30
0.0
 10
12.3917139273
 20
46.3504166604
 30
0.0
 10
12.2611163779
 20
46.071109077
 30
0.0
 10
12.1819754199
 20
45.78469139
 30
0.0
 10
12.1641676643
 20
45.5903691345
 30
0.0
 10
12.1641691216
 20
45.4944445324
 30
0.0
  0
SPLINE
  5
251
100
AcDbEntity
  8
0
100
AcDbSpline
 62
7
  6
BYLAYER
 70
0
 71
3
 72
21
 73
17
 74
0
 42
0.0000001
 43
0.0000001
 44
0.0000000001
 40
0.0
 40
0.0
 40
0.0
 40
0.0
 40
0.0551752614
 40
0.1111924863
 40
0.1685728553
 40
0.2277011082
 40
0.2887356899
 40
0.3516557871
 40
0.4819314326
 40
0.5487979423
 40
0.6160523662
 40
0.7492815109
 40
0.8145216821
 40
0.8782027069
 40
0.9400607228
 40
1.0
 40
1.0
 40
1.0
 40
1.0
 10
49.5288427349
 20
75.8935765509
 30
0.0
 10
49.5374455666
 20
76.0289067121
 30
0.0
 10
49.5810928016
 20
76.3006518965
 30
0.0
 10
49.7231529123
 20
76.6922337924
 30
0.0
 10
49.9380988452
 20
77.0602933701
 30
0.0
 10
50.2200885996
 20
77.395846193
 30
0.0
 10
50.5622338138
 20
77.690956355
 30
0.0
 10
51.0925197804
 20
78.0248477131
 30
0.0
 10
51.7021238111
 20
78.2460820557
 30
0.0
 10
52.3454684177
 20
78.3464576801
 30
0.0
 10
53.0036959324
 20
78.3646165884
 30
0.0
 10
53.6567939876
 20
78.2576841924
 30
0.0
 10
54.2608333518
 20
78.0291061758
 30
0.0
 10
54.6737820396
 20
77.8035036451
 30
0.0
 10
55.0389868977
 20
77.5280197303
 30
0.0
 10
55.2482013119
 20
77.3117808348
 30
0.0
 10
55.3413584564
 20
77.197664654
 30
0.0
  0
SPLINE
  5
252
100
AcDbEntity
  8
0
100
AcDbSpline
 62
7
  6
BYLAYER
 70
0
 71
3
 72
22
 73
18
 74
0
 42
0.0000001
 43
0.0000001
 44
0.0000000001
 40
0.0
 40
0.0
 40
0.0
 40
0.0
 40
0.0637199009
 40
0.131151422
 40
0.2014983901
 40
0.2739303513
 40
0.4209939735
 40
0.4937332107
 40
0.5645860459
 40
0.6326603282
 40
0.6971956433
 40
0.7576158063
 40
0.8136014378
 40
0.865164274
 40
0.9127302433
 40
0.9572130216
 40
1.0
 40
1.0
 40
1.0
 40
1.0
 10
20.1216812079
 20
39.4372041074
 30
0.0
 10
19.9465504509
 20
39.3457340389
 30
0.0
 10
19.5743506403
 20
39.1794029183
 30
0.0
 10
18.9796761845
 20
38.9847532685
 30
0.0
 10
18.3428901621
 20
38.841133913
 30
0.0
 10
17.4513904162
 20
38.721056637
 30
0.0
 10
16.5402143989
 20
38.71353878
 30
0.0
 10
15.644270805
 20
38.8183800916
 30
0.0
 10
15.0005816925
 20
38.9512316151
 30
0.0
 10
14.3962598723
 20
39.1357261749
 30
0.0
 10
13.8434628191
 20
39.3682148481
 30
0.0
 10
13.3533694365
 20
39.6441995607
 30
0.0
 10
12.9358053075
 20
39.958446358
 30
0.0
 10
12.5993019124
 20
40.3052700903
 30
0.0
 10
12.3513911754
 20
40.6788029405
 30
0.0
 10
12.1988640646
 20
41.0718540276
 30
0.0
 10
12.1641635752
 20
41.3435604517
 30
0.0
 10
12.1641766953
 20
41.4762320103
 30
0.0
  0
SPLINE
  5
253
100
AcDbEntity
  8
0
100
AcDbSpline
 62
7
  6
BYLAYER
 70
0
 71
3
 72
14
 73
10
 74
0
 42
0.0000001
 43
0.0000001
 44
0.0000000001
 40
0.0
 40
0.0
 40
0.0
 40
0.0
 40
0.1065872851
 40
0.2154424699
 40
0.3286122401
 40
0.4477133807
 40
0.5739268882
 40
0.7080052155
 40
1.0
 40
1.0
 40
1.0
 40
1.0
 10
21.6891543977
 20
45.0407753754
 30
0.0
 10
21.6891536483
 20
44.9448517238
 30
0.0
 10
21.671349383
 20
44.7505307757
 30
0.0
 10
21.5922075355
 20
44.4641142688
 30
0.0
 10
21.4616110351
 20
44.1848072451
 30
0.0
 10
21.2817328727
 20
43.915667259
 30
0.0
 10
21.0545794881
 20
43.6594629658
 30
0.0
 10
20.6818958523
 20
43.3292656557
 30
0.0
 10
20.3546064282
 20
43.1234033493
 30
0.0
 10
20.1216812079
 20
43.0017474722
 30
0.0
  0
SPLINE
  5
254
100
AcDbEntity
  8
0
100
AcDbSpline
 62
7
  6
BYLAYER
 70
0
 71
3
 72
23
 73
19
 74
0
 42
0.0000001
 43
0.0000001
 44
0.0000000001
 40
0.0
 40
0.0
 40
0.0
 40
0.0
 40
0.0623788613
 40
0.1287511598
 40
0.1983477053
 40
0.2703373436
 40
0.3437266003
 40
0.4174689258
 40
0.4905067369
 40
0.5618053122
 40
0.6304136375
 40
0.6955123982
 40
0.7564689801
 40
0.8129141773
 40
0.8648232525
 40
0.9126056626
 40
0.9571866796
 40
1.0
 40
1.0
 40
1.0
 40
1.0
 10
57.8988776427
 20
74.8528138228
 30
0.0
 10
58.0984566463
 20
74.9680401264
 30
0.0
 10
58.5263045848
 20
75.178931
 30
0.0
 10
59.2163721716
 20
75.4290563962
 30
0.0
 10
59.9621917979
 20
75.6183549062
 30
0.0
 10
60.7476202935
 20
75.7428990912
 30
0.0
 10
61.5561160305
 20
75.8000459825
 30
0.0
 10
62.3704027072
 20
75.7885899051
 30
0.0
 10
63.1731183617
 20
75.7087792933
 30
0.0
 10
63.9471516677
 20
75.5622577959
 30
0.0
 10
64.6760592007
 20
75.3521856883
 30
0.0
 10
65.3444396252
 20
75.0829446166
 30
0.0
 10
65.9382228367
 20
74.7599684464
 30
0.0
 10
66.44499068
 20
74.3896455992
 30
0.0
 10
66.8539877671
 20
73.9789665062
 30
0.0
 10
67.1557508636
 20
73.5351342914
 30
0.0
 10
67.3416551696
 20
73.0669368857
 30
0.0
 10
67.3839996061
 20
72.7426964668
 30
0.0
 10
67.3839838613
 20
72.5845261312
 30
0.0
  0
SPLINE
  5
255
100
AcDbEntity
  8
0
100
AcDbSpline
 62
7
  6
BYLAYER
 70
0
 71
3
 72
10
 73
6
 74
0
 42
0.0000001
 43
0.0000001
 44
0.0000000001
 40
0.0
 40
0.0
 40
0.0
 40
0.0
 40
0.2274774992
 40
0.5960404846
 40
1.0
 40
1.0
 40
1.0
 40
1.0
 10
56.6082760161
 20
73.6843501238
 30
0.0
 10
56.6794154626
 20
73.7968833736
 30
0.0
 10
56.8892146242
 20
74.0773172943
 30
0.0
 10
57.3169265958
 20
74.4817737148
 30
0.0
 10
57.6941302761
 20
74.7346035812
 30
0.0
 10
57.8988776427
 20
74.8528138228
 30
0.0
  0
SPLINE
  5
256
100
AcDbEntity
  8
0
100
AcDbSpline
 62
7
  6
BYLAYER
 70
0
 71
3
 72
14
 73
10
 74
0
 42
0.0000001
 43
0.0000001
 44
0.0000000001
 40
0.0
 40
0.0
 40
0.0
 40
0.0
 40
0.286381276
 40
0.418867375
 40
0.5445752813
 40
0.664299492
 40
0.7791317972
 40
0.8904738105
 40
1.0
 40
1.0
 40
1.0
 40
1.0
 10
67.7140510871
 20
69.5101900885
 30
0.0
 10
68.0240801051
 20
69.708050707
 30
0.0
 10
68.4567848244
 20
70.0346503845
 30
0.0
 10
68.9430481248
 20
70.5388825629
 30
0.0
 10
69.2387406096
 20
70.9252795733
 30
0.0
 10
69.4719284975
 20
71.3264393653
 30
0.0
 10
69.6405090776
 20
71.7391334827
 30
0.0
 10
69.7424026486
 20
72.1597166997
 30
0.0
 10
69.7652537225
 20
72.443866646
 30
0.0
 10
69.765242843
 20
72.5845261209
 30
0.0
  0
SPLINE
  5
257
100
AcDbEntity
  8
0
100
AcDbSpline
 62
7
  6
BYLAYER
 70
0
 71
3
 72
9
 73
5
 74
0
 42
0.0000001
 43
0.0000001
 44
0.0000000001
 40
0.0
 40
0.0
 40
0.0
 40
0.0
 40
0.2546961818
 40
1.0
 40
1.0
 40
1.0
 40
1.0
 10
67.1527874163
 20
69.1861462914
 30
0.0
 10
67.2015664772
 20
69.2116233927
 30
0.0
 10
67.3920517708
 20
69.313612589
 30
0.0
 10
67.5783041812
 20
69.4235563697
 30
0.0
 10
67.7140510871
 20
69.5101900885
 30
0.0
  0
SPLINE
  5
258
100
AcDbEntity
  8
0
100
AcDbSpline
 62
7
  6
BYLAYER
 70
0
 71
3
 72
22
 73
18
 74
0
 42
0.0000001
 43
0.0000001
 44
0.0000000001
 40
0.0
 40
0.0
 40
0.0
 40
0.0
 40
0.0427874278
 40
0.0872707037
 40
0.1348362231
 40
0.1863990693
 40
0.242384982
 40
0.3028040144
 40
0.3673378173
 40
0.4354111105
 40
0.5062626041
 40
0.5790009733
 40
0.7260658786
 40
0.7984985261
 40
0.8688467072
 40
0.9362812981
 40
1.0
 40
1.0
 40
1.0
 40
1.0
 10
12.1641691216
 20
45.4944445324
 30
0.0
 10
12.1641711372
 20
45.3617715988
 30
0.0
 10
12.1988475339
 20
45.0900601628
 30
0.0
 10
12.3514142205
 20
44.6970201913
 30
0.0
 10
12.5993000572
 20
44.323475468
 30
0.0
 10
12.9358044317
 20
43.9766489294
 30
0.0
 10
13.3533771017
 20
43.6624190383
 30
0.0
 10
13.8434607494
 20
43.3864342379
 30
0.0
 10
14.3962422218
 20
43.1539365344
 30
0.0
 10
15.000556025
 20
42.969455179
 30
0.0
 10
15.6442346893
 20
42.8366068923
 30
0.0
 10
16.5401730927
 20
42.7317423874
 30
0.0
 10
17.4513524459
 20
42.7392788583
 30
0.0
 10
18.3428640186
 20
42.8593373061
 30
0.0
 10
18.9796653462
 20
43.0029614747
 30
0.0
 10
19.5743466065
 20
43.1976197009
 30
0.0
 10
19.9465537715
 20
43.3639482935
 30
0.0
 10
20.1216812079
 20
43.4554166277
 30
0.0
  0
SPLINE
  5
259
100
AcDbEntity
  8
0
100
AcDbSpline
 62
7
  6
BYLAYER
 70
0
 71
3
 72
9
 73
5
 74
0
 42
0.0000001
 43
0.0000001
 44
0.0000000001
 40
0.0
 40
0.0
 40
0.0
 40
0.0
 40
0.2334161411
 40
1.0
 40
1.0
 40
1.0
 40
1.0
 10
21.1842457973
 20
40.2441271209
 30
0.0
 10
21.1252326379
 20
40.1761576021
 30
0.0
 10
20.8574821738
 20
39.8979230743
 30
0.0
 10
20.5385036836
 20
39.6720160486
 30
0.0
 10
20.2820469126
 20
39.524972076
 30
0.0
  0
SPLINE
  5
25A
100
AcDbEntity
  8
0
100
AcDbSpline
 62
7
  6
BYLAYER
 70
0
 71
3
 72
11
 73
7
 74
0
 42
0.0000001
 43
0.0000001
 44
0.0000000001
 40
0.0
 40
0.0
 40
0.0
 40
0.0
 40
0.2897031353
 40
0.5490914015
 40
0.7822201129
 40
1.0
 40
1.0
 40
1.0
 40
1.0
 10
18.4420869197
 20
45.138012599
 30
0.0
 10
18.5361239396
 20
45.1923045737
 30
0.0
 10
18.7067317749
 20
45.3098137438
 30
0.0
 10
18.9106357867
 20
45.5241006241
 30
0.0
 10
19.0396161021
 20
45.7611601197
 30
0.0
 10
19.0697739049
 20
45.931296887
 30
0.0
 10
19.0697800839
 20
46.0129235701
 30
0.0
  0
SPLINE
  5
25B
100
AcDbEntity
  8
0
100
AcDbSpline
 62
7
  6
BYLAYER
 70
0
 71
3
 72
15
 73
11
 74
0
 42
0.0000001
 43
0.0000001
 44
0.0000000001
 40
0.0
 40
0.0
 40
0.0
 40
0.0
 40
0.1485426523
 40
0.2895070996
 40
0.4227375536
 40
0.5486432265
 40
0.6680006939
 40
0.7819416879
 40
0.8919888749
 40
1.0
 40
1.0
 40
1.0
 40
1.0
 10
22.5393458333
 20
38.2358210218
 30
0.0
 10
22.7183115985
 20
38.3391463378
 30
0.0
 10
23.0589902246
 20
38.5551412975
 30
0.0
 10
23.5248477568
 20
38.915612069
 30
0.0
 10
23.9277600201
 20
39.3013127549
 30
0.0
 10
24.2637229736
 20
39.7085221326
 30
0.0
 10
24.5292904372
 20
40.1337143116
 30
0.0
 10
24.7215942225
 20
40.5730071269
 30
0.0
 10
24.8380391036
 20
41.0219975191
 30
0.0
 10
24.8641539052
 20
41.3259675411
 30
0.0
 10
24.8641399104
 20
41.4762319045
 30
0.0
  0
SPLINE
  5
25C
100
AcDbEntity
  8
0
100
AcDbSpline
 62
7
  6
BYLAYER
 70
0
 71
3
 72
13
 73
9
 74
0
 42
0.0000001
 43
0.0000001
 44
0.0000000001
 40
0.0
 40
0.0
 40
0.0
 40
0.0
 40
0.2684908716
 40
0.5272892421
 40
0.6513505006
 40
0.7712081063
 40
0.8871601795
 40
1.0
 40
1.0
 40
1.0
 40
1.0
 10
52.6996231218
 20
73.6843407286
 30
0.0
 10
52.2537117293
 20
73.6843396568
 30
0.0
 10
51.3733128908
 20
73.5638784885
 30
0.0
 10
50.3702651303
 20
73.1140241336
 30
0.0
 10
49.7093637226
 20
72.5982045203
 30
0.0
 10
49.3054541632
 20
72.1532839903
 30
0.0
 10
48.9991905845
 20
71.6580153903
 30
0.0
 10
48.864938706
 20
71.2993074811
 30
0.0
 10
48.8177123131
 20
71.1179505311
 30
0.0
  0
SPLINE
  5
25D
100
AcDbEntity
  8
0
100
AcDbSpline
 62
7
  6
BYLAYER
 70
0
 71
3
 72
19
 73
15
 74
0
 42
0.0000001
 43
0.0000001
 44
0.0000000001
 40
0.0
 40
0.0
 40
0.0
 40
0.0
 40
0.0623913713
 40
0.1288320668
 40
0.2703532864
 40
0.4174438321
 40
0.5617188966
 40
0.6953267151
 40
0.7563201856
 40
0.81280034
 40
0.8647386834
 40
0.912551973
 40
0.957158712
 40
1.0
 40
1.0
 40
1.0
 40
1.0
 10
18.4420869197
 20
44.6195335641
 30
0.0
 10
18.365137944
 20
44.5751073175
 30
0.0
 10
18.2000832902
 20
44.4937923411
 30
0.0
 10
17.8375807163
 20
44.36235647
 30
0.0
 10
17.3386370776
 20
44.2625933831
 30
0.0
 10
16.7196366376
 20
44.2455127667
 30
0.0
 10
16.1174981139
 20
44.3300484745
 30
0.0
 10
15.6561146431
 20
44.4841616772
 30
0.0
 10
15.3412135251
 20
44.6553316064
 30
0.0
 10
15.1457377733
 20
44.7981790805
 30
0.0
 10
14.9880082291
 20
44.9566010066
 30
0.0
 10
14.8715803888
 20
45.1277701283
 30
0.0
 10
14.7999022939
 20
45.3083733634
 30
0.0
 10
14.7835389074
 20
45.4334333096
 30
0.0
 10
14.7835472437
 20
45.4944445067
 30
0.0
  0
SPLINE
  5
25E
100
AcDbEntity
  8
0
100
AcDbSpline
 62
7
  6
BYLAYER
 70
0
 71
3
 72
14
 73
10
 74
0
 42
0.0000001
 43
0.0000001
 44
0.0000000001
 40
0.0
 40
0.0
 40
0.0
 40
0.0
 40
0.2919953826
 40
0.4260720497
 40
0.5522849712
 40
0.6713864669
 40
0.784556164
 40
0.8934116987
 40
1.0
 40
1.0
 40
1.0
 40
1.0
 10
20.1216812079
 20
43.4554166277
 30
0.0
 10
20.3546069926
 20
43.5770727996
 30
0.0
 10
20.6818959928
 20
43.7829342254
 30
0.0
 10
21.0545787592
 20
44.1131306547
 30
0.0
 10
21.2817305771
 20
44.3693341134
 30
0.0
 10
21.4616108526
 20
44.6384724019
 30
0.0
 10
21.592208402
 20
44.9177799853
 30
0.0
 10
21.67134936
 20
45.2041976723
 30
0.0
 10
21.6891571156
 20
45.3985199278
 30
0.0
 10
21.6891556583
 20
45.4944445299
 30
0.0
  0
SPLINE
  5
25F
100
AcDbEntity
  8
0
100
AcDbSpline
 62
7
  6
BYLAYER
 70
0
 71
3
 72
19
 73
15
 74
0
 42
0.0000001
 43
0.0000001
 44
0.0000000001
 40
0.0
 40
0.0
 40
0.0
 40
0.0
 40
0.0428385813
 40
0.0874433473
 40
0.1352550426
 40
0.1871926702
 40
0.2436711226
 40
0.3046633752
 40
0.4382672724
 40
0.5825427179
 40
0.7296393023
 40
0.8711669517
 40
0.9376091523
 40
1.0
 40
1.0
 40
1.0
 40
1.0
 10
14.783544696
 20
46.0129235619
 30
0.0
 10
14.7835400778
 20
45.9519162068
 30
0.0
 10
14.7998935908
 20
45.8268621505
 30
0.0
 10
14.8715749032
 20
45.6462694446
 30
0.0
 10
14.9879861865
 20
45.4750970485
 30
0.0
 10
15.1457163329
 20
45.3166829397
 30
0.0
 10
15.341178989
 20
45.1738272392
 30
0.0
 10
15.6560733279
 20
45.0026636225
 30
0.0
 10
16.1174445731
 20
44.8485390481
 30
0.0
 10
16.7195865454
 20
44.7639950156
 30
0.0
 10
17.3386056124
 20
44.7810673537
 30
0.0
 10
17.8375699162
 20
44.8808319057
 30
0.0
 10
18.2000824404
 20
45.0122714982
 30
0.0
 10
18.3651385745
 20
45.0935867164
 30
0.0
 10
18.4420869197
 20
45.138012599
 30
0.0
  0
SPLINE
  5
260
100
AcDbEntity
  8
0
100
AcDbSpline
 62
7
  6
BYLAYER
 70
0
 71
3
 72
11
 73
7
 74
0
 42
0.0000001
 43
0.0000001
 44
0.0000000001
 40
0.0
 40
0.0
 40
0.0
 40
0.0
 40
0.2177827477
 40
0.4509152641
 40
0.7103063952
 40
1.0
 40
1.0
 40
1.0
 40
1.0
 10
19.0697775362
 20
45.4944445556
 30
0.0
 10
19.069766383
 20
45.4128168706
 30
0.0
 10
19.0396187345
 20
45.2426769859
 30
0.0
 10
18.910629018
 20
45.0056163691
 30
0.0
 10
18.706726754
 20
44.7913312808
 30
0.0
 10
18.5361207655
 20
44.6738237063
 30
0.0
 10
18.4420869197
 20
44.6195335641
 30
0.0
  0
SPLINE
  5
261
100
AcDbEntity
  8
0
100
AcDbSpline
 62
7
  6
BYLAYER
 70
0
 71
3
 72
24
 73
20
 74
0
 42
0.0000001
 43
0.0000001
 44
0.0000000001
 40
0.0
 40
0.0
 40
0.0
 40
0.0
 40
0.0213336448
 40
0.0428955524
 40
0.0874738272
 40
0.1352529725
 40
0.1871577823
 40
0.2435992131
 40
0.3045512634
 40
0.3696439568
 40
0.4382463827
 40
0.5095379105
 40
0.5825676874
 40
0.6563047761
 40
0.7296861037
 40
0.8016693027
 40
0.8712626457
 40
0.9376183376
 40
1.0
 40
1.0
 40
1.0
 40
1.0
 10
8.9891848695
 20
41.4762321172
 30
0.0
 10
8.9891953568
 20
41.363628889
 30
0.0
 10
9.0037487759
 20
41.1369423372
 30
0.0
 10
9.0913643718
 20
40.6825879198
 30
0.0
 10
9.3152511945
 20
40.1179520141
 30
0.0
 10
9.7463560148
 20
39.4842360833
 30
0.0
 10
10.3306240855
 20
38.8974212348
 30
0.0
 10
11.0546009845
 20
38.3684267524
 30
0.0
 10
11.9028783884
 20
37.9070394365
 30
0.0
 10
12.8577009891
 20
37.5223908848
 30
0.0
 10
13.8989974086
 20
37.222303513
 30
0.0
 10
15.0047521978
 20
37.0130271291
 30
0.0
 10
16.1514778301
 20
36.8989859015
 30
0.0
 10
17.3147341678
 20
36.882609465
 30
0.0
 10
18.469725196
 20
36.9642544323
 30
0.0
 10
19.5917663568
 20
37.1422105104
 30
0.0
 10
20.6571791249
 20
37.4126215916
 30
0.0
 10
21.6430150215
 20
37.7698836943
 30
0.0
 10
22.2541954187
 20
38.0711903359
 30
0.0
 10
22.5393458333
 20
38.2358210218
 30
0.0
  0
ENDSEC
  0
SECTION
  2
OBJECTS
  0
DICTIONARY
  5
C
100
AcDbDictionary
280
0
281
1
  3
ACAD_GROUP
350
D
  3
ACAD_MLINESTYLE
350
17
  3
ACAD_LAYOUT
350
1A
  3
ACAD_PLOTSETTINGS
350
19
  3
ACAD_PLOTSTYLENAME
350
E
  0
DICTIONARY
  5
D
102
{ACAD_REACTORS
330
C
102
}
100
AcDbDictionary
280
0
281
1
  0
ACDBDICTIONARYWDFLT
  5
E
102
{ACAD_REACTORS
330
C
102
}
100
AcDbDictionary
281
1
  3
Normal
350
F
100
AcDbDictionaryWithDefault
340
F
  0
DICTIONARY
  5
17
102
{ACAD_REACTORS
330
C
102
}
100
AcDbDictionary
280
0
281
1
  3
Standard
350
18
  0
DICTIONARY
  5
19
102
{ACAD_REACTORS
330
C
102
}
100
AcDbDictionary
281
1
  0
DICTIONARY
  5
1A
102
{ACAD_REACTORS
330
C
102
}
100
AcDbDictionary
281
1
  3
Model
350
262
  3
Layout1
350
263
  0
ACDBPLACEHOLDER
  5
F
102
{ACAD_REACTORS
330
E
102
}
  0
MLINESTYLE
  5
18
102
{ACAD_REACTORS
330
17
102
}
100
AcDbMlineStyle
  2
STANDARD
 70
0
  3

 62
256
 51
90.0
 52
90.0
 71
2
 49
0.5
 62
256
  6
BYLAYER
 49
-0.5
 62
256
  6
BYLAYER
  0
LAYOUT
  5
262
102
{ACAD_REACTORS
330
1A
102
}
100
AcDbPlotSettings
  1

  2
none_device
  4

  6

 40
0.0
 41
0.0
 42
0.0
 43
0.0
 44
210.0
 45
297.0
 46
0.0
 47
0.0
 48
0.0
 49
0.0
140
0.0
141
0.0
142
1.0
143
1.0
 70
1024
 72
1
 73
0
 74
0
  7

 75
0
147
1.0
148
0.0
149
0.0
100
AcDbLayout
  1
Model
 70
0
 71
0
 10
0.0
 20
0.0
 11
210.0
 21
297.0
 12
0.0
 22
0.0
 32
0.0
 14
0.0
 24
0.0
 34
0.0
 15
0.0
 25
0.0
 35
0.0
146
0.0
 13
0.0
 23
0.0
 33
0.0
 16
1.0
 26
0.0
 36
0.0
 17
0.0
 27
1.0
 37
0.0
 76
0
330
210
345
0
346
0
  0
LAYOUT
  5
263
102
{ACAD_REACTORS
330
1A
102
}
100
AcDbPlotSettings
  1

  2
none_device
  4

  6

 40
0.0
 41
0.0
 42
0.0
 43
0.0
 44
210.0
 45
297.0
 46
0.0
 47
0.0
 48
0.0
 49
0.0
140
0.0
141
0.0
142
1.0
143
1.0
 70
0
 72
1
 73
0
 74
0
  7

 75
0
147
1.0
148
0.0
149
0.0
100
AcDbLayout
  1
Layout1
 70
0
 71
1
 10
0.0
 20
0.0
 11
210.0
 21
297.0
 12
0.0
 22
0.0
 32
0.0
 14
0.0
 24
0.0
 34
0.0
 15
0.0
 25
0.0
 35
0.0
146
0.0
 13
0.0
 23
0.0
 33
0.0
 16
1.0
 26
0.0
 36
0.0
 17
0.0
 27
1.0
 37
0.0
 76
0
330
211
345
0
346
0
  0
ENDSEC
  0
EOF
