999
DXF file: C:\Users\sesa63760\Dev\_Creo\CAD\MCADID0004122_3D-CAD\drw0001_3.dxf
999
Pro/ENGINEER 2019471 by Parametric Technology Corporation
  0
SECTION
  2
HEADER
  9
$ACADVER
  1
AC1024
  9
$DWGCODEPAGE
  3
ANSI_1252
  9
$EXTMAX
 10
95.1922375996
 20
134.6290217479
 30
0.0
  9
$EXTMIN
 10
0.0
 20
0.0
 30
0.0
  9
$LIMMIN
 10
0.0
 20
0.0
  9
$LIMMAX
 10
95.1922375996
 20
134.6290217479
  9
$VIEWCTR
 10
47.5961187998
 20
67.314510874
  9
$VIEWSIZE
 40
134.6290217479
  9
$CLAYER
  8
0
  9
$LTSCALE
 40
8.7758177139
  9
$CELTYPE
  6
BYLAYER
  9
$DIMSCALE
 40
1.0
  9
$DIMASZ
 40
1.1332409238
  9
$DIMEXO
 40
1.0
  9
$DIMDLI
 40
6.0632922387
  9
$DIMEXE
 40
1.0
  9
$DIMCEN
 40
1.4360428986
  9
$DIMLFAC
 40
1.0
  9
$DIMBLK
  1
_FILLED
  9
$DIMALT
 70
0
  9
$DIMALTF
 40
0.0393700787
  9
$DIMTXT
 40
1.5865372933
  9
$DIMTOL
 70
1
  9
$DIMLIM
 70
0
  9
$DIMTFAC
 40
1.0
  9
$DIMTP
 40
0.01
  9
$DIMTM
 40
0.01
  9
$DIMGAP
 40
0.625
  9
$DIMDSEP
 70
46
  9
$AUNITS
 70
0
  9
$PDMODE
 70
3
  9
$PDSIZE
 40
0.3125
  9
$HANDSEED
  5
28C
  9
$TILEMODE
 70
1
  9
$MEASUREMENT
 70
1
  9
$INSUNITS
 70
4
  0
ENDSEC
  0
SECTION
  2
CLASSES
  0
CLASS
  1
ACDBDICTIONARYWDFLT
  2
AcDbDictionaryWithDefault
  3
AutoCAD 2000
 90
0
 91
1
280
0
281
0
  0
CLASS
  1
ACDBPLACEHOLDER
  2
AcDbPlaceHolder
  3
AutoCAD 2000
 90
0
 91
1
280
0
281
0
  0
CLASS
  1
LAYOUT
  2
AcDbLayout
  3
AutoCAD 2000
 90
0
 91
0
280
0
281
0
  0
ENDSEC
  0
SECTION
  2
TABLES
  0
TABLE
  2
VPORT
  5
8
100
AcDbSymbolTable
 70
2
  0
VPORT
  5
1F4
100
AcDbSymbolTableRecord
100
AcDbViewportTableRecord
  2
*ACTIVE
 70
0
 10
0.0
 20
0.0
 11
1.0
 21
1.0
 12
47.5961187998
 22
67.314510874
 13
0.0
 23
0.0
 14
1.0
 24
1.0
 15
0.0
 25
0.0
 16
0.0
 26
0.0
 36
1.0
 17
0.0
 27
0.0
 37
0.0
 40
134.6290217479
 41
0.7070707071
 42
50.0
 43
0.0
 44
0.0
 50
0.0
 51
0.0
 71
0
 72
100
 73
1
 74
1
 75
0
 76
0
 77
0
 78
0
  0
ENDTAB
  0
TABLE
  2
LTYPE
  5
5
100
AcDbSymbolTable
 70
6
  0
LTYPE
  5
14
100
AcDbSymbolTableRecord
100
AcDbLinetypeTableRecord
  2
BYBLOCK
 70
0
  3

 72
65
 73
0
 40
0.0
  0
LTYPE
  5
15
100
AcDbSymbolTableRecord
100
AcDbLinetypeTableRecord
  2
BYLAYER
 70
0
  3

 72
65
 73
0
 40
0.0
  0
LTYPE
  5
16
100
AcDbSymbolTableRecord
100
AcDbLinetypeTableRecord
  2
CONTINUOUS
 70
64
  3
Solid line
 72
65
 73
0
 40
0.0
  0
LTYPE
  5
1F5
100
AcDbSymbolTableRecord
100
AcDbLinetypeTableRecord
  2
CENTER
 70
64
  3
____ _ ____ _ ____ _ ____ _ ____ _ ____ _ ____
 72
65
 73
4
 40
0.6
 49
0.375
 74
0
 49
-0.075
 74
0
 49
0.075
 74
0
 49
-0.075
 74
0
  0
LTYPE
  5
1F6
100
AcDbSymbolTableRecord
100
AcDbLinetypeTableRecord
  2
HIDDEN
 70
64
  3
- - - - - - - - - - - - - - - - - - - -
 72
65
 73
2
 40
0.2
 49
0.1
 74
0
 49
-0.1
 74
0
  0
LTYPE
  5
1F7
100
AcDbSymbolTableRecord
100
AcDbLinetypeTableRecord
  2
PHANTOM
 70
64
  3
_____ _ _ _____ _ _ _____ _ _ _____
 72
65
 73
6
 40
0.8
 49
0.45
 74
0
 49
-0.05
 74
0
 49
0.1
 74
0
 49
-0.05
 74
0
 49
0.1
 74
0
 49
-0.05
 74
0
  0
LTYPE
  5
1F8
100
AcDbSymbolTableRecord
100
AcDbLinetypeTableRecord
  2
DOT
 70
64
  3
. . . . . . . . . . . . . . . . . . . .
 72
65
 73
2
 40
0.2
 49
0.1
 74
0
 49
-0.1
 74
0
  0
LTYPE
  5
1F9
100
AcDbSymbolTableRecord
100
AcDbLinetypeTableRecord
  2
DASHED
 70
64
  3
- - - - - - - - - - - - - - - - - - - -
 72
65
 73
2
 40
0.2
 49
0.1
 74
0
 49
-0.1
 74
0
  0
ENDTAB
  0
TABLE
  2
LAYER
  5
2
100
AcDbSymbolTable
 70
36
  0
LAYER
  5
10
100
AcDbSymbolTableRecord
100
AcDbLayerTableRecord
  2
0
 70
0
 62
7
  6
CONTINUOUS
370
-3
390
F
  0
LAYER
  5
1FA
100
AcDbSymbolTableRecord
100
AcDbLayerTableRecord
  2
DEFAULT_1
 70
0
 62
7
  6
CENTER
370
-3
390
F
  0
LAYER
  5
1FB
100
AcDbSymbolTableRecord
100
AcDbLayerTableRecord
  2
DEFAULT_2
 70
0
 62
7
  6
HIDDEN
370
-3
390
F
  0
LAYER
  5
1FC
100
AcDbSymbolTableRecord
100
AcDbLayerTableRecord
  2
DEFAULT_3
 70
0
 62
7
  6
PHANTOM
370
-3
390
F
  0
LAYER
  5
1FD
100
AcDbSymbolTableRecord
100
AcDbLayerTableRecord
  2
00_COMPONENTS
 70
0
 62
7
  6
CONTINUOUS
370
-3
390
F
  0
LAYER
  5
1FE
100
AcDbSymbolTableRecord
100
AcDbLayerTableRecord
  2
01_1_DEFAULT_DATUMS
 70
0
 62
7
  6
CONTINUOUS
370
-3
390
F
  0
LAYER
  5
1FF
100
AcDbSymbolTableRecord
100
AcDbLayerTableRecord
  2
01_PLANES
 70
0
 62
7
  6
CONTINUOUS
370
-3
390
F
  0
LAYER
  5
200
100
AcDbSymbolTableRecord
100
AcDbLayerTableRecord
  2
02_COORD_SYS
 70
0
 62
7
  6
CONTINUOUS
370
-3
390
F
  0
LAYER
  5
201
100
AcDbSymbolTableRecord
100
AcDbLayerTableRecord
  2
03_AXES
 70
0
 62
7
  6
CONTINUOUS
370
-3
390
F
  0
LAYER
  5
202
100
AcDbSymbolTableRecord
100
AcDbLayerTableRecord
  2
04_POINTS
 70
0
 62
7
  6
CONTINUOUS
370
-3
390
F
  0
LAYER
  5
203
100
AcDbSymbolTableRecord
100
AcDbLayerTableRecord
  2
05_CURVES
 70
0
 62
7
  6
CONTINUOUS
370
-3
390
F
  0
LAYER
  5
204
100
AcDbSymbolTableRecord
100
AcDbLayerTableRecord
  2
06_SURFS
 70
0
 62
7
  6
CONTINUOUS
370
-3
390
F
  0
LAYER
  5
205
100
AcDbSymbolTableRecord
100
AcDbLayerTableRecord
  2
07_COSMETICS
 70
0
 62
7
  6
CONTINUOUS
370
-3
390
F
  0
LAYER
  5
206
100
AcDbSymbolTableRecord
100
AcDbLayerTableRecord
  2
10_NOTES
 70
0
 62
7
  6
CONTINUOUS
370
-3
390
F
  0
LAYER
  5
207
100
AcDbSymbolTableRecord
100
AcDbLayerTableRecord
  2
11_NOTES_PUB
 70
0
 62
7
  6
CONTINUOUS
370
-3
390
F
  0
LAYER
  5
208
100
AcDbSymbolTableRecord
100
AcDbLayerTableRecord
  2
13_REF_GTOL
 70
0
 62
7
  6
CONTINUOUS
370
-3
390
F
  0
LAYER
  5
209
100
AcDbSymbolTableRecord
100
AcDbLayerTableRecord
  2
16_MISC
 70
0
 62
7
  6
CONTINUOUS
370
-3
390
F
  0
LAYER
  5
20A
100
AcDbSymbolTableRecord
100
AcDbLayerTableRecord
  2
17_NO_PRINT
 70
0
 62
7
  6
CONTINUOUS
370
-3
390
F
  0
LAYER
  5
20B
100
AcDbSymbolTableRecord
100
AcDbLayerTableRecord
  2
18_DATUM_CAMS_JOINTS
 70
0
 62
7
  6
CONTINUOUS
370
-3
390
F
  0
LAYER
  5
20C
100
AcDbSymbolTableRecord
100
AcDbLayerTableRecord
  2
19_DATUM_FUNCTIONAL
 70
0
 62
7
  6
CONTINUOUS
370
-3
390
F
  0
LAYER
  5
20D
100
AcDbSymbolTableRecord
100
AcDbLayerTableRecord
  2
20_DATUM_KINEMATIC_SCHEME
 70
0
 62
7
  6
CONTINUOUS
370
-3
390
F
  0
ENDTAB
  0
TABLE
  2
STYLE
  5
3
100
AcDbSymbolTable
 70
1
  0
STYLE
  5
11
100
AcDbSymbolTableRecord
100
AcDbTextStyleTableRecord
  2
STANDARD
 70
0
 40
0.0
 41
1.0
 50
0.0
 71
0
 42
0.2
  3
ARIAL.TTF
  4

  0
STYLE
  5
20E
100
AcDbSymbolTableRecord
100
AcDbTextStyleTableRecord
  2
TEXTSTYLE_1
 70
0
 40
0.0
 41
0.8
 50
0.0
 71
0
 42
0.2
  3
gdt
  4

  0
ENDTAB
  0
TABLE
  2
VIEW
  5
6
100
AcDbSymbolTable
 70
0
  0
ENDTAB
  0
TABLE
  2
UCS
  5
7
100
AcDbSymbolTable
 70
0
  0
ENDTAB
  0
TABLE
  2
APPID
  5
9
100
AcDbSymbolTable
 70
1
  0
APPID
  5
20F
100
AcDbSymbolTableRecord
100
AcDbRegAppTableRecord
  2
ACAD
 70
0
  0
ENDTAB
  0
TABLE
  2
BLOCK_RECORD
  5
1
100
AcDbSymbolTable
 70
0
  0
BLOCK_RECORD
  5
210
100
AcDbSymbolTableRecord
100
AcDbBlockTableRecord
  2
*Model_Space
  0
BLOCK_RECORD
  5
211
100
AcDbSymbolTableRecord
100
AcDbBlockTableRecord
  2
*Paper_Space
  0
BLOCK_RECORD
  5
212
100
AcDbSymbolTableRecord
100
AcDbBlockTableRecord
  2
_FILLED
  0
ENDTAB
  0
TABLE
  2
DIMSTYLE
  5
A
100
AcDbSymbolTable
 70
1
100
AcDbDimStyleTable
 71
0
  0
DIMSTYLE
105
213
100
AcDbSymbolTableRecord
100
AcDbDimStyleTableRecord
  2
STANDARD
 70
0
  3

  4

 40
1.0
 41
1.1332409238
 42
1.0
 43
0.38
 44
1.0
 45
0.0
 46
0.0
 47
0.01
 48
0.01
140
1.5865372933
141
0.09
142
0.0
143
25.4
144
1.0
145
0.0
146
1.0
147
0.625
 71
1
 72
0
 73
0
 74
0
 75
0
 76
0
 77
1
 78
8
 79
2
170
0
171
1
172
0
173
0
174
0
175
0
176
0
177
0
178
0
270
2
179
2
271
2
272
2
273
2
274
2
275
0
280
0
281
0
282
0
283
1
284
8
285
0
286
0
287
3
288
0
340
11
278
46
341
212
342
212
343
212
344
212
  0
ENDTAB
  0
ENDSEC
  0
SECTION
  2
BLOCKS
  0
BLOCK
  5
20
100
AcDbEntity
  8
0
100
AcDbBlockBegin
  2
*Model_Space
 70
0
 10
0.0
 20
0.0
 30
0.0
  3
*Model_Space
  1

  0
ENDBLK
  5
21
100
AcDbEntity
  8
0
100
AcDbBlockEnd
  0
BLOCK
  5
1C
100
AcDbEntity
  8
0
100
AcDbBlockBegin
  2
*Paper_Space
 70
0
 10
0.0
 20
0.0
 30
0.0
  3
*Paper_Space
  1

  0
ENDBLK
  5
1D
100
AcDbEntity
  8
0
100
AcDbBlockEnd
  0
BLOCK
  5
214
100
AcDbEntity
  8
0
100
AcDbBlockBegin
  2
_FILLED
 70
64
 10
0.0
 20
0.0
  3
_FILLED
  1

  0
SOLID
  5
215
100
AcDbEntity
  8
0
  6
BYBLOCK
 62
0
100
AcDbTrace
 10
0.0
 20
0.0
 11
-1.0
 21
0.25
 12
-1.0
 22
-0.25
 13
-1.0
 23
-0.25
  0
ENDBLK
  5
216
100
AcDbEntity
  8
0
  6
BYBLOCK
 62
0
100
AcDbBlockEnd
  0
ENDSEC
  0
SECTION
  2
ENTITIES
  0
LINE
  5
217
100
AcDbEntity
  8
0
100
AcDbLine
 62
7
  6
BYLAYER
 10
11.2611135422
 20
62.4964168579
 11
11.2611135422
 21
72.7917433074
  0
LINE
  5
218
100
AcDbEntity
  8
0
100
AcDbLine
 62
7
  6
BYLAYER
 10
11.3639810838
 20
62.3978354639
 11
11.3639810838
 21
72.8903247014
  0
LINE
  5
219
100
AcDbEntity
  8
0
100
AcDbLine
 62
7
  6
BYLAYER
 10
11.7625928072
 20
72.8903247014
 11
11.7625928072
 21
62.3978354639
  0
LINE
  5
21A
100
AcDbEntity
  8
0
100
AcDbLine
 62
7
  6
BYLAYER
 10
12.512668631
 20
61.6477596402
 11
12.512668631
 21
73.6404005251
  0
LINE
  5
21B
100
AcDbEntity
  8
0
100
AcDbLine
 62
7
  6
BYLAYER
 10
20.1611135422
 20
73.6403891588
 11
20.1611135422
 21
61.6477710065
  0
LINE
  5
21C
100
AcDbEntity
  8
0
100
AcDbLine
 62
7
  6
BYLAYER
 10
11.7625928072
 20
72.8903247014
 11
12.512668631
 21
73.6404005251
  0
LINE
  5
21D
100
AcDbEntity
  8
0
100
AcDbLine
 62
7
  6
BYLAYER
 10
11.7625928072
 20
62.3978354639
 11
12.512668631
 21
61.6477596402
  0
LINE
  5
21E
100
AcDbEntity
  8
0
100
AcDbLine
 62
7
  6
BYLAYER
 10
20.911189366
 20
61.6477596402
 11
20.911189366
 21
73.6404005251
  0
LINE
  5
21F
100
AcDbEntity
  8
0
100
AcDbLine
 62
7
  6
BYLAYER
 10
21.1526319226
 20
60.7003054984
 11
21.1526319226
 21
74.5878597725
  0
LINE
  5
220
100
AcDbEntity
  8
0
100
AcDbLine
 62
7
  6
BYLAYER
 10
23.4765889206
 20
74.5880573408
 11
23.4765889206
 21
60.7001028245
  0
LINE
  5
221
100
AcDbEntity
  8
0
100
AcDbLine
 62
7
  6
BYLAYER
 10
20.1611135422
 20
72.8903247014
 11
20.911189366
 21
73.6404005251
  0
LINE
  5
222
100
AcDbEntity
  8
0
100
AcDbLine
 62
7
  6
BYLAYER
 10
20.1611135422
 20
62.3978354639
 11
20.911189366
 21
61.6477596402
  0
LINE
  5
223
100
AcDbEntity
  8
0
100
AcDbLine
 62
7
  6
BYLAYER
 10
33.8492838217
 20
59.3460983982
 11
33.8492838217
 21
75.9420617671
  0
LINE
  5
224
100
AcDbEntity
  8
0
100
AcDbLine
 62
7
  6
BYLAYER
 10
34.7697723119
 20
75.9418433154
 11
34.7697723119
 21
59.3463168499
  0
LINE
  5
225
100
AcDbEntity
  8
0
100
AcDbLine
 62
7
  6
BYLAYER
 10
35.0698026414
 20
59.3463168499
 11
35.0698026414
 21
75.9418433154
  0
LINE
  5
226
100
AcDbEntity
  8
0
100
AcDbLine
 62
7
  6
BYLAYER
 10
41.0588369363
 20
75.9420617671
 11
41.80891276
 21
76.6921375909
  0
LINE
  5
227
100
AcDbEntity
  8
0
100
AcDbLine
 62
7
  6
BYLAYER
 10
47.3676713694
 20
55.6390800827
 11
50.3676713694
 21
55.6390800827
  0
LINE
  5
228
100
AcDbEntity
  8
0
100
AcDbLine
 62
7
  6
BYLAYER
 10
57.3676713694
 20
55.6390800827
 11
60.3676713694
 21
55.6390800827
  0
LINE
  5
229
100
AcDbEntity
  8
0
100
AcDbLine
 62
7
  6
BYLAYER
 10
59.504532717
 20
56.2939187948
 11
58.2308100219
 21
56.2939187948
  0
LINE
  5
22A
100
AcDbEntity
  8
0
100
AcDbLine
 62
7
  6
BYLAYER
 10
49.504532717
 20
56.2939187948
 11
48.2308100219
 21
56.2939187948
  0
LINE
  5
22B
100
AcDbEntity
  8
0
100
AcDbLine
 62
7
  6
BYLAYER
 10
41.0588369363
 20
59.3460983982
 11
41.80891276
 21
58.5960225744
  0
LINE
  5
22C
100
AcDbEntity
  8
0
100
AcDbLine
 62
7
  6
BYLAYER
 10
41.0588369363
 20
75.9420617671
 11
41.0588369363
 21
59.3460983982
  0
LINE
  5
22D
100
AcDbEntity
  8
0
100
AcDbLine
 62
7
  6
BYLAYER
 10
56.6690293165
 20
78.6929158111
 11
57.3676713694
 21
78.9445081359
  0
LINE
  5
22E
100
AcDbEntity
  8
0
100
AcDbLine
 62
7
  6
BYLAYER
 10
67.8886402842
 20
58.5960225744
 11
60.3676713694
 21
58.5960225744
  0
LINE
  5
22F
100
AcDbEntity
  8
0
100
AcDbLine
 62
7
  6
BYLAYER
 10
56.6690293165
 20
58.5960225744
 11
51.0663134224
 21
58.5960225744
  0
LINE
  5
230
100
AcDbEntity
  8
0
100
AcDbLine
 62
7
  6
BYLAYER
 10
47.3676713694
 20
58.5960225744
 11
41.80891276
 21
58.5960225744
  0
LINE
  5
231
100
AcDbEntity
  8
0
100
AcDbLine
 62
7
  6
BYLAYER
 10
85.5725560476
 20
59.298950775
 11
69.6888222612
 21
59.298950775
  0
LINE
  5
232
100
AcDbEntity
  8
0
100
AcDbLine
 62
7
  6
BYLAYER
 10
69.4873733257
 20
59.298950775
 11
68.4887009432
 21
59.298950775
  0
LINE
  5
233
100
AcDbEntity
  8
0
100
AcDbLine
 62
7
  6
BYLAYER
 10
41.0588369363
 20
59.3460983982
 11
35.0698026414
 21
59.3460983982
  0
LINE
  5
234
100
AcDbEntity
  8
0
100
AcDbLine
 62
7
  6
BYLAYER
 10
34.7697723119
 20
59.3460983982
 11
33.8492838217
 21
59.3460983982
  0
LINE
  5
235
100
AcDbEntity
  8
0
100
AcDbLine
 62
7
  6
BYLAYER
 10
69.6888222612
 20
59.398950775
 11
69.4873733257
 21
59.398950775
  0
LINE
  5
236
100
AcDbEntity
  8
0
100
AcDbLine
 62
7
  6
BYLAYER
 10
23.4765889206
 20
60.7001028245
 11
33.8492838217
 21
59.3460983982
  0
LINE
  5
237
100
AcDbEntity
  8
0
100
AcDbLine
 62
7
  6
BYLAYER
 10
56.6690293165
 20
56.5952443542
 11
57.3676713694
 21
56.3436520294
  0
LINE
  5
238
100
AcDbEntity
  8
0
100
AcDbLine
 62
7
  6
BYLAYER
 10
41.80891276
 20
58.5960225744
 11
41.80891276
 21
76.6921375909
  0
LINE
  5
239
100
AcDbEntity
  8
0
100
AcDbLine
 62
7
  6
BYLAYER
 10
35.0698026414
 20
60.1476079927
 11
34.7697723119
 21
60.1476079927
  0
LINE
  5
23A
100
AcDbEntity
  8
0
100
AcDbLine
 62
7
  6
BYLAYER
 10
23.4765889206
 20
60.7001028245
 11
21.1526319226
 21
60.7001028245
  0
LINE
  5
23B
100
AcDbEntity
  8
0
100
AcDbLine
 62
7
  6
BYLAYER
 10
21.1526319226
 20
61.6477596402
 11
20.911189366
 21
61.6477596402
  0
LINE
  5
23C
100
AcDbEntity
  8
0
100
AcDbLine
 62
7
  6
BYLAYER
 10
20.1611135422
 20
61.6477596402
 11
12.512668631
 21
61.6477596402
  0
LINE
  5
23D
100
AcDbEntity
  8
0
100
AcDbLine
 62
7
  6
BYLAYER
 10
85.5726145661
 20
62.0582781561
 11
72.1876713694
 21
62.0582781561
  0
LINE
  5
23E
100
AcDbEntity
  8
0
100
AcDbLine
 62
7
  6
BYLAYER
 10
11.7625928072
 20
62.3978354639
 11
11.3639810838
 21
62.3978354639
  0
LINE
  5
23F
100
AcDbEntity
  8
0
100
AcDbLine
 62
7
  6
BYLAYER
 10
47.3676713694
 20
55.6390800827
 11
47.3676713694
 21
79.6490800827
  0
LINE
  5
240
100
AcDbEntity
  8
0
100
AcDbLine
 62
7
  6
BYLAYER
 10
48.2308100219
 20
55.6390800827
 11
48.2308100219
 21
56.2939187948
  0
LINE
  5
241
100
AcDbEntity
  8
0
100
AcDbLine
 62
7
  6
BYLAYER
 10
48.2308100219
 20
66.9892413705
 11
48.2308100219
 21
68.2989187948
  0
LINE
  5
242
100
AcDbEntity
  8
0
100
AcDbLine
 62
7
  6
BYLAYER
 10
48.2308100219
 20
78.9942413705
 11
48.2308100219
 21
79.6490800827
  0
LINE
  5
243
100
AcDbEntity
  8
0
100
AcDbLine
 62
7
  6
BYLAYER
 10
48.2308100219
 20
66.9892413705
 11
49.504532717
 21
66.9892413705
  0
LINE
  5
244
100
AcDbEntity
  8
0
100
AcDbLine
 62
7
  6
BYLAYER
 10
58.2308100219
 20
66.9892413705
 11
59.504532717
 21
66.9892413705
  0
LINE
  5
245
100
AcDbEntity
  8
0
100
AcDbLine
 62
7
  6
BYLAYER
 10
49.504532717
 20
79.6490800827
 11
49.504532717
 21
78.9942413705
  0
LINE
  5
246
100
AcDbEntity
  8
0
100
AcDbLine
 62
7
  6
BYLAYER
 10
49.504532717
 20
68.2989187948
 11
49.504532717
 21
66.9892413705
  0
LINE
  5
247
100
AcDbEntity
  8
0
100
AcDbLine
 62
7
  6
BYLAYER
 10
49.504532717
 20
56.2939187948
 11
49.504532717
 21
55.6390800827
  0
LINE
  5
248
100
AcDbEntity
  8
0
100
AcDbLine
 62
7
  6
BYLAYER
 10
50.3676713694
 20
79.6490800827
 11
50.3676713694
 21
55.6390800827
  0
LINE
  5
249
100
AcDbEntity
  8
0
100
AcDbLine
 62
7
  6
BYLAYER
 10
51.0663134224
 20
78.6929096718
 11
51.0663134224
 21
56.5952504935
  0
LINE
  5
24A
100
AcDbEntity
  8
0
100
AcDbLine
 62
7
  6
BYLAYER
 10
59.504532717
 20
68.2989187948
 11
58.2308100219
 21
68.2989187948
  0
LINE
  5
24B
100
AcDbEntity
  8
0
100
AcDbLine
 62
7
  6
BYLAYER
 10
49.504532717
 20
68.2989187948
 11
48.2308100219
 21
68.2989187948
  0
LINE
  5
24C
100
AcDbEntity
  8
0
100
AcDbLine
 62
7
  6
BYLAYER
 10
11.7625928072
 20
72.8903247014
 11
11.3639810838
 21
72.8903247014
  0
LINE
  5
24D
100
AcDbEntity
  8
0
100
AcDbLine
 62
7
  6
BYLAYER
 10
72.1876713694
 20
73.2298820092
 11
85.5726144447
 21
73.2298820092
  0
LINE
  5
24E
100
AcDbEntity
  8
0
100
AcDbLine
 62
7
  6
BYLAYER
 10
56.6690293165
 20
56.5952504935
 11
56.6690293165
 21
78.6929096718
  0
LINE
  5
24F
100
AcDbEntity
  8
0
100
AcDbLine
 62
7
  6
BYLAYER
 10
21.1526319226
 20
73.6404005251
 11
20.911189366
 21
73.6404005251
  0
LINE
  5
250
100
AcDbEntity
  8
0
100
AcDbLine
 62
7
  6
BYLAYER
 10
20.1611135422
 20
73.6404005251
 11
12.512668631
 21
73.6404005251
  0
LINE
  5
251
100
AcDbEntity
  8
0
100
AcDbLine
 62
7
  6
BYLAYER
 10
23.4765889206
 20
74.5880573408
 11
21.1526319226
 21
74.5880573408
  0
LINE
  5
252
100
AcDbEntity
  8
0
100
AcDbLine
 62
7
  6
BYLAYER
 10
35.0698026414
 20
75.1405521726
 11
34.7697723119
 21
75.1405521726
  0
LINE
  5
253
100
AcDbEntity
  8
0
100
AcDbLine
 62
7
  6
BYLAYER
 10
69.6888222612
 20
75.8892093904
 11
69.4873733257
 21
75.8892093904
  0
LINE
  5
254
100
AcDbEntity
  8
0
100
AcDbLine
 62
7
  6
BYLAYER
 10
57.3676713694
 20
55.6390800827
 11
57.3676713694
 21
79.6490800827
  0
LINE
  5
255
100
AcDbEntity
  8
0
100
AcDbLine
 62
7
  6
BYLAYER
 10
58.2308100219
 20
55.6390800827
 11
58.2308100219
 21
56.2939187948
  0
LINE
  5
256
100
AcDbEntity
  8
0
100
AcDbLine
 62
7
  6
BYLAYER
 10
58.2308100219
 20
66.9892413705
 11
58.2308100219
 21
68.2989187948
  0
LINE
  5
257
100
AcDbEntity
  8
0
100
AcDbLine
 62
7
  6
BYLAYER
 10
58.2308100219
 20
78.9942413705
 11
58.2308100219
 21
79.6490800827
  0
LINE
  5
258
100
AcDbEntity
  8
0
100
AcDbLine
 62
7
  6
BYLAYER
 10
59.504532717
 20
79.6490800827
 11
59.504532717
 21
78.9942413705
  0
LINE
  5
259
100
AcDbEntity
  8
0
100
AcDbLine
 62
7
  6
BYLAYER
 10
59.504532717
 20
68.2989187948
 11
59.504532717
 21
66.9892413705
  0
LINE
  5
25A
100
AcDbEntity
  8
0
100
AcDbLine
 62
7
  6
BYLAYER
 10
59.504532717
 20
56.2939187948
 11
59.504532717
 21
55.6390800827
  0
LINE
  5
25B
100
AcDbEntity
  8
0
100
AcDbLine
 62
7
  6
BYLAYER
 10
23.4765889206
 20
74.5880573408
 11
33.8492838217
 21
75.9420617671
  0
LINE
  5
25C
100
AcDbEntity
  8
0
100
AcDbLine
 62
7
  6
BYLAYER
 10
41.0588369363
 20
75.9420617671
 11
35.0698026414
 21
75.9420617671
  0
LINE
  5
25D
100
AcDbEntity
  8
0
100
AcDbLine
 62
7
  6
BYLAYER
 10
34.7697723119
 20
75.9420617671
 11
33.8492838217
 21
75.9420617671
  0
LINE
  5
25E
100
AcDbEntity
  8
0
100
AcDbLine
 62
7
  6
BYLAYER
 10
85.5725560476
 20
75.9892093904
 11
69.6888222612
 21
75.9892093904
  0
LINE
  5
25F
100
AcDbEntity
  8
0
100
AcDbLine
 62
7
  6
BYLAYER
 10
69.4873733257
 20
75.9892093904
 11
68.4887009432
 21
75.9892093904
  0
LINE
  5
260
100
AcDbEntity
  8
0
100
AcDbLine
 62
7
  6
BYLAYER
 10
67.8886402842
 20
76.6921375909
 11
60.3676713694
 21
76.6921375909
  0
LINE
  5
261
100
AcDbEntity
  8
0
100
AcDbLine
 62
7
  6
BYLAYER
 10
56.6690293165
 20
76.6921375909
 11
51.0663134224
 21
76.6921375909
  0
LINE
  5
262
100
AcDbEntity
  8
0
100
AcDbLine
 62
7
  6
BYLAYER
 10
47.3676713694
 20
76.6921375909
 11
41.80891276
 21
76.6921375909
  0
LINE
  5
263
100
AcDbEntity
  8
0
100
AcDbLine
 62
7
  6
BYLAYER
 10
60.3676713694
 20
79.6490800827
 11
60.3676713694
 21
55.6390800827
  0
LINE
  5
264
100
AcDbEntity
  8
0
100
AcDbLine
 62
7
  6
BYLAYER
 10
51.0663134224
 20
56.5952443542
 11
50.3676713694
 21
56.3436520294
  0
LINE
  5
265
100
AcDbEntity
  8
0
100
AcDbLine
 62
7
  6
BYLAYER
 10
48.2308100219
 20
78.9942413705
 11
49.504532717
 21
78.9942413705
  0
LINE
  5
266
100
AcDbEntity
  8
0
100
AcDbLine
 62
7
  6
BYLAYER
 10
58.2308100219
 20
78.9942413705
 11
59.504532717
 21
78.9942413705
  0
LINE
  5
267
100
AcDbEntity
  8
0
100
AcDbLine
 62
7
  6
BYLAYER
 10
60.3676713694
 20
79.6490800827
 11
57.3676713694
 21
79.6490800827
  0
LINE
  5
268
100
AcDbEntity
  8
0
100
AcDbLine
 62
7
  6
BYLAYER
 10
50.3676713694
 20
79.6490800827
 11
47.3676713694
 21
79.6490800827
  0
LINE
  5
269
100
AcDbEntity
  8
0
100
AcDbLine
 62
7
  6
BYLAYER
 10
51.0663134224
 20
78.6929158111
 11
50.3676713694
 21
78.9445081359
  0
LINE
  5
26A
100
AcDbEntity
  8
0
100
AcDbLine
 62
7
  6
BYLAYER
 10
67.8886402842
 20
76.6921375909
 11
67.8886402842
 21
58.5960225744
  0
LINE
  5
26B
100
AcDbEntity
  8
0
100
AcDbLine
 62
7
  6
BYLAYER
 10
68.4887009432
 20
76.0918530714
 11
68.4887009432
 21
59.196307094
  0
LINE
  5
26C
100
AcDbEntity
  8
0
100
AcDbLine
 62
7
  6
BYLAYER
 10
69.4873733257
 20
75.9889892694
 11
69.4873733257
 21
59.2991708959
  0
LINE
  5
26D
100
AcDbEntity
  8
0
100
AcDbLine
 62
7
  6
BYLAYER
 10
69.6888222612
 20
59.2991708959
 11
69.6888222612
 21
75.9889892694
  0
LINE
  5
26E
100
AcDbEntity
  8
0
100
AcDbLine
 62
7
  6
BYLAYER
 10
68.4887009432
 20
59.1960832334
 11
67.8886402842
 21
58.5960225744
  0
LINE
  5
26F
100
AcDbEntity
  8
0
100
AcDbLine
 62
7
  6
BYLAYER
 10
68.4887009432
 20
76.0920769319
 11
67.8886402842
 21
76.6921375909
  0
LINE
  5
270
100
AcDbEntity
  8
0
100
AcDbLine
 62
7
  6
BYLAYER
 10
72.1876713694
 20
73.2298820092
 11
72.1876713694
 21
62.0582781561
  0
LINE
  5
271
100
AcDbEntity
  8
0
100
AcDbLine
 62
7
  6
BYLAYER
 10
85.568998987
 20
62.0582781561
 11
85.5707775173
 21
59.298950775
  0
LINE
  5
272
100
AcDbEntity
  8
0
100
AcDbLine
 62
7
  6
BYLAYER
 10
86.5676713694
 20
60.2976231574
 11
86.5676713694
 21
74.9905370079
  0
LINE
  5
273
100
AcDbEntity
  8
0
100
AcDbLine
 62
7
  6
BYLAYER
 10
85.5707775173
 20
75.9892093904
 11
85.568998987
 21
73.2298820092
  0
ARC
  5
274
100
AcDbEntity
  8
0
100
AcDbCircle
 62
7
  6
BYLAYER
 10
85.5725560476
 20
60.2940660968
 40
0.9951216792
100
AcDbArc
 50
270.0
 51
0.2048040944
  0
ARC
  5
275
100
AcDbEntity
  8
0
100
AcDbCircle
 62
7
  6
BYLAYER
 10
85.5725560476
 20
74.9940940685
 40
0.9951216792
100
AcDbArc
 50
359.7951959056
 51
90.0
  0
ARC
  5
276
100
AcDbEntity
  8
0
100
AcDbCircle
 62
7
  6
BYLAYER
 10
11.3636062861
 20
72.7877550759
 40
0.1025703102
100
AcDbArc
 50
89.7906375475
 51
177.7716119823
  0
ARC
  5
277
100
AcDbEntity
  8
0
100
AcDbCircle
 62
7
  6
BYLAYER
 10
11.3636062861
 20
62.5004050894
 40
0.1025703102
100
AcDbArc
 50
182.2283880177
 51
270.2093624525
  0
SPLINE
  5
278
100
AcDbEntity
  8
0
100
AcDbSpline
 62
7
  6
BYLAYER
 70
0
 71
3
 72
11
 73
7
 74
0
 42
0.0000001
 43
0.0000001
 44
0.0000000001
 40
0.0
 40
0.0
 40
0.0
 40
0.0
 40
0.249047688
 40
0.4985365606
 40
0.7487968618
 40
1.0
 40
1.0
 40
1.0
 40
1.0
 10
60.3676713694
 20
61.6415800827
 30
0.0
 10
60.3676713694
 20
61.1903132566
 30
0.0
 10
60.3282789337
 20
60.2865036154
 30
0.0
 10
60.1547918216
 20
58.9394287281
 30
0.0
 10
59.8791201676
 20
57.605800843
 30
0.0
 10
59.6372956795
 20
56.7292990222
 30
0.0
 10
59.504532717
 20
56.2939187948
 30
0.0
  0
SPLINE
  5
279
100
AcDbEntity
  8
0
100
AcDbSpline
 62
7
  6
BYLAYER
 70
0
 71
3
 72
11
 73
7
 74
0
 42
0.0000001
 43
0.0000001
 44
0.0000000001
 40
0.0
 40
0.0
 40
0.0
 40
0.0
 40
0.2511976629
 40
0.5014566469
 40
0.750949112
 40
1.0
 40
1.0
 40
1.0
 40
1.0
 10
59.504532717
 20
78.9942413705
 30
0.0
 10
59.6372927768
 20
78.5588706619
 30
0.0
 10
59.8790362297
 20
77.6823615666
 30
0.0
 10
60.1548493499
 20
76.348769223
 30
0.0
 10
60.3282616944
 20
75.0016717299
 30
0.0
 10
60.3676713694
 20
74.0978526769
 30
0.0
 10
60.3676713694
 20
73.6465800827
 30
0.0
  0
SPLINE
  5
27A
100
AcDbEntity
  8
0
100
AcDbSpline
 62
7
  6
BYLAYER
 70
0
 71
3
 72
11
 73
7
 74
0
 42
0.0000001
 43
0.0000001
 44
0.0000000001
 40
0.0
 40
0.0
 40
0.0
 40
0.0
 40
0.249047688
 40
0.4985365606
 40
0.7487968618
 40
1.0
 40
1.0
 40
1.0
 40
1.0
 10
57.3676713694
 20
73.6465800827
 30
0.0
 10
57.3676713694
 20
74.0978469087
 30
0.0
 10
57.4070638052
 20
75.0016565499
 30
0.0
 10
57.5805509173
 20
76.3487314372
 30
0.0
 10
57.8562225713
 20
77.6823593223
 30
0.0
 10
58.0980470594
 20
78.5588611431
 30
0.0
 10
58.2308100219
 20
78.9942413705
 30
0.0
  0
SPLINE
  5
27B
100
AcDbEntity
  8
0
100
AcDbSpline
 62
7
  6
BYLAYER
 70
0
 71
3
 72
11
 73
7
 74
0
 42
0.0000001
 43
0.0000001
 44
0.0000000001
 40
0.0
 40
0.0
 40
0.0
 40
0.0
 40
0.2511976629
 40
0.5014566469
 40
0.750949112
 40
1.0
 40
1.0
 40
1.0
 40
1.0
 10
58.2308100219
 20
56.2939187948
 30
0.0
 10
58.098049962
 20
56.7292895034
 30
0.0
 10
57.8563065092
 20
57.6057985987
 30
0.0
 10
57.580493389
 20
58.9393909423
 30
0.0
 10
57.4070810444
 20
60.2864884354
 30
0.0
 10
57.3676713694
 20
61.1903074884
 30
0.0
 10
57.3676713694
 20
61.6415800827
 30
0.0
  0
SPLINE
  5
27C
100
AcDbEntity
  8
0
100
AcDbSpline
 62
7
  6
BYLAYER
 70
0
 71
3
 72
11
 73
7
 74
0
 42
0.0000001
 43
0.0000001
 44
0.0000000001
 40
0.0
 40
0.0
 40
0.0
 40
0.0
 40
0.2511976629
 40
0.5014566469
 40
0.750949112
 40
1.0
 40
1.0
 40
1.0
 40
1.0
 10
59.504532717
 20
66.9892413705
 30
0.0
 10
59.6372927768
 20
66.5538706619
 30
0.0
 10
59.8790362297
 20
65.6773615666
 30
0.0
 10
60.1548493499
 20
64.343769223
 30
0.0
 10
60.3282616944
 20
62.9966717299
 30
0.0
 10
60.3676713694
 20
62.0928526769
 30
0.0
 10
60.3676713694
 20
61.6415800827
 30
0.0
  0
SPLINE
  5
27D
100
AcDbEntity
  8
0
100
AcDbSpline
 62
7
  6
BYLAYER
 70
0
 71
3
 72
11
 73
7
 74
0
 42
0.0000001
 43
0.0000001
 44
0.0000000001
 40
0.0
 40
0.0
 40
0.0
 40
0.0
 40
0.249047688
 40
0.4985365606
 40
0.7487968618
 40
1.0
 40
1.0
 40
1.0
 40
1.0
 10
60.3676713694
 20
73.6465800827
 30
0.0
 10
60.3676713694
 20
73.1953132566
 30
0.0
 10
60.3282789337
 20
72.2915036154
 30
0.0
 10
60.1547918216
 20
70.9444287281
 30
0.0
 10
59.8791201676
 20
69.610800843
 30
0.0
 10
59.6372956795
 20
68.7342990222
 30
0.0
 10
59.504532717
 20
68.2989187948
 30
0.0
  0
SPLINE
  5
27E
100
AcDbEntity
  8
0
100
AcDbSpline
 62
7
  6
BYLAYER
 70
0
 71
3
 72
11
 73
7
 74
0
 42
0.0000001
 43
0.0000001
 44
0.0000000001
 40
0.0
 40
0.0
 40
0.0
 40
0.0
 40
0.249047688
 40
0.4985365606
 40
0.7487968618
 40
1.0
 40
1.0
 40
1.0
 40
1.0
 10
57.3676713694
 20
61.6415800827
 30
0.0
 10
57.3676713694
 20
62.0928469087
 30
0.0
 10
57.4070638052
 20
62.9966565499
 30
0.0
 10
57.5805509173
 20
64.3437314372
 30
0.0
 10
57.8562225713
 20
65.6773593223
 30
0.0
 10
58.0980470594
 20
66.5538611431
 30
0.0
 10
58.2308100219
 20
66.9892413705
 30
0.0
  0
SPLINE
  5
27F
100
AcDbEntity
  8
0
100
AcDbSpline
 62
7
  6
BYLAYER
 70
0
 71
3
 72
11
 73
7
 74
0
 42
0.0000001
 43
0.0000001
 44
0.0000000001
 40
0.0
 40
0.0
 40
0.0
 40
0.0
 40
0.2511976629
 40
0.5014566469
 40
0.750949112
 40
1.0
 40
1.0
 40
1.0
 40
1.0
 10
58.2308100219
 20
68.2989187948
 30
0.0
 10
58.098049962
 20
68.7342895034
 30
0.0
 10
57.8563065092
 20
69.6107985987
 30
0.0
 10
57.580493389
 20
70.9443909423
 30
0.0
 10
57.4070810444
 20
72.2914884354
 30
0.0
 10
57.3676713694
 20
73.1953074884
 30
0.0
 10
57.3676713694
 20
73.6465800827
 30
0.0
  0
SPLINE
  5
280
100
AcDbEntity
  8
0
100
AcDbSpline
 62
7
  6
BYLAYER
 70
0
 71
3
 72
11
 73
7
 74
0
 42
0.0000001
 43
0.0000001
 44
0.0000000001
 40
0.0
 40
0.0
 40
0.0
 40
0.0
 40
0.249047688
 40
0.4985365606
 40
0.7487968618
 40
1.0
 40
1.0
 40
1.0
 40
1.0
 10
47.3676713694
 20
73.6465800827
 30
0.0
 10
47.3676713694
 20
74.0978469087
 30
0.0
 10
47.4070638052
 20
75.0016565499
 30
0.0
 10
47.5805509173
 20
76.3487314372
 30
0.0
 10
47.8562225713
 20
77.6823593223
 30
0.0
 10
48.0980470594
 20
78.5588611431
 30
0.0
 10
48.2308100219
 20
78.9942413705
 30
0.0
  0
SPLINE
  5
281
100
AcDbEntity
  8
0
100
AcDbSpline
 62
7
  6
BYLAYER
 70
0
 71
3
 72
11
 73
7
 74
0
 42
0.0000001
 43
0.0000001
 44
0.0000000001
 40
0.0
 40
0.0
 40
0.0
 40
0.0
 40
0.2511976629
 40
0.5014566469
 40
0.750949112
 40
1.0
 40
1.0
 40
1.0
 40
1.0
 10
48.2308100219
 20
56.2939187948
 30
0.0
 10
48.098049962
 20
56.7292895034
 30
0.0
 10
47.8563065092
 20
57.6057985987
 30
0.0
 10
47.580493389
 20
58.9393909423
 30
0.0
 10
47.4070810444
 20
60.2864884354
 30
0.0
 10
47.3676713694
 20
61.1903074884
 30
0.0
 10
47.3676713694
 20
61.6415800827
 30
0.0
  0
SPLINE
  5
282
100
AcDbEntity
  8
0
100
AcDbSpline
 62
7
  6
BYLAYER
 70
0
 71
3
 72
11
 73
7
 74
0
 42
0.0000001
 43
0.0000001
 44
0.0000000001
 40
0.0
 40
0.0
 40
0.0
 40
0.0
 40
0.249047688
 40
0.4985365606
 40
0.7487968618
 40
1.0
 40
1.0
 40
1.0
 40
1.0
 10
50.3676713694
 20
61.6415800827
 30
0.0
 10
50.3676713694
 20
61.1903132566
 30
0.0
 10
50.3282789337
 20
60.2865036154
 30
0.0
 10
50.1547918216
 20
58.9394287281
 30
0.0
 10
49.8791201676
 20
57.605800843
 30
0.0
 10
49.6372956795
 20
56.7292990222
 30
0.0
 10
49.504532717
 20
56.2939187948
 30
0.0
  0
SPLINE
  5
283
100
AcDbEntity
  8
0
100
AcDbSpline
 62
7
  6
BYLAYER
 70
0
 71
3
 72
11
 73
7
 74
0
 42
0.0000001
 43
0.0000001
 44
0.0000000001
 40
0.0
 40
0.0
 40
0.0
 40
0.0
 40
0.2511976629
 40
0.5014566469
 40
0.750949112
 40
1.0
 40
1.0
 40
1.0
 40
1.0
 10
49.504532717
 20
78.9942413705
 30
0.0
 10
49.6372927768
 20
78.5588706619
 30
0.0
 10
49.8790362297
 20
77.6823615666
 30
0.0
 10
50.1548493499
 20
76.348769223
 30
0.0
 10
50.3282616944
 20
75.0016717299
 30
0.0
 10
50.3676713694
 20
74.0978526769
 30
0.0
 10
50.3676713694
 20
73.6465800827
 30
0.0
  0
SPLINE
  5
284
100
AcDbEntity
  8
0
100
AcDbSpline
 62
7
  6
BYLAYER
 70
0
 71
3
 72
11
 73
7
 74
0
 42
0.0000001
 43
0.0000001
 44
0.0000000001
 40
0.0
 40
0.0
 40
0.0
 40
0.0
 40
0.2511976629
 40
0.5014566469
 40
0.750949112
 40
1.0
 40
1.0
 40
1.0
 40
1.0
 10
48.2308100219
 20
68.2989187948
 30
0.0
 10
48.098049962
 20
68.7342895034
 30
0.0
 10
47.8563065092
 20
69.6107985987
 30
0.0
 10
47.580493389
 20
70.9443909423
 30
0.0
 10
47.4070810444
 20
72.2914884354
 30
0.0
 10
47.3676713694
 20
73.1953074884
 30
0.0
 10
47.3676713694
 20
73.6465800827
 30
0.0
  0
SPLINE
  5
285
100
AcDbEntity
  8
0
100
AcDbSpline
 62
7
  6
BYLAYER
 70
0
 71
3
 72
11
 73
7
 74
0
 42
0.0000001
 43
0.0000001
 44
0.0000000001
 40
0.0
 40
0.0
 40
0.0
 40
0.0
 40
0.249047688
 40
0.4985365606
 40
0.7487968618
 40
1.0
 40
1.0
 40
1.0
 40
1.0
 10
47.3676713694
 20
61.6415800827
 30
0.0
 10
47.3676713694
 20
62.0928469087
 30
0.0
 10
47.4070638052
 20
62.9966565499
 30
0.0
 10
47.5805509173
 20
64.3437314372
 30
0.0
 10
47.8562225713
 20
65.6773593223
 30
0.0
 10
48.0980470594
 20
66.5538611431
 30
0.0
 10
48.2308100219
 20
66.9892413705
 30
0.0
  0
SPLINE
  5
286
100
AcDbEntity
  8
0
100
AcDbSpline
 62
7
  6
BYLAYER
 70
0
 71
3
 72
11
 73
7
 74
0
 42
0.0000001
 43
0.0000001
 44
0.0000000001
 40
0.0
 40
0.0
 40
0.0
 40
0.0
 40
0.249047688
 40
0.4985365606
 40
0.7487968618
 40
1.0
 40
1.0
 40
1.0
 40
1.0
 10
50.3676713694
 20
73.6465800827
 30
0.0
 10
50.3676713694
 20
73.1953132566
 30
0.0
 10
50.3282789337
 20
72.2915036154
 30
0.0
 10
50.1547918216
 20
70.9444287281
 30
0.0
 10
49.8791201676
 20
69.610800843
 30
0.0
 10
49.6372956795
 20
68.7342990222
 30
0.0
 10
49.504532717
 20
68.2989187948
 30
0.0
  0
SPLINE
  5
287
100
AcDbEntity
  8
0
100
AcDbSpline
 62
7
  6
BYLAYER
 70
0
 71
3
 72
11
 73
7
 74
0
 42
0.0000001
 43
0.0000001
 44
0.0000000001
 40
0.0
 40
0.0
 40
0.0
 40
0.0
 40
0.2511976629
 40
0.5014566469
 40
0.750949112
 40
1.0
 40
1.0
 40
1.0
 40
1.0
 10
49.504532717
 20
66.9892413705
 30
0.0
 10
49.6372927768
 20
66.5538706619
 30
0.0
 10
49.8790362297
 20
65.6773615666
 30
0.0
 10
50.1548493499
 20
64.343769223
 30
0.0
 10
50.3282616944
 20
62.9966717299
 30
0.0
 10
50.3676713694
 20
62.0928526769
 30
0.0
 10
50.3676713694
 20
61.6415800827
 30
0.0
  0
SPLINE
  5
288
100
AcDbEntity
  8
0
100
AcDbSpline
 62
7
  6
BYLAYER
 70
0
 71
3
 72
14
 73
10
 74
0
 42
0.0000001
 43
0.0000001
 44
0.0000000001
 40
0.0
 40
0.0
 40
0.0
 40
0.0
 40
0.2499259899
 40
0.375005727
 40
0.5000956096
 40
0.6251847439
 40
0.7502651492
 40
0.8752162992
 40
1.0
 40
1.0
 40
1.0
 40
1.0
 10
86.5676713694
 20
71.5849430203
 30
0.0
 10
86.5680092364
 20
71.7611463552
 30
0.0
 10
86.5485846634
 20
72.0267326215
 30
0.0
 10
86.4679698264
 20
72.3706631642
 30
0.0
 10
86.3747952743
 20
72.6192449169
 30
0.0
 10
86.2428232337
 20
72.8502239415
 30
0.0
 10
86.0648523346
 20
73.0492492169
 30
0.0
 10
85.8383107082
 20
73.1934380203
 30
0.0
 10
85.6605898675
 20
73.2298820092
 30
0.0
 10
85.5726144447
 20
73.2298820092
 30
0.0
  0
SPLINE
  5
289
100
AcDbEntity
  8
0
100
AcDbSpline
 62
7
  6
BYLAYER
 70
0
 71
3
 72
14
 73
10
 74
0
 42
0.0000001
 43
0.0000001
 44
0.0000000001
 40
0.0
 40
0.0
 40
0.0
 40
0.0
 40
0.1247817732
 40
0.249732336
 40
0.3748131704
 40
0.4999026922
 40
0.6249931585
 40
0.750073253
 40
1.0
 40
1.0
 40
1.0
 40
1.0
 10
85.5726145661
 20
62.0582781561
 30
0.0
 10
85.6605885954
 20
62.0582781561
 30
0.0
 10
85.8383068273
 20
62.0947237885
 30
0.0
 10
86.0648493515
 20
62.2389077074
 30
0.0
 10
86.2428200995
 20
62.4379336352
 30
0.0
 10
86.3747940189
 20
62.6689123957
 30
0.0
 10
86.4679696188
 20
62.9174947798
 30
0.0
 10
86.5485843217
 20
63.2614264301
 30
0.0
 10
86.5680092373
 20
63.5270133414
 30
0.0
 10
86.5676713694
 20
63.703217141
 30
0.0
  0
ENDSEC
  0
SECTION
  2
OBJECTS
  0
DICTIONARY
  5
C
100
AcDbDictionary
280
0
281
1
  3
ACAD_GROUP
350
D
  3
ACAD_MLINESTYLE
350
17
  3
ACAD_LAYOUT
350
1A
  3
ACAD_PLOTSETTINGS
350
19
  3
ACAD_PLOTSTYLENAME
350
E
  0
DICTIONARY
  5
D
102
{ACAD_REACTORS
330
C
102
}
100
AcDbDictionary
280
0
281
1
  0
ACDBDICTIONARYWDFLT
  5
E
102
{ACAD_REACTORS
330
C
102
}
100
AcDbDictionary
281
1
  3
Normal
350
F
100
AcDbDictionaryWithDefault
340
F
  0
DICTIONARY
  5
17
102
{ACAD_REACTORS
330
C
102
}
100
AcDbDictionary
280
0
281
1
  3
Standard
350
18
  0
DICTIONARY
  5
19
102
{ACAD_REACTORS
330
C
102
}
100
AcDbDictionary
281
1
  0
DICTIONARY
  5
1A
102
{ACAD_REACTORS
330
C
102
}
100
AcDbDictionary
281
1
  3
Model
350
28A
  3
Layout1
350
28B
  0
ACDBPLACEHOLDER
  5
F
102
{ACAD_REACTORS
330
E
102
}
  0
MLINESTYLE
  5
18
102
{ACAD_REACTORS
330
17
102
}
100
AcDbMlineStyle
  2
STANDARD
 70
0
  3

 62
256
 51
90.0
 52
90.0
 71
2
 49
0.5
 62
256
  6
BYLAYER
 49
-0.5
 62
256
  6
BYLAYER
  0
LAYOUT
  5
28A
102
{ACAD_REACTORS
330
1A
102
}
100
AcDbPlotSettings
  1

  2
none_device
  4

  6

 40
0.0
 41
0.0
 42
0.0
 43
0.0
 44
210.0
 45
297.0
 46
0.0
 47
0.0
 48
0.0
 49
0.0
140
0.0
141
0.0
142
1.0
143
1.0
 70
1024
 72
1
 73
0
 74
0
  7

 75
0
147
1.0
148
0.0
149
0.0
100
AcDbLayout
  1
Model
 70
0
 71
0
 10
0.0
 20
0.0
 11
210.0
 21
297.0
 12
0.0
 22
0.0
 32
0.0
 14
0.0
 24
0.0
 34
0.0
 15
0.0
 25
0.0
 35
0.0
146
0.0
 13
0.0
 23
0.0
 33
0.0
 16
1.0
 26
0.0
 36
0.0
 17
0.0
 27
1.0
 37
0.0
 76
0
330
210
345
0
346
0
  0
LAYOUT
  5
28B
102
{ACAD_REACTORS
330
1A
102
}
100
AcDbPlotSettings
  1

  2
none_device
  4

  6

 40
0.0
 41
0.0
 42
0.0
 43
0.0
 44
210.0
 45
297.0
 46
0.0
 47
0.0
 48
0.0
 49
0.0
140
0.0
141
0.0
142
1.0
143
1.0
 70
0
 72
1
 73
0
 74
0
  7

 75
0
147
1.0
148
0.0
149
0.0
100
AcDbLayout
  1
Layout1
 70
0
 71
1
 10
0.0
 20
0.0
 11
210.0
 21
297.0
 12
0.0
 22
0.0
 32
0.0
 14
0.0
 24
0.0
 34
0.0
 15
0.0
 25
0.0
 35
0.0
146
0.0
 13
0.0
 23
0.0
 33
0.0
 16
1.0
 26
0.0
 36
0.0
 17
0.0
 27
1.0
 37
0.0
 76
0
330
211
345
0
346
0
  0
ENDSEC
  0
EOF
