999
DXF file: C:\Users\sesa63760\Dev\_Creo\CAD\MCADID0003506_3D-CAD\drw0001_7.dxf
999
Pro/ENGINEER 2019471 by Parametric Technology Corporation
  0
SECTION
  2
HEADER
  9
$ACADVER
  1
AC1024
  9
$DWGCODEPAGE
  3
ANSI_1252
  9
$EXTMAX
 10
50.5625179586
 20
71.5098468271
 30
0.0
  9
$EXTMIN
 10
0.0
 20
0.0
 30
0.0
  9
$LIMMIN
 10
0.0
 20
0.0
  9
$LIMMAX
 10
50.5625179586
 20
71.5098468271
  9
$VIEWCTR
 10
25.2812589793
 20
35.7549234136
  9
$VIEWSIZE
 40
71.5098468271
  9
$CLAYER
  8
0
  9
$LTSCALE
 40
4.661382608
  9
$CELTYPE
  6
BYLAYER
  9
$DIMSCALE
 40
1.0
  9
$DIMASZ
 40
0.6019347376
  9
$DIMEXO
 40
1.0
  9
$DIMDLI
 40
3.2205916201
  9
$DIMEXE
 40
1.0
  9
$DIMCEN
 40
0.7627716995
  9
$DIMLFAC
 40
1.0
  9
$DIMBLK
  1
_FILLED
  9
$DIMALT
 70
0
  9
$DIMALTF
 40
0.0393700787
  9
$DIMTXT
 40
0.8427086326
  9
$DIMTOL
 70
1
  9
$DIMLIM
 70
0
  9
$DIMTFAC
 40
1.0
  9
$DIMTP
 40
0.01
  9
$DIMTM
 40
0.01
  9
$DIMGAP
 40
0.625
  9
$DIMDSEP
 70
46
  9
$AUNITS
 70
0
  9
$PDMODE
 70
3
  9
$PDSIZE
 40
0.3125
  9
$HANDSEED
  5
35B
  9
$TILEMODE
 70
1
  9
$MEASUREMENT
 70
1
  9
$INSUNITS
 70
4
  0
ENDSEC
  0
SECTION
  2
CLASSES
  0
CLASS
  1
ACDBDICTIONARYWDFLT
  2
AcDbDictionaryWithDefault
  3
AutoCAD 2000
 90
0
 91
1
280
0
281
0
  0
CLASS
  1
ACDBPLACEHOLDER
  2
AcDbPlaceHolder
  3
AutoCAD 2000
 90
0
 91
1
280
0
281
0
  0
CLASS
  1
LAYOUT
  2
AcDbLayout
  3
AutoCAD 2000
 90
0
 91
0
280
0
281
0
  0
ENDSEC
  0
SECTION
  2
TABLES
  0
TABLE
  2
VPORT
  5
8
100
AcDbSymbolTable
 70
2
  0
VPORT
  5
1F4
100
AcDbSymbolTableRecord
100
AcDbViewportTableRecord
  2
*ACTIVE
 70
0
 10
0.0
 20
0.0
 11
1.0
 21
1.0
 12
25.2812589793
 22
35.7549234136
 13
0.0
 23
0.0
 14
1.0
 24
1.0
 15
0.0
 25
0.0
 16
0.0
 26
0.0
 36
1.0
 17
0.0
 27
0.0
 37
0.0
 40
71.5098468271
 41
0.7070707071
 42
50.0
 43
0.0
 44
0.0
 50
0.0
 51
0.0
 71
0
 72
100
 73
1
 74
1
 75
0
 76
0
 77
0
 78
0
  0
ENDTAB
  0
TABLE
  2
LTYPE
  5
5
100
AcDbSymbolTable
 70
6
  0
LTYPE
  5
14
100
AcDbSymbolTableRecord
100
AcDbLinetypeTableRecord
  2
BYBLOCK
 70
0
  3

 72
65
 73
0
 40
0.0
  0
LTYPE
  5
15
100
AcDbSymbolTableRecord
100
AcDbLinetypeTableRecord
  2
BYLAYER
 70
0
  3

 72
65
 73
0
 40
0.0
  0
LTYPE
  5
16
100
AcDbSymbolTableRecord
100
AcDbLinetypeTableRecord
  2
CONTINUOUS
 70
64
  3
Solid line
 72
65
 73
0
 40
0.0
  0
LTYPE
  5
1F5
100
AcDbSymbolTableRecord
100
AcDbLinetypeTableRecord
  2
CENTER
 70
64
  3
____ _ ____ _ ____ _ ____ _ ____ _ ____ _ ____
 72
65
 73
4
 40
0.6
 49
0.375
 74
0
 49
-0.075
 74
0
 49
0.075
 74
0
 49
-0.075
 74
0
  0
LTYPE
  5
1F6
100
AcDbSymbolTableRecord
100
AcDbLinetypeTableRecord
  2
HIDDEN
 70
64
  3
- - - - - - - - - - - - - - - - - - - -
 72
65
 73
2
 40
0.2
 49
0.1
 74
0
 49
-0.1
 74
0
  0
LTYPE
  5
1F7
100
AcDbSymbolTableRecord
100
AcDbLinetypeTableRecord
  2
PHANTOM
 70
64
  3
_____ _ _ _____ _ _ _____ _ _ _____
 72
65
 73
6
 40
0.8
 49
0.45
 74
0
 49
-0.05
 74
0
 49
0.1
 74
0
 49
-0.05
 74
0
 49
0.1
 74
0
 49
-0.05
 74
0
  0
LTYPE
  5
1F8
100
AcDbSymbolTableRecord
100
AcDbLinetypeTableRecord
  2
DOT
 70
64
  3
. . . . . . . . . . . . . . . . . . . .
 72
65
 73
2
 40
0.2
 49
0.1
 74
0
 49
-0.1
 74
0
  0
LTYPE
  5
1F9
100
AcDbSymbolTableRecord
100
AcDbLinetypeTableRecord
  2
DASHED
 70
64
  3
- - - - - - - - - - - - - - - - - - - -
 72
65
 73
2
 40
0.2
 49
0.1
 74
0
 49
-0.1
 74
0
  0
ENDTAB
  0
TABLE
  2
LAYER
  5
2
100
AcDbSymbolTable
 70
36
  0
LAYER
  5
10
100
AcDbSymbolTableRecord
100
AcDbLayerTableRecord
  2
0
 70
0
 62
7
  6
CONTINUOUS
370
-3
390
F
  0
LAYER
  5
1FA
100
AcDbSymbolTableRecord
100
AcDbLayerTableRecord
  2
DEFAULT_1
 70
0
 62
7
  6
CENTER
370
-3
390
F
  0
LAYER
  5
1FB
100
AcDbSymbolTableRecord
100
AcDbLayerTableRecord
  2
DEFAULT_2
 70
0
 62
7
  6
HIDDEN
370
-3
390
F
  0
LAYER
  5
1FC
100
AcDbSymbolTableRecord
100
AcDbLayerTableRecord
  2
DEFAULT_3
 70
0
 62
7
  6
PHANTOM
370
-3
390
F
  0
LAYER
  5
1FD
100
AcDbSymbolTableRecord
100
AcDbLayerTableRecord
  2
00_COMPONENTS
 70
0
 62
7
  6
CONTINUOUS
370
-3
390
F
  0
LAYER
  5
1FE
100
AcDbSymbolTableRecord
100
AcDbLayerTableRecord
  2
01_1_DEFAULT_DATUMS
 70
0
 62
7
  6
CONTINUOUS
370
-3
390
F
  0
LAYER
  5
1FF
100
AcDbSymbolTableRecord
100
AcDbLayerTableRecord
  2
01_PLANES
 70
0
 62
7
  6
CONTINUOUS
370
-3
390
F
  0
LAYER
  5
200
100
AcDbSymbolTableRecord
100
AcDbLayerTableRecord
  2
02_COORD_SYS
 70
0
 62
7
  6
CONTINUOUS
370
-3
390
F
  0
LAYER
  5
201
100
AcDbSymbolTableRecord
100
AcDbLayerTableRecord
  2
03_AXES
 70
0
 62
7
  6
CONTINUOUS
370
-3
390
F
  0
LAYER
  5
202
100
AcDbSymbolTableRecord
100
AcDbLayerTableRecord
  2
04_POINTS
 70
0
 62
7
  6
CONTINUOUS
370
-3
390
F
  0
LAYER
  5
203
100
AcDbSymbolTableRecord
100
AcDbLayerTableRecord
  2
05_CURVES
 70
0
 62
7
  6
CONTINUOUS
370
-3
390
F
  0
LAYER
  5
204
100
AcDbSymbolTableRecord
100
AcDbLayerTableRecord
  2
06_SURFS
 70
0
 62
7
  6
CONTINUOUS
370
-3
390
F
  0
LAYER
  5
205
100
AcDbSymbolTableRecord
100
AcDbLayerTableRecord
  2
07_COSMETICS
 70
0
 62
7
  6
CONTINUOUS
370
-3
390
F
  0
LAYER
  5
206
100
AcDbSymbolTableRecord
100
AcDbLayerTableRecord
  2
10_NOTES
 70
0
 62
7
  6
CONTINUOUS
370
-3
390
F
  0
LAYER
  5
207
100
AcDbSymbolTableRecord
100
AcDbLayerTableRecord
  2
11_NOTES_PUB
 70
0
 62
7
  6
CONTINUOUS
370
-3
390
F
  0
LAYER
  5
208
100
AcDbSymbolTableRecord
100
AcDbLayerTableRecord
  2
13_REF_GTOL
 70
0
 62
7
  6
CONTINUOUS
370
-3
390
F
  0
LAYER
  5
209
100
AcDbSymbolTableRecord
100
AcDbLayerTableRecord
  2
16_MISC
 70
0
 62
7
  6
CONTINUOUS
370
-3
390
F
  0
LAYER
  5
20A
100
AcDbSymbolTableRecord
100
AcDbLayerTableRecord
  2
17_NO_PRINT
 70
0
 62
7
  6
CONTINUOUS
370
-3
390
F
  0
LAYER
  5
20B
100
AcDbSymbolTableRecord
100
AcDbLayerTableRecord
  2
18_DATUM_CAMS_JOINTS
 70
0
 62
7
  6
CONTINUOUS
370
-3
390
F
  0
LAYER
  5
20C
100
AcDbSymbolTableRecord
100
AcDbLayerTableRecord
  2
19_DATUM_FUNCTIONAL
 70
0
 62
7
  6
CONTINUOUS
370
-3
390
F
  0
LAYER
  5
20D
100
AcDbSymbolTableRecord
100
AcDbLayerTableRecord
  2
20_DATUM_KINEMATIC_SCHEME
 70
0
 62
7
  6
CONTINUOUS
370
-3
390
F
  0
ENDTAB
  0
TABLE
  2
STYLE
  5
3
100
AcDbSymbolTable
 70
1
  0
STYLE
  5
11
100
AcDbSymbolTableRecord
100
AcDbTextStyleTableRecord
  2
STANDARD
 70
0
 40
0.0
 41
1.0
 50
0.0
 71
0
 42
0.2
  3
ARIAL.TTF
  4

  0
STYLE
  5
20E
100
AcDbSymbolTableRecord
100
AcDbTextStyleTableRecord
  2
TEXTSTYLE_1
 70
0
 40
0.0
 41
0.8
 50
0.0
 71
0
 42
0.2
  3
gdt
  4

  0
ENDTAB
  0
TABLE
  2
VIEW
  5
6
100
AcDbSymbolTable
 70
0
  0
ENDTAB
  0
TABLE
  2
UCS
  5
7
100
AcDbSymbolTable
 70
0
  0
ENDTAB
  0
TABLE
  2
APPID
  5
9
100
AcDbSymbolTable
 70
1
  0
APPID
  5
20F
100
AcDbSymbolTableRecord
100
AcDbRegAppTableRecord
  2
ACAD
 70
0
  0
ENDTAB
  0
TABLE
  2
BLOCK_RECORD
  5
1
100
AcDbSymbolTable
 70
0
  0
BLOCK_RECORD
  5
210
100
AcDbSymbolTableRecord
100
AcDbBlockTableRecord
  2
*Model_Space
  0
BLOCK_RECORD
  5
211
100
AcDbSymbolTableRecord
100
AcDbBlockTableRecord
  2
*Paper_Space
  0
BLOCK_RECORD
  5
212
100
AcDbSymbolTableRecord
100
AcDbBlockTableRecord
  2
_FILLED
  0
ENDTAB
  0
TABLE
  2
DIMSTYLE
  5
A
100
AcDbSymbolTable
 70
1
100
AcDbDimStyleTable
 71
0
  0
DIMSTYLE
105
213
100
AcDbSymbolTableRecord
100
AcDbDimStyleTableRecord
  2
STANDARD
 70
0
  3

  4

 40
1.0
 41
0.6019347376
 42
1.0
 43
0.38
 44
1.0
 45
0.0
 46
0.0
 47
0.01
 48
0.01
140
0.8427086326
141
0.09
142
0.0
143
25.4
144
1.0
145
0.0
146
1.0
147
0.625
 71
1
 72
0
 73
0
 74
0
 75
0
 76
0
 77
1
 78
8
 79
2
170
0
171
1
172
0
173
0
174
0
175
0
176
0
177
0
178
0
270
2
179
2
271
2
272
2
273
2
274
2
275
0
280
0
281
0
282
0
283
1
284
8
285
0
286
0
287
3
288
0
340
11
278
46
341
212
342
212
343
212
344
212
  0
ENDTAB
  0
ENDSEC
  0
SECTION
  2
BLOCKS
  0
BLOCK
  5
20
100
AcDbEntity
  8
0
100
AcDbBlockBegin
  2
*Model_Space
 70
0
 10
0.0
 20
0.0
 30
0.0
  3
*Model_Space
  1

  0
ENDBLK
  5
21
100
AcDbEntity
  8
0
100
AcDbBlockEnd
  0
BLOCK
  5
1C
100
AcDbEntity
  8
0
100
AcDbBlockBegin
  2
*Paper_Space
 70
0
 10
0.0
 20
0.0
 30
0.0
  3
*Paper_Space
  1

  0
ENDBLK
  5
1D
100
AcDbEntity
  8
0
100
AcDbBlockEnd
  0
BLOCK
  5
214
100
AcDbEntity
  8
0
100
AcDbBlockBegin
  2
_FILLED
 70
64
 10
0.0
 20
0.0
  3
_FILLED
  1

  0
SOLID
  5
215
100
AcDbEntity
  8
0
  6
BYBLOCK
 62
0
100
AcDbTrace
 10
0.0
 20
0.0
 11
-1.0
 21
0.25
 12
-1.0
 22
-0.25
 13
-1.0
 23
-0.25
  0
ENDBLK
  5
216
100
AcDbEntity
  8
0
  6
BYBLOCK
 62
0
100
AcDbBlockEnd
  0
ENDSEC
  0
SECTION
  2
ENTITIES
  0
LINE
  5
217
100
AcDbEntity
  8
0
100
AcDbLine
 62
7
  6
BYLAYER
 10
45.3687863316
 20
6.8799841719
 11
5.3687863316
 21
6.8799841719
  0
LINE
  5
218
100
AcDbEntity
  8
0
100
AcDbLine
 62
7
  6
BYLAYER
 10
21.3687863316
 20
64.1799841719
 11
21.8687863316
 21
64.6799841719
  0
LINE
  5
219
100
AcDbEntity
  8
0
100
AcDbLine
 62
7
  6
BYLAYER
 10
19.3687863316
 20
59.4799841719
 11
18.3687863316
 21
58.4799841719
  0
LINE
  5
21A
100
AcDbEntity
  8
0
100
AcDbLine
 62
7
  6
BYLAYER
 10
5.3687863316
 20
43.3799841719
 11
5.3687863316
 21
6.8799841719
  0
LINE
  5
21B
100
AcDbEntity
  8
0
100
AcDbLine
 62
7
  6
BYLAYER
 10
5.3687863316
 20
43.3799841719
 11
5.8687863316
 21
43.8799841719
  0
LINE
  5
21C
100
AcDbEntity
  8
0
100
AcDbLine
 62
7
  6
BYLAYER
 10
10.1687863316
 20
38.8799841719
 11
10.1687862793
 21
43.8799841709
  0
LINE
  5
21D
100
AcDbEntity
  8
0
100
AcDbLine
 62
7
  6
BYLAYER
 10
10.3687863316
 20
6.8799841719
 11
10.3687863316
 21
38.8799841719
  0
LINE
  5
21E
100
AcDbEntity
  8
0
100
AcDbLine
 62
7
  6
BYLAYER
 10
16.3687863316
 20
49.1799841719
 11
16.8687863316
 21
49.6799841719
  0
LINE
  5
21F
100
AcDbEntity
  8
0
100
AcDbLine
 62
7
  6
BYLAYER
 10
15.1687863316
 20
43.3799841719
 11
15.6687863316
 21
43.8799841719
  0
LINE
  5
220
100
AcDbEntity
  8
0
100
AcDbLine
 62
7
  6
BYLAYER
 10
15.1687863316
 20
38.8799841719
 11
15.1687863316
 21
43.3799841719
  0
LINE
  5
221
100
AcDbEntity
  8
0
100
AcDbLine
 62
7
  6
BYLAYER
 10
15.6687863316
 20
38.8799841719
 11
15.6687863316
 21
43.3799841719
  0
LINE
  5
222
100
AcDbEntity
  8
0
100
AcDbLine
 62
7
  6
BYLAYER
 10
15.8687863316
 20
62.8299841719
 11
15.8687863316
 21
57.3299841719
  0
LINE
  5
223
100
AcDbEntity
  8
0
100
AcDbLine
 62
7
  6
BYLAYER
 10
16.3687863316
 20
49.1799841719
 11
16.3687863316
 21
43.8799841719
  0
LINE
  5
224
100
AcDbEntity
  8
0
100
AcDbLine
 62
7
  6
BYLAYER
 10
16.3687863316
 20
54.9799841719
 11
16.3687863316
 21
56.9799841719
  0
LINE
  5
225
100
AcDbEntity
  8
0
100
AcDbLine
 62
7
  6
BYLAYER
 10
16.8687863316
 20
54.9799841719
 11
16.8687863316
 21
56.9799841719
  0
LINE
  5
226
100
AcDbEntity
  8
0
100
AcDbLine
 62
7
  6
BYLAYER
 10
17.4447721973
 20
54.9799841719
 11
17.4447721973
 21
52.9799841719
  0
LINE
  5
227
100
AcDbEntity
  8
0
100
AcDbLine
 62
7
  6
BYLAYER
 10
17.6687863316
 20
33.7040314741
 11
17.6687863316
 21
37.7799841719
  0
LINE
  5
228
100
AcDbEntity
  8
0
100
AcDbLine
 62
7
  6
BYLAYER
 10
17.6687863316
 20
40.2799841719
 11
17.6687863316
 21
41.2799841719
  0
LINE
  5
229
100
AcDbEntity
  8
0
100
AcDbLine
 62
7
  6
BYLAYER
 10
17.8687863316
 20
40.5799841719
 11
17.8687863316
 21
41.0799841719
  0
LINE
  5
22A
100
AcDbEntity
  8
0
100
AcDbLine
 62
7
  6
BYLAYER
 10
18.1687863316
 20
33.7040314741
 11
18.1687863316
 21
38.2799841719
  0
LINE
  5
22B
100
AcDbEntity
  8
0
100
AcDbLine
 62
7
  6
BYLAYER
 10
18.3687863316
 20
52.9799841719
 11
18.3687863316
 21
51.0549841719
  0
LINE
  5
22C
100
AcDbEntity
  8
0
100
AcDbLine
 62
7
  6
BYLAYER
 10
18.3687863316
 20
56.9799841719
 11
18.3687863316
 21
58.4799841719
  0
LINE
  5
22D
100
AcDbEntity
  8
0
100
AcDbLine
 62
7
  6
BYLAYER
 10
20.5437636586
 20
63.0799841719
 11
20.5218914928
 21
62.8299841719
  0
LINE
  5
22E
100
AcDbEntity
  8
0
100
AcDbLine
 62
7
  6
BYLAYER
 10
18.4457094085
 20
33.2877219624
 11
18.1687863316
 21
33.7040314741
  0
LINE
  5
22F
100
AcDbEntity
  8
0
100
AcDbLine
 62
7
  6
BYLAYER
 10
19.066370172
 20
56.9799841719
 11
19.066370172
 21
54.9799841719
  0
LINE
  5
230
100
AcDbEntity
  8
0
100
AcDbLine
 62
7
  6
BYLAYER
 10
20.3687863316
 20
50.7318918845
 11
20.3687863316
 21
49.6799841719
  0
LINE
  5
231
100
AcDbEntity
  8
0
100
AcDbLine
 62
7
  6
BYLAYER
 10
20.3687863316
 20
59.4799841719
 11
20.3687863316
 21
59.9799841719
  0
LINE
  5
232
100
AcDbEntity
  8
0
100
AcDbLine
 62
7
  6
BYLAYER
 10
20.618843334
 20
54.9799841719
 11
20.618843334
 21
56.9799841719
  0
LINE
  5
233
100
AcDbEntity
  8
0
100
AcDbLine
 62
7
  6
BYLAYER
 10
20.6359225051
 20
56.9799841719
 11
20.6359225051
 21
54.9799841719
  0
LINE
  5
234
100
AcDbEntity
  8
0
100
AcDbLine
 62
7
  6
BYLAYER
 10
21.3687863316
 20
64.1799841719
 11
21.3687863316
 21
63.1799841719
  0
LINE
  5
235
100
AcDbEntity
  8
0
100
AcDbLine
 62
7
  6
BYLAYER
 10
21.3687863316
 20
61.2034595549
 11
21.3687863316
 21
59.4799841719
  0
LINE
  5
236
100
AcDbEntity
  8
0
100
AcDbLine
 62
7
  6
BYLAYER
 10
21.4386816062
 20
52.9799841719
 11
21.4386816062
 21
50.9799841719
  0
LINE
  5
237
100
AcDbEntity
  8
0
100
AcDbLine
 62
7
  6
BYLAYER
 10
21.7832834327
 20
56.9799841719
 11
21.7832834327
 21
54.9799841719
  0
LINE
  5
238
100
AcDbEntity
  8
0
100
AcDbLine
 62
7
  6
BYLAYER
 10
33.0687863316
 20
33.7040314741
 11
32.5687863316
 21
33.7040314741
  0
LINE
  5
239
100
AcDbEntity
  8
0
100
AcDbLine
 62
7
  6
BYLAYER
 10
18.1687863316
 20
33.7040314741
 11
17.6687863316
 21
33.7040314741
  0
LINE
  5
23A
100
AcDbEntity
  8
0
100
AcDbLine
 62
7
  6
BYLAYER
 10
24.7687863316
 20
61.3799841719
 11
24.739459261
 21
62.4999398136
  0
LINE
  5
23B
100
AcDbEntity
  8
0
100
AcDbLine
 62
7
  6
BYLAYER
 10
23.8687863316
 20
38.2799841719
 11
23.8687863316
 21
35.793155742
  0
LINE
  5
23C
100
AcDbEntity
  8
0
100
AcDbLine
 62
7
  6
BYLAYER
 10
24.2687863316
 20
41.0799841719
 11
24.2687863316
 21
40.5799841719
  0
LINE
  5
23D
100
AcDbEntity
  8
0
100
AcDbLine
 62
7
  6
BYLAYER
 10
24.2687863316
 20
52.9799841719
 11
24.2687863316
 21
54.9799841719
  0
LINE
  5
23E
100
AcDbEntity
  8
0
100
AcDbLine
 62
7
  6
BYLAYER
 10
24.3687863316
 20
53.7799841719
 11
24.3687863316
 21
52.9799841719
  0
LINE
  5
23F
100
AcDbEntity
  8
0
100
AcDbLine
 62
7
  6
BYLAYER
 10
24.3687863316
 20
41.2799841719
 11
24.3687863316
 21
40.2799841719
  0
LINE
  5
240
100
AcDbEntity
  8
0
100
AcDbLine
 62
7
  6
BYLAYER
 10
24.3687863316
 20
37.7799841719
 11
24.3687863316
 21
35.793155742
  0
LINE
  5
241
100
AcDbEntity
  8
0
100
AcDbLine
 62
7
  6
BYLAYER
 10
25.3687863316
 20
50.9531984576
 11
25.3687863316
 21
50.9799841719
  0
LINE
  5
242
100
AcDbEntity
  8
0
100
AcDbLine
 62
7
  6
BYLAYER
 10
25.9981134046
 20
62.4999399074
 11
25.9687863316
 21
61.3799841719
  0
LINE
  5
243
100
AcDbEntity
  8
0
100
AcDbLine
 62
7
  6
BYLAYER
 10
26.8687863316
 20
35.793155742
 11
26.3687863316
 21
35.793155742
  0
LINE
  5
244
100
AcDbEntity
  8
0
100
AcDbLine
 62
7
  6
BYLAYER
 10
24.3687863316
 20
35.793155742
 11
23.8687863316
 21
35.793155742
  0
LINE
  5
245
100
AcDbEntity
  8
0
100
AcDbLine
 62
7
  6
BYLAYER
 10
15.6687863316
 20
43.3799841719
 11
15.4187863316
 21
43.6299841719
  0
LINE
  5
246
100
AcDbEntity
  8
0
100
AcDbLine
 62
7
  6
BYLAYER
 10
23.8687863316
 20
35.793155742
 11
23.9264786393
 21
35.296495297
  0
LINE
  5
247
100
AcDbEntity
  8
0
100
AcDbLine
 62
7
  6
BYLAYER
 10
26.3687863316
 20
35.793155742
 11
26.3687863316
 21
37.7799841719
  0
LINE
  5
248
100
AcDbEntity
  8
0
100
AcDbLine
 62
7
  6
BYLAYER
 10
26.3687863316
 20
40.2799841719
 11
26.3687863316
 21
41.2799841719
  0
LINE
  5
249
100
AcDbEntity
  8
0
100
AcDbLine
 62
7
  6
BYLAYER
 10
26.3687863316
 20
52.9799841719
 11
26.3687863316
 21
53.7799841719
  0
LINE
  5
24A
100
AcDbEntity
  8
0
100
AcDbLine
 62
7
  6
BYLAYER
 10
26.4687863316
 20
54.9799841719
 11
26.4687863316
 21
52.9799841719
  0
LINE
  5
24B
100
AcDbEntity
  8
0
100
AcDbLine
 62
7
  6
BYLAYER
 10
26.4687863316
 20
40.5799841719
 11
26.4687863316
 21
41.0799841719
  0
LINE
  5
24C
100
AcDbEntity
  8
0
100
AcDbLine
 62
7
  6
BYLAYER
 10
26.8687863316
 20
35.793155742
 11
26.8687863316
 21
38.2799841719
  0
LINE
  5
24D
100
AcDbEntity
  8
0
100
AcDbLine
 62
7
  6
BYLAYER
 10
26.8110940239
 20
35.296495297
 11
26.8687863316
 21
35.793155742
  0
LINE
  5
24E
100
AcDbEntity
  8
0
100
AcDbLine
 62
7
  6
BYLAYER
 10
35.3187863316
 20
43.6299841719
 11
35.0687863316
 21
43.3799841719
  0
LINE
  5
24F
100
AcDbEntity
  8
0
100
AcDbLine
 62
7
  6
BYLAYER
 10
17.6687863316
 20
37.7799841719
 11
24.3687863316
 21
37.7799841719
  0
LINE
  5
250
100
AcDbEntity
  8
0
100
AcDbLine
 62
7
  6
BYLAYER
 10
26.3687863316
 20
37.7799841719
 11
33.0687863316
 21
37.7799841719
  0
LINE
  5
251
100
AcDbEntity
  8
0
100
AcDbLine
 62
7
  6
BYLAYER
 10
18.1687863316
 20
38.2799841719
 11
23.8687863316
 21
38.2799841719
  0
LINE
  5
252
100
AcDbEntity
  8
0
100
AcDbLine
 62
7
  6
BYLAYER
 10
26.8687863316
 20
38.2799841719
 11
32.5687863316
 21
38.2799841719
  0
LINE
  5
253
100
AcDbEntity
  8
0
100
AcDbLine
 62
7
  6
BYLAYER
 10
28.9542892304
 20
56.9799841719
 11
28.9542892304
 21
54.9799841719
  0
LINE
  5
254
100
AcDbEntity
  8
0
100
AcDbLine
 62
7
  6
BYLAYER
 10
29.298891057
 20
50.9799841719
 11
29.298891057
 21
52.9799841719
  0
LINE
  5
255
100
AcDbEntity
  8
0
100
AcDbLine
 62
7
  6
BYLAYER
 10
29.3687863316
 20
64.1799841719
 11
29.3687863316
 21
63.1799841719
  0
LINE
  5
256
100
AcDbEntity
  8
0
100
AcDbLine
 62
7
  6
BYLAYER
 10
29.3687863316
 20
61.2034595549
 11
29.3687863316
 21
59.4799841719
  0
LINE
  5
257
100
AcDbEntity
  8
0
100
AcDbLine
 62
7
  6
BYLAYER
 10
30.1016501581
 20
54.9799841719
 11
30.1016501581
 21
56.9799841719
  0
LINE
  5
258
100
AcDbEntity
  8
0
100
AcDbLine
 62
7
  6
BYLAYER
 10
30.1187293292
 20
56.9799841719
 11
30.1187293292
 21
54.9799841719
  0
LINE
  5
259
100
AcDbEntity
  8
0
100
AcDbLine
 62
7
  6
BYLAYER
 10
30.3687863316
 20
59.9799841719
 11
30.3687863316
 21
59.4799841719
  0
LINE
  5
25A
100
AcDbEntity
  8
0
100
AcDbLine
 62
7
  6
BYLAYER
 10
30.3687863316
 20
50.7304795426
 11
30.3687863316
 21
49.6799841719
  0
LINE
  5
25B
100
AcDbEntity
  8
0
100
AcDbLine
 62
7
  6
BYLAYER
 10
5.3687863316
 20
38.8799841719
 11
15.6687863316
 21
38.8799841719
  0
LINE
  5
25C
100
AcDbEntity
  8
0
100
AcDbLine
 62
7
  6
BYLAYER
 10
35.0687863316
 20
38.8799841719
 11
45.3687863316
 21
38.8799841719
  0
LINE
  5
25D
100
AcDbEntity
  8
0
100
AcDbLine
 62
7
  6
BYLAYER
 10
32.5687863316
 20
39.7799841719
 11
26.8687863316
 21
39.7799841719
  0
LINE
  5
25E
100
AcDbEntity
  8
0
100
AcDbLine
 62
7
  6
BYLAYER
 10
23.8687863316
 20
39.7799841719
 11
18.1687863316
 21
39.7799841719
  0
LINE
  5
25F
100
AcDbEntity
  8
0
100
AcDbLine
 62
7
  6
BYLAYER
 10
32.3687863316
 20
40.0799841719
 11
26.9687863316
 21
40.0799841719
  0
LINE
  5
260
100
AcDbEntity
  8
0
100
AcDbLine
 62
7
  6
BYLAYER
 10
23.7687863316
 20
40.0799841719
 11
18.3687863316
 21
40.0799841719
  0
LINE
  5
261
100
AcDbEntity
  8
0
100
AcDbLine
 62
7
  6
BYLAYER
 10
32.8687863316
 20
40.8799841719
 11
26.4687863316
 21
40.8799841719
  0
LINE
  5
262
100
AcDbEntity
  8
0
100
AcDbLine
 62
7
  6
BYLAYER
 10
24.2687863316
 20
40.8799841719
 11
17.8687863316
 21
40.8799841719
  0
LINE
  5
263
100
AcDbEntity
  8
0
100
AcDbLine
 62
7
  6
BYLAYER
 10
30.1938090045
 20
63.0799841719
 11
30.2156811704
 21
62.8299841719
  0
LINE
  5
264
100
AcDbEntity
  8
0
100
AcDbLine
 62
7
  6
BYLAYER
 10
31.6712024912
 20
54.9799841719
 11
31.6712024912
 21
56.9799841719
  0
LINE
  5
265
100
AcDbEntity
  8
0
100
AcDbLine
 62
7
  6
BYLAYER
 10
32.3687863316
 20
52.9799841719
 11
32.3687863316
 21
50.9799841719
  0
LINE
  5
266
100
AcDbEntity
  8
0
100
AcDbLine
 62
7
  6
BYLAYER
 10
32.3687863316
 20
56.9799841719
 11
32.3687863316
 21
58.4799841719
  0
LINE
  5
267
100
AcDbEntity
  8
0
100
AcDbLine
 62
7
  6
BYLAYER
 10
32.5687863316
 20
38.2799841719
 11
32.5687863316
 21
33.7040314741
  0
LINE
  5
268
100
AcDbEntity
  8
0
100
AcDbLine
 62
7
  6
BYLAYER
 10
32.5687863316
 20
33.7040314741
 11
32.2918632547
 21
33.2877219624
  0
LINE
  5
269
100
AcDbEntity
  8
0
100
AcDbLine
 62
7
  6
BYLAYER
 10
18.3687863316
 20
41.5799841719
 11
23.7687863316
 21
41.5799841719
  0
LINE
  5
26A
100
AcDbEntity
  8
0
100
AcDbLine
 62
7
  6
BYLAYER
 10
26.9687863316
 20
41.5799841719
 11
32.3687863316
 21
41.5799841719
  0
LINE
  5
26B
100
AcDbEntity
  8
0
100
AcDbLine
 62
7
  6
BYLAYER
 10
18.1687863316
 20
41.7799841719
 11
23.8687863316
 21
41.7799841719
  0
LINE
  5
26C
100
AcDbEntity
  8
0
100
AcDbLine
 62
7
  6
BYLAYER
 10
26.8687863316
 20
41.7799841719
 11
32.5687863316
 21
41.7799841719
  0
LINE
  5
26D
100
AcDbEntity
  8
0
100
AcDbLine
 62
7
  6
BYLAYER
 10
32.8687863316
 20
41.0799841719
 11
32.8687863316
 21
40.5799841719
  0
LINE
  5
26E
100
AcDbEntity
  8
0
100
AcDbLine
 62
7
  6
BYLAYER
 10
33.0687863316
 20
41.2799841719
 11
33.0687863316
 21
40.2799841719
  0
LINE
  5
26F
100
AcDbEntity
  8
0
100
AcDbLine
 62
7
  6
BYLAYER
 10
33.0687863316
 20
37.7799841719
 11
33.0687863316
 21
33.7040314741
  0
LINE
  5
270
100
AcDbEntity
  8
0
100
AcDbLine
 62
7
  6
BYLAYER
 10
33.2928004659
 20
52.9799841719
 11
33.2928004659
 21
54.9799841719
  0
LINE
  5
271
100
AcDbEntity
  8
0
100
AcDbLine
 62
7
  6
BYLAYER
 10
33.8687863316
 20
54.9799841719
 11
33.8687863316
 21
56.9799841719
  0
LINE
  5
272
100
AcDbEntity
  8
0
100
AcDbLine
 62
7
  6
BYLAYER
 10
34.3687863316
 20
49.1799841719
 11
34.3687863316
 21
43.8799841719
  0
LINE
  5
273
100
AcDbEntity
  8
0
100
AcDbLine
 62
7
  6
BYLAYER
 10
34.3687863316
 20
54.9799841719
 11
34.3687863316
 21
56.9799841719
  0
LINE
  5
274
100
AcDbEntity
  8
0
100
AcDbLine
 62
7
  6
BYLAYER
 10
34.8687863316
 20
62.8299841719
 11
34.8687863316
 21
57.3299841719
  0
LINE
  5
275
100
AcDbEntity
  8
0
100
AcDbLine
 62
7
  6
BYLAYER
 10
35.0687863316
 20
43.3799841719
 11
35.0687863316
 21
38.8799841719
  0
LINE
  5
276
100
AcDbEntity
  8
0
100
AcDbLine
 62
7
  6
BYLAYER
 10
5.3687863316
 20
43.3799841719
 11
15.1687863316
 21
43.3799841719
  0
LINE
  5
277
100
AcDbEntity
  8
0
100
AcDbLine
 62
7
  6
BYLAYER
 10
15.6687863316
 20
43.3799841719
 11
35.0687863316
 21
43.3799841719
  0
LINE
  5
278
100
AcDbEntity
  8
0
100
AcDbLine
 62
7
  6
BYLAYER
 10
35.5687863316
 20
43.3799841719
 11
45.3687863316
 21
43.3799841719
  0
LINE
  5
279
100
AcDbEntity
  8
0
100
AcDbLine
 62
7
  6
BYLAYER
 10
5.8687863316
 20
43.8799841719
 11
44.8687863316
 21
43.8799841719
  0
LINE
  5
27A
100
AcDbEntity
  8
0
100
AcDbLine
 62
7
  6
BYLAYER
 10
35.5687863316
 20
43.3799841719
 11
35.5687863316
 21
38.8799841719
  0
LINE
  5
27B
100
AcDbEntity
  8
0
100
AcDbLine
 62
7
  6
BYLAYER
 10
25.5912452072
 20
50.7304795426
 11
25.6741220431
 21
50.7492915434
  0
LINE
  5
27C
100
AcDbEntity
  8
0
100
AcDbLine
 62
7
  6
BYLAYER
 10
16.3687863316
 20
49.1799841719
 11
34.3687863316
 21
49.1799841719
  0
LINE
  5
27D
100
AcDbEntity
  8
0
100
AcDbLine
 62
7
  6
BYLAYER
 10
16.8687863316
 20
49.6799841719
 11
33.8687863316
 21
49.6799841719
  0
LINE
  5
27E
100
AcDbEntity
  8
0
100
AcDbLine
 62
7
  6
BYLAYER
 10
25.146327456
 20
50.7304795426
 11
25.06345062
 21
50.7492915434
  0
LINE
  5
27F
100
AcDbEntity
  8
0
100
AcDbLine
 62
7
  6
BYLAYER
 10
35.5687863316
 20
43.3799841719
 11
35.0687863316
 21
43.8799841719
  0
LINE
  5
280
100
AcDbEntity
  8
0
100
AcDbLine
 62
7
  6
BYLAYER
 10
40.3687863316
 20
38.8799841719
 11
40.3687863316
 21
6.8799841719
  0
LINE
  5
281
100
AcDbEntity
  8
0
100
AcDbLine
 62
7
  6
BYLAYER
 10
40.5687863316
 20
38.8799841719
 11
40.5687863774
 21
43.8799841704
  0
LINE
  5
282
100
AcDbEntity
  8
0
100
AcDbLine
 62
7
  6
BYLAYER
 10
26.0344699119
 20
50.7304795426
 11
26.2824696771
 21
50.7492915434
  0
LINE
  5
283
100
AcDbEntity
  8
0
100
AcDbLine
 62
7
  6
BYLAYER
 10
26.4726283627
 20
50.7304795426
 11
26.8838636292
 21
50.7492915434
  0
LINE
  5
284
100
AcDbEntity
  8
0
100
AcDbLine
 62
7
  6
BYLAYER
 10
26.9023859091
 20
50.7304795426
 11
27.4737269281
 21
50.7492915434
  0
LINE
  5
285
100
AcDbEntity
  8
0
100
AcDbLine
 62
7
  6
BYLAYER
 10
27.3204718366
 20
50.7304795426
 11
28.0475703581
 21
50.7492915434
  0
LINE
  5
286
100
AcDbEntity
  8
0
100
AcDbLine
 62
7
  6
BYLAYER
 10
27.7237042591
 20
50.7304795426
 11
28.6010266242
 21
50.7492915434
  0
LINE
  5
287
100
AcDbEntity
  8
0
100
AcDbLine
 62
7
  6
BYLAYER
 10
28.1090143342
 20
50.7304795426
 11
29.12988359
 21
50.7492915434
  0
LINE
  5
288
100
AcDbEntity
  8
0
100
AcDbLine
 62
7
  6
BYLAYER
 10
28.4734696195
 20
50.7304795426
 11
29.6301163346
 21
50.7492915434
  0
LINE
  5
289
100
AcDbEntity
  8
0
100
AcDbLine
 62
7
  6
BYLAYER
 10
28.8142963904
 20
50.7304795426
 11
30.0979177849
 21
50.7492915434
  0
LINE
  5
28A
100
AcDbEntity
  8
0
100
AcDbLine
 62
7
  6
BYLAYER
 10
29.1289007493
 20
50.7304795426
 11
30.5297276893
 21
50.7492915434
  0
LINE
  5
28B
100
AcDbEntity
  8
0
100
AcDbLine
 62
7
  6
BYLAYER
 10
29.4148883671
 20
50.7304795426
 11
30.9222597136
 21
50.7492915434
  0
LINE
  5
28C
100
AcDbEntity
  8
0
100
AcDbLine
 62
7
  6
BYLAYER
 10
29.6700827052
 20
50.7304795426
 11
31.2725264523
 21
50.7492915434
  0
LINE
  5
28D
100
AcDbEntity
  8
0
100
AcDbLine
 62
7
  6
BYLAYER
 10
29.8925415808
 20
50.7304795426
 11
31.5778621638
 21
50.7492915434
  0
LINE
  5
28E
100
AcDbEntity
  8
0
100
AcDbLine
 62
7
  6
BYLAYER
 10
30.0805719474
 20
50.7304795426
 11
31.8359430592
 21
50.7492915434
  0
LINE
  5
28F
100
AcDbEntity
  8
0
100
AcDbLine
 62
7
  6
BYLAYER
 10
30.2327427804
 20
50.7304795426
 11
32.0448049868
 21
50.7492915434
  0
LINE
  5
290
100
AcDbEntity
  8
0
100
AcDbLine
 62
7
  6
BYLAYER
 10
31.2726221261
 20
50.7398576028
 11
32.2028583814
 21
50.7492915434
  0
LINE
  5
291
100
AcDbEntity
  8
0
100
AcDbLine
 62
7
  6
BYLAYER
 10
32.2028689559
 20
50.748232662
 11
32.3089003612
 21
50.7492915434
  0
LINE
  5
292
100
AcDbEntity
  8
0
100
AcDbLine
 62
7
  6
BYLAYER
 10
30.4286414942
 20
50.7031774156
 11
30.4625496497
 21
50.703332843
  0
LINE
  5
293
100
AcDbEntity
  8
0
100
AcDbLine
 62
7
  6
BYLAYER
 10
30.4650486809
 20
50.7031774156
 11
32.3636562227
 21
50.7118180358
  0
LINE
  5
294
100
AcDbEntity
  8
0
100
AcDbLine
 62
7
  6
BYLAYER
 10
32.3623666023
 20
50.6799841719
 11
30.4637521434
 21
50.6799841719
  0
LINE
  5
295
100
AcDbEntity
  8
0
100
AcDbLine
 62
7
  6
BYLAYER
 10
29.298891057
 20
50.9799841719
 11
21.4386816062
 21
50.9799841719
  0
LINE
  5
296
100
AcDbEntity
  8
0
100
AcDbLine
 62
7
  6
BYLAYER
 10
18.5347037072
 20
50.748232662
 11
18.428672302
 21
50.7492915434
  0
LINE
  5
297
100
AcDbEntity
  8
0
100
AcDbLine
 62
7
  6
BYLAYER
 10
18.428667075
 20
50.7487641243
 11
18.3754487805
 21
50.7492915434
  0
LINE
  5
298
100
AcDbEntity
  8
0
100
AcDbLine
 62
7
  6
BYLAYER
 10
19.4649505371
 20
50.7398576028
 11
18.5347142817
 21
50.7492915434
  0
LINE
  5
299
100
AcDbEntity
  8
0
100
AcDbLine
 62
7
  6
BYLAYER
 10
20.5048298828
 20
50.7304795426
 11
18.6927676763
 21
50.7492915434
  0
LINE
  5
29A
100
AcDbEntity
  8
0
100
AcDbLine
 62
7
  6
BYLAYER
 10
20.6570007158
 20
50.7304795426
 11
18.901629604
 21
50.7492915434
  0
LINE
  5
29B
100
AcDbEntity
  8
0
100
AcDbLine
 62
7
  6
BYLAYER
 10
20.8450310824
 20
50.7304795426
 11
19.1597104993
 21
50.7492915434
  0
LINE
  5
29C
100
AcDbEntity
  8
0
100
AcDbLine
 62
7
  6
BYLAYER
 10
21.0674899579
 20
50.7304795426
 11
19.4650462109
 21
50.7492915434
  0
LINE
  5
29D
100
AcDbEntity
  8
0
100
AcDbLine
 62
7
  6
BYLAYER
 10
21.3226842961
 20
50.7304795426
 11
19.8153129495
 21
50.7492915434
  0
LINE
  5
29E
100
AcDbEntity
  8
0
100
AcDbLine
 62
7
  6
BYLAYER
 10
21.6086719139
 20
50.7304795426
 11
20.2078449739
 21
50.7492915434
  0
LINE
  5
29F
100
AcDbEntity
  8
0
100
AcDbLine
 62
7
  6
BYLAYER
 10
21.9232762727
 20
50.7304795426
 11
20.6396548783
 21
50.7492915434
  0
LINE
  5
2A0
100
AcDbEntity
  8
0
100
AcDbLine
 62
7
  6
BYLAYER
 10
22.2641030436
 20
50.7304795426
 11
21.1074563285
 21
50.7492915434
  0
LINE
  5
2A1
100
AcDbEntity
  8
0
100
AcDbLine
 62
7
  6
BYLAYER
 10
22.628558329
 20
50.7304795426
 11
21.6076890732
 21
50.7492915434
  0
LINE
  5
2A2
100
AcDbEntity
  8
0
100
AcDbLine
 62
7
  6
BYLAYER
 10
23.0138684041
 20
50.7304795426
 11
22.1365460389
 21
50.7492915434
  0
LINE
  5
2A3
100
AcDbEntity
  8
0
100
AcDbLine
 62
7
  6
BYLAYER
 10
23.4171008265
 20
50.7304795426
 11
22.690002305
 21
50.7492915434
  0
LINE
  5
2A4
100
AcDbEntity
  8
0
100
AcDbLine
 62
7
  6
BYLAYER
 10
23.8351867541
 20
50.7304795426
 11
23.2638457351
 21
50.7492915434
  0
LINE
  5
2A5
100
AcDbEntity
  8
0
100
AcDbLine
 62
7
  6
BYLAYER
 10
24.2649443005
 20
50.7304795426
 11
23.853709034
 21
50.7492915434
  0
LINE
  5
2A6
100
AcDbEntity
  8
0
100
AcDbLine
 62
7
  6
BYLAYER
 10
24.7031027513
 20
50.7304795426
 11
24.455102986
 21
50.7492915434
  0
LINE
  5
2A7
100
AcDbEntity
  8
0
100
AcDbLine
 62
7
  6
BYLAYER
 10
34.3687863316
 20
49.1799841719
 11
33.8687863316
 21
49.6799841719
  0
LINE
  5
2A8
100
AcDbEntity
  8
0
100
AcDbLine
 62
7
  6
BYLAYER
 10
17.4447721973
 20
52.9799841719
 11
33.2928004659
 21
52.9799841719
  0
LINE
  5
2A9
100
AcDbEntity
  8
0
100
AcDbLine
 62
7
  6
BYLAYER
 10
24.3687863316
 20
53.7799841719
 11
26.3687863316
 21
53.7799841719
  0
LINE
  5
2AA
100
AcDbEntity
  8
0
100
AcDbLine
 62
7
  6
BYLAYER
 10
34.3687863316
 20
54.9799841719
 11
16.3687863316
 21
54.9799841719
  0
LINE
  5
2AB
100
AcDbEntity
  8
0
100
AcDbLine
 62
7
  6
BYLAYER
 10
45.3687863316
 20
6.8799841719
 11
45.3687863316
 21
43.3799841719
  0
LINE
  5
2AC
100
AcDbEntity
  8
0
100
AcDbLine
 62
7
  6
BYLAYER
 10
16.3687863316
 20
56.9799841719
 11
34.3687863316
 21
56.9799841719
  0
LINE
  5
2AD
100
AcDbEntity
  8
0
100
AcDbLine
 62
7
  6
BYLAYER
 10
34.8687068299
 20
57.3299841719
 11
32.3687863316
 21
57.3299841719
  0
LINE
  5
2AE
100
AcDbEntity
  8
0
100
AcDbLine
 62
7
  6
BYLAYER
 10
18.3687863316
 20
57.3299841719
 11
15.8688658332
 21
57.3299841719
  0
LINE
  5
2AF
100
AcDbEntity
  8
0
100
AcDbLine
 62
7
  6
BYLAYER
 10
45.3687863316
 20
43.3799841719
 11
44.8687863316
 21
43.8799841719
  0
LINE
  5
2B0
100
AcDbEntity
  8
0
100
AcDbLine
 62
7
  6
BYLAYER
 10
31.3687863316
 20
59.4799841719
 11
32.3687863316
 21
58.4799841719
  0
LINE
  5
2B1
100
AcDbEntity
  8
0
100
AcDbLine
 62
7
  6
BYLAYER
 10
18.3687863316
 20
58.4799841719
 11
32.3687863316
 21
58.4799841719
  0
LINE
  5
2B2
100
AcDbEntity
  8
0
100
AcDbLine
 62
7
  6
BYLAYER
 10
19.3687896591
 20
59.4799841719
 11
31.368783004
 21
59.4799841719
  0
LINE
  5
2B3
100
AcDbEntity
  8
0
100
AcDbLine
 62
7
  6
BYLAYER
 10
29.3687863316
 20
64.1799841719
 11
28.8687863316
 21
64.6799841719
  0
LINE
  5
2B4
100
AcDbEntity
  8
0
100
AcDbLine
 62
7
  6
BYLAYER
 10
21.3687863316
 20
61.2034595549
 11
29.3687863316
 21
61.2034595549
  0
LINE
  5
2B5
100
AcDbEntity
  8
0
100
AcDbLine
 62
7
  6
BYLAYER
 10
25.9687863316
 20
61.3799841719
 11
24.7687863316
 21
61.3799841719
  0
LINE
  5
2B6
100
AcDbEntity
  8
0
100
AcDbLine
 62
7
  6
BYLAYER
 10
27.5337440951
 20
62.2088468626
 11
27.477680812
 21
62.2088468626
  0
LINE
  5
2B7
100
AcDbEntity
  8
0
100
AcDbLine
 62
7
  6
BYLAYER
 10
23.2598918512
 20
62.2088468626
 11
23.203828568
 21
62.2088468626
  0
LINE
  5
2B8
100
AcDbEntity
  8
0
100
AcDbLine
 62
7
  6
BYLAYER
 10
15.8688658332
 20
62.8299841719
 11
21.2780040543
 21
62.8299841719
  0
LINE
  5
2B9
100
AcDbEntity
  8
0
100
AcDbLine
 62
7
  6
BYLAYER
 10
24.4303381786
 20
62.8299841719
 11
26.3082303198
 21
62.8299841719
  0
LINE
  5
2BA
100
AcDbEntity
  8
0
100
AcDbLine
 62
7
  6
BYLAYER
 10
29.4599893957
 20
62.8299841719
 11
34.8687068299
 21
62.8299841719
  0
LINE
  5
2BB
100
AcDbEntity
  8
0
100
AcDbLine
 62
7
  6
BYLAYER
 10
20.5437686959
 20
63.0799841719
 11
21.485063861
 21
63.0799841719
  0
LINE
  5
2BC
100
AcDbEntity
  8
0
100
AcDbLine
 62
7
  6
BYLAYER
 10
29.2516908373
 20
63.0799841719
 11
30.1938039673
 21
63.0799841719
  0
LINE
  5
2BD
100
AcDbEntity
  8
0
100
AcDbLine
 62
7
  6
BYLAYER
 10
29.3687863316
 20
63.1799841719
 11
29.151697703
 21
63.1799841719
  0
LINE
  5
2BE
100
AcDbEntity
  8
0
100
AcDbLine
 62
7
  6
BYLAYER
 10
21.5849666179
 20
63.1799841719
 11
21.3687863316
 21
63.1799841719
  0
LINE
  5
2BF
100
AcDbEntity
  8
0
100
AcDbLine
 62
7
  6
BYLAYER
 10
21.3687863316
 20
64.1799841719
 11
22.7341374744
 21
64.1799841719
  0
LINE
  5
2C0
100
AcDbEntity
  8
0
100
AcDbLine
 62
7
  6
BYLAYER
 10
28.0041172838
 20
64.1799841719
 11
29.3687863316
 21
64.1799841719
  0
LINE
  5
2C1
100
AcDbEntity
  8
0
100
AcDbLine
 62
7
  6
BYLAYER
 10
21.8687863316
 20
64.6799841719
 11
23.7130315787
 21
64.6799841719
  0
LINE
  5
2C2
100
AcDbEntity
  8
0
100
AcDbLine
 62
7
  6
BYLAYER
 10
27.0190091277
 20
64.6799841719
 11
28.8687863316
 21
64.6799841719
  0
ARC
  5
2C3
100
AcDbEntity
  8
0
100
AcDbCircle
 62
7
  6
BYLAYER
 10
-83.9837161458
 20
-58.4343787288
 40
155.176369303
100
AcDbArc
 50
44.7173701986
 51
44.8373663698
  0
ARC
  5
2C4
100
AcDbEntity
  8
0
100
AcDbCircle
 62
7
  6
BYLAYER
 10
-40.639087168
 20
-15.0938585186
 40
94.3115544059
100
AcDbArc
 50
44.2783743184
 51
44.4744544373
  0
ARC
  5
2C5
100
AcDbEntity
  8
0
100
AcDbCircle
 62
7
  6
BYLAYER
 10
-20.6527627695
 20
4.902349254
 40
66.4687981529
100
AcDbArc
 50
43.6104281343
 51
43.8857060507
  0
ARC
  5
2C6
100
AcDbEntity
  8
0
100
AcDbCircle
 62
7
  6
BYLAYER
 10
-8.9986945319
 20
16.5591526155
 40
50.4122142166
100
AcDbArc
 50
42.7040339874
 51
43.0618589744
  0
ARC
  5
2C7
100
AcDbEntity
  8
0
100
AcDbCircle
 62
7
  6
BYLAYER
 10
-1.1915686601
 20
24.3485620778
 40
39.8070000137
100
AcDbArc
 50
41.5457802675
 51
41.9909777218
  0
ARC
  5
2C8
100
AcDbEntity
  8
0
100
AcDbCircle
 62
7
  6
BYLAYER
 10
4.4824670059
 20
29.9800373164
 40
32.2313056735
100
AcDbArc
 50
40.11931162
 51
40.6577261512
  0
ARC
  5
2C9
100
AcDbEntity
  8
0
100
AcDbCircle
 62
7
  6
BYLAYER
 10
-42.5057271079
 20
118.4027852484
 40
96.9118698258
100
AcDbArc
 50
315.7257988426
 51
315.9159770104
  0
ARC
  5
2CA
100
AcDbEntity
  8
0
100
AcDbCircle
 62
7
  6
BYLAYER
 10
-23.7642811584
 20
99.5364902415
 40
70.7497295364
100
AcDbArc
 50
316.4035756453
 51
316.6609928876
  0
ARC
  5
2CB
100
AcDbEntity
  8
0
100
AcDbCircle
 62
7
  6
BYLAYER
 10
-10.6631180663
 20
86.4525607738
 40
52.6615688337
100
AcDbArc
 50
317.3143333433
 51
317.6548507827
  0
ARC
  5
2CC
100
AcDbEntity
  8
0
100
AcDbCircle
 62
7
  6
BYLAYER
 10
-2.1194286376
 20
77.95024186
 40
41.0321589686
100
AcDbArc
 50
318.4772144257
 51
318.9060551808
  0
ARC
  5
2CD
100
AcDbEntity
  8
0
100
AcDbCircle
 62
7
  6
BYLAYER
 10
18.3687863316
 20
41.0799841719
 40
0.5
100
AcDbArc
 50
90.0
 51
180.0
  0
ARC
  5
2CE
100
AcDbEntity
  8
0
100
AcDbCircle
 62
7
  6
BYLAYER
 10
18.3687863316
 20
40.5799841719
 40
0.5
100
AcDbArc
 50
180.0
 51
270.0
  0
ARC
  5
2CF
100
AcDbEntity
  8
0
100
AcDbCircle
 62
7
  6
BYLAYER
 10
18.1687863316
 20
37.7799841719
 40
0.5
100
AcDbArc
 50
90.0
 51
180.0
  0
ARC
  5
2D0
100
AcDbEntity
  8
0
100
AcDbCircle
 62
7
  6
BYLAYER
 10
18.1687863316
 20
33.7040314741
 40
0.5
100
AcDbArc
 50
180.0
 51
303.6312774498
  0
ARC
  5
2D1
100
AcDbEntity
  8
0
100
AcDbCircle
 62
7
  6
BYLAYER
 10
18.1687863316
 20
40.2799841719
 40
0.5
100
AcDbArc
 50
180.0
 51
270.0
  0
ARC
  5
2D2
100
AcDbEntity
  8
0
100
AcDbCircle
 62
7
  6
BYLAYER
 10
18.1687863316
 20
41.2799841719
 40
0.5
100
AcDbArc
 50
90.0
 51
180.0
  0
ARC
  5
2D3
100
AcDbEntity
  8
0
100
AcDbCircle
 62
7
  6
BYLAYER
 10
129.2480574176
 20
-53.0019128841
 40
147.4648287513
100
AcDbArc
 50
135.1599402391
 51
135.2862098004
  0
ARC
  5
2D4
100
AcDbEntity
  8
0
100
AcDbCircle
 62
7
  6
BYLAYER
 10
88.0683071925
 20
-11.855165343
 40
89.681841187
100
AcDbArc
 50
135.5212103923
 51
135.7274091634
  0
ARC
  5
2D5
100
AcDbEntity
  8
0
100
AcDbCircle
 62
7
  6
BYLAYER
 10
72.0491426706
 20
4.2733678659
 40
67.3796458789
100
AcDbArc
 50
136.1171723221
 51
136.3887228014
  0
ARC
  5
2D6
100
AcDbEntity
  8
0
100
AcDbCircle
 62
7
  6
BYLAYER
 10
60.2427608448
 20
16.0903700775
 40
51.1023532836
100
AcDbArc
 50
136.9418809749
 51
137.2948639071
  0
ARC
  5
2D7
100
AcDbEntity
  8
0
100
AcDbCircle
 62
7
  6
BYLAYER
 10
52.3359788941
 20
23.9867541093
 40
40.3514455093
100
AcDbArc
 50
138.0136735991
 51
138.4528503676
  0
ARC
  5
2D8
100
AcDbEntity
  8
0
100
AcDbCircle
 62
7
  6
BYLAYER
 10
46.5913119017
 20
29.6954982631
 40
32.6717557093
100
AcDbArc
 50
139.3478970254
 51
139.8790343615
  0
ARC
  5
2D9
100
AcDbEntity
  8
0
100
AcDbCircle
 62
7
  6
BYLAYER
 10
25.3687863316
 20
22.8799841719
 40
13.0
100
AcDbArc
 50
96.6258095648
 51
123.6312774479
  0
ARC
  5
2DA
100
AcDbEntity
  8
0
100
AcDbCircle
 62
7
  6
BYLAYER
 10
25.3687863316
 20
22.8799841719
 40
13.0
100
AcDbArc
 50
56.3687225521
 51
83.3741904352
  0
ARC
  5
2DB
100
AcDbEntity
  8
0
100
AcDbCircle
 62
7
  6
BYLAYER
 10
25.3687863316
 20
22.8799841719
 40
12.5
100
AcDbArc
 50
96.6258095646
 51
123.6312774479
  0
ARC
  5
2DC
100
AcDbEntity
  8
0
100
AcDbCircle
 62
7
  6
BYLAYER
 10
25.3687863316
 20
22.8799841719
 40
12.5
100
AcDbArc
 50
56.3687225522
 51
83.3741904354
  0
CIRCLE
  5
2DD
100
AcDbEntity
  8
0
100
AcDbCircle
 62
7
  6
BYLAYER
 10
25.3687863316
 20
22.8799841719
 40
11.3
  0
CIRCLE
  5
2DE
100
AcDbEntity
  8
0
100
AcDbCircle
 62
7
  6
BYLAYER
 10
25.3687863316
 20
22.8799841719
 40
8.2
  0
CIRCLE
  5
2DF
100
AcDbEntity
  8
0
100
AcDbCircle
 62
7
  6
BYLAYER
 10
25.3687863316
 20
22.8799841719
 40
7.5
  0
ARC
  5
2E0
100
AcDbEntity
  8
0
100
AcDbCircle
 62
7
  6
BYLAYER
 10
97.0675988639
 20
122.1173815733
 40
102.2432293041
100
AcDbArc
 50
224.0883150206
 51
224.2685755615
  0
ARC
  5
2E1
100
AcDbEntity
  8
0
100
AcDbCircle
 62
7
  6
BYLAYER
 10
73.803544121
 20
98.8729500249
 40
69.7864429426
100
AcDbArc
 50
223.3362699399
 51
223.5972377743
  0
ARC
  5
2E2
100
AcDbEntity
  8
0
100
AcDbCircle
 62
7
  6
BYLAYER
 10
60.8724573024
 20
85.9666945588
 40
51.9438672489
100
AcDbArc
 50
222.3415268805
 51
222.6867441991
  0
ARC
  5
2E3
100
AcDbEntity
  8
0
100
AcDbCircle
 62
7
  6
BYLAYER
 10
52.4373062331
 20
77.5799114408
 40
40.4724379352
100
AcDbArc
 50
221.0893810792
 51
221.5241444398
  0
ARC
  5
2E4
100
AcDbEntity
  8
0
100
AcDbCircle
 62
7
  6
BYLAYER
 10
25.3687863316
 20
56.0799841719
 40
6.5
100
AcDbArc
 50
52.0201275551
 51
70.5447558631
  0
ARC
  5
2E5
100
AcDbEntity
  8
0
100
AcDbCircle
 62
7
  6
BYLAYER
 10
25.3687863316
 20
56.0799841719
 40
6.5
100
AcDbArc
 50
109.4552441369
 51
127.9798724449
  0
ARC
  5
2E6
100
AcDbEntity
  8
0
100
AcDbCircle
 62
7
  6
BYLAYER
 10
25.3687863316
 20
56.0799841719
 40
6.4815425488
100
AcDbArc
 50
71.0120540901
 51
82.4499169202
  0
ARC
  5
2E7
100
AcDbEntity
  8
0
100
AcDbCircle
 62
7
  6
BYLAYER
 10
25.3687863316
 20
56.0799841719
 40
6.4815425488
100
AcDbArc
 50
97.5500830798
 51
108.9879459099
  0
ARC
  5
2E8
100
AcDbEntity
  8
0
100
AcDbCircle
 62
7
  6
BYLAYER
 10
25.3687863316
 20
59.9799841719
 40
5.0
100
AcDbArc
 50
0.0
 51
180.0
  0
ARC
  5
2E9
100
AcDbEntity
  8
0
100
AcDbCircle
 62
7
  6
BYLAYER
 10
25.5149201283
 20
58.7111507901
 40
3.8673320667
100
AcDbArc
 50
101.5671234631
 51
102.8422344394
  0
ARC
  5
2EA
100
AcDbEntity
  8
0
100
AcDbCircle
 62
7
  6
BYLAYER
 10
25.2239064011
 20
58.7173093292
 40
3.8610565297
100
AcDbArc
 50
77.1601109766
 51
78.4327086386
  0
ARC
  5
2EB
100
AcDbEntity
  8
0
100
AcDbCircle
 62
7
  6
BYLAYER
 10
25.3687863316
 20
59.9799841719
 40
3.05
100
AcDbArc
 50
46.6094384968
 51
133.5325542896
  0
ARC
  5
2EC
100
AcDbEntity
  8
0
100
AcDbCircle
 62
7
  6
BYLAYER
 10
23.7687863316
 20
40.5799841719
 40
0.5
100
AcDbArc
 50
270.0
 51
360.0
  0
ARC
  5
2ED
100
AcDbEntity
  8
0
100
AcDbCircle
 62
7
  6
BYLAYER
 10
23.7687863316
 20
41.0799841719
 40
0.5
100
AcDbArc
 50
0.0
 51
90.0
  0
ARC
  5
2EE
100
AcDbEntity
  8
0
100
AcDbCircle
 62
7
  6
BYLAYER
 10
26.9687863316
 20
41.0799841719
 40
0.5
100
AcDbArc
 50
90.0
 51
180.0
  0
ARC
  5
2EF
100
AcDbEntity
  8
0
100
AcDbCircle
 62
7
  6
BYLAYER
 10
32.3687863316
 20
41.0799841719
 40
0.5
100
AcDbArc
 50
0.0
 51
90.0
  0
ARC
  5
2F0
100
AcDbEntity
  8
0
100
AcDbCircle
 62
7
  6
BYLAYER
 10
32.3687863316
 20
40.5799841719
 40
0.5
100
AcDbArc
 50
270.0
 51
360.0
  0
ARC
  5
2F1
100
AcDbEntity
  8
0
100
AcDbCircle
 62
7
  6
BYLAYER
 10
26.9687863316
 20
40.5799841719
 40
0.5
100
AcDbArc
 50
180.0
 51
270.0
  0
ARC
  5
2F2
100
AcDbEntity
  8
0
100
AcDbCircle
 62
7
  6
BYLAYER
 10
23.8687863316
 20
37.7799841719
 40
0.5
100
AcDbArc
 50
0.0
 51
90.0
  0
ARC
  5
2F3
100
AcDbEntity
  8
0
100
AcDbCircle
 62
7
  6
BYLAYER
 10
23.8687863316
 20
35.793155742
 40
0.5
100
AcDbArc
 50
276.6258095701
 51
360.0
  0
ARC
  5
2F4
100
AcDbEntity
  8
0
100
AcDbCircle
 62
7
  6
BYLAYER
 10
32.5687863316
 20
37.7799841719
 40
0.5
100
AcDbArc
 50
0.0
 51
90.0
  0
ARC
  5
2F5
100
AcDbEntity
  8
0
100
AcDbCircle
 62
7
  6
BYLAYER
 10
26.8687863316
 20
37.7799841719
 40
0.5
100
AcDbArc
 50
90.0
 51
180.0000000001
  0
ARC
  5
2F6
100
AcDbEntity
  8
0
100
AcDbCircle
 62
7
  6
BYLAYER
 10
26.8687863316
 20
35.793155742
 40
0.5
100
AcDbArc
 50
179.9999999999
 51
263.3741904299
  0
ARC
  5
2F7
100
AcDbEntity
  8
0
100
AcDbCircle
 62
7
  6
BYLAYER
 10
32.5687863316
 20
33.7040314741
 40
0.5
100
AcDbArc
 50
236.3687225497
 51
360.0
  0
ARC
  5
2F8
100
AcDbEntity
  8
0
100
AcDbCircle
 62
7
  6
BYLAYER
 10
23.8687863316
 20
40.2799841719
 40
0.5
100
AcDbArc
 50
270.0
 51
360.0
  0
ARC
  5
2F9
100
AcDbEntity
  8
0
100
AcDbCircle
 62
7
  6
BYLAYER
 10
23.8687863316
 20
41.2799841719
 40
0.5
100
AcDbArc
 50
0.0
 51
90.0
  0
ARC
  5
2FA
100
AcDbEntity
  8
0
100
AcDbCircle
 62
7
  6
BYLAYER
 10
32.5687863316
 20
41.2799841719
 40
0.5
100
AcDbArc
 50
0.0
 51
90.0
  0
ARC
  5
2FB
100
AcDbEntity
  8
0
100
AcDbCircle
 62
7
  6
BYLAYER
 10
26.8687863316
 20
41.2799841719
 40
0.5
100
AcDbArc
 50
90.0
 51
180.0
  0
ARC
  5
2FC
100
AcDbEntity
  8
0
100
AcDbCircle
 62
7
  6
BYLAYER
 10
26.8687863316
 20
40.2799841719
 40
0.5
100
AcDbArc
 50
180.0
 51
270.0
  0
ARC
  5
2FD
100
AcDbEntity
  8
0
100
AcDbCircle
 62
7
  6
BYLAYER
 10
32.5687863316
 20
40.2799841719
 40
0.5
100
AcDbArc
 50
270.0
 51
360.0
  0
LINE
  5
2FE
100
AcDbEntity
  8
0
100
AcDbLine
 62
7
  6
BYLAYER
 10
24.455102986
 20
50.7492915434
 11
24.2271326287
 21
50.9799855145
  0
LINE
  5
2FF
100
AcDbEntity
  8
0
100
AcDbLine
 62
7
  6
BYLAYER
 10
26.5104417551
 20
50.9799841719
 11
26.2824696771
 21
50.7492915434
  0
LINE
  5
300
100
AcDbEntity
  8
0
100
AcDbLine
 62
7
  6
BYLAYER
 10
25.9041559924
 20
50.9799841719
 11
25.6741220431
 21
50.7492915434
  0
LINE
  5
301
100
AcDbEntity
  8
0
100
AcDbLine
 62
7
  6
BYLAYER
 10
25.06345062
 20
50.7492915434
 11
24.8334161838
 21
50.9799855145
  0
LINE
  5
302
100
AcDbEntity
  8
0
100
AcDbLine
 62
7
  6
BYLAYER
 10
25.6741220431
 20
50.7492915434
 11
25.4437742289
 21
50.9799855145
  0
LINE
  5
303
100
AcDbEntity
  8
0
100
AcDbLine
 62
7
  6
BYLAYER
 10
25.2937957433
 20
50.9799841719
 11
25.06345062
 21
50.7492915434
  0
SPLINE
  5
304
100
AcDbEntity
  8
0
100
AcDbSpline
 62
7
  6
BYLAYER
 70
0
 71
3
 72
9
 73
5
 74
0
 42
0.0000001
 43
0.0000001
 44
0.0000000001
 40
0.0
 40
0.0
 40
0.0
 40
0.0
 40
0.2601144248
 40
1.0
 40
1.0
 40
1.0
 40
1.0
 10
26.0998596393
 20
62.5152498035
 30
0.0
 10
26.0979790646
 20
62.512097869
 30
0.0
 10
26.090964682
 20
62.4998555247
 30
0.0
 10
26.0848355382
 20
62.4870877706
 30
0.0
 10
26.0810247369
 20
62.477368038
 30
0.0
  0
SPLINE
  5
305
100
AcDbEntity
  8
0
100
AcDbSpline
 62
7
  6
BYLAYER
 70
0
 71
3
 72
9
 73
5
 74
0
 42
0.0000001
 43
0.0000001
 44
0.0000000001
 40
0.0
 40
0.0
 40
0.0
 40
0.0
 40
0.2401313121
 40
1.0
 40
1.0
 40
1.0
 40
1.0
 10
24.6560381553
 20
62.4786552254
 30
0.0
 10
24.6548213784
 20
62.4816989009
 30
0.0
 10
24.6494593379
 20
62.4942556038
 30
0.0
 10
24.6430275118
 20
62.5063424119
 30
0.0
 10
24.637712917
 20
62.5152499152
 30
0.0
  0
SPLINE
  5
306
100
AcDbEntity
  8
0
100
AcDbSpline
 62
7
  6
BYLAYER
 70
0
 71
3
 72
9
 73
5
 74
0
 42
0.0000001
 43
0.0000001
 44
0.0000000001
 40
0.0
 40
0.0
 40
0.0
 40
0.0
 40
0.5057161217
 40
1.0
 40
1.0
 40
1.0
 40
1.0
 10
27.1369114241
 20
62.0798068956
 30
0.0
 10
26.9693102485
 20
62.1709095591
 30
0.0
 10
26.625875379
 20
62.329928548
 30
0.0
 10
26.2637261239
 20
62.4403887323
 30
0.0
 10
26.0819387147
 20
62.4818196659
 30
0.0
  0
SPLINE
  5
307
100
AcDbEntity
  8
0
100
AcDbSpline
 62
7
  6
BYLAYER
 70
0
 71
3
 72
10
 73
6
 74
0
 42
0.0000001
 43
0.0000001
 44
0.0000000001
 40
0.0
 40
0.0
 40
0.0
 40
0.0
 40
0.5598421682
 40
0.8017544595
 40
1.0
 40
1.0
 40
1.0
 40
1.0
 10
26.2204142174
 20
62.50533426
 30
0.0
 10
26.1980248533
 20
62.5083017881
 30
0.0
 10
26.1658632687
 20
62.511909309
 30
0.0
 10
26.1256141185
 20
62.5146954144
 30
0.0
 10
26.1078572524
 20
62.5152648613
 30
0.0
 10
26.0998596393
 20
62.5152498035
 30
0.0
  0
SPLINE
  5
308
100
AcDbEntity
  8
0
100
AcDbSpline
 62
7
  6
BYLAYER
 70
0
 71
3
 72
10
 73
6
 74
0
 42
0.0000001
 43
0.0000001
 44
0.0000000001
 40
0.0
 40
0.0
 40
0.0
 40
0.0
 40
0.1982332256
 40
0.4401404885
 40
1.0
 40
1.0
 40
1.0
 40
1.0
 10
24.637712917
 20
62.5152499152
 30
0.0
 10
24.6297158088
 20
62.5152651072
 30
0.0
 10
24.6119596544
 20
62.5146954802
 30
0.0
 10
24.571710602
 20
62.511908734
 30
0.0
 10
24.5395484816
 20
62.5083018771
 30
0.0
 10
24.5171584457
 20
62.50533426
 30
0.0
  0
SPLINE
  5
309
100
AcDbEntity
  8
0
100
AcDbSpline
 62
7
  6
BYLAYER
 70
0
 71
3
 72
9
 73
5
 74
0
 42
0.0000001
 43
0.0000001
 44
0.0000000001
 40
0.0
 40
0.0
 40
0.0
 40
0.0
 40
0.4943090001
 40
1.0
 40
1.0
 40
1.0
 40
1.0
 10
24.655338868
 20
62.4817445591
 30
0.0
 10
24.4736198815
 20
62.4403225525
 30
0.0
 10
24.1116199875
 20
62.3299093789
 30
0.0
 10
23.7683523622
 20
62.1709088717
 30
0.0
 10
23.6008284565
 20
62.0798513513
 30
0.0
  0
SPLINE
  5
30A
100
AcDbEntity
  8
0
100
AcDbSpline
 62
7
  6
BYLAYER
 70
0
 71
3
 72
11
 73
7
 74
0
 42
0.0000001
 43
0.0000001
 44
0.0000000001
 40
0.0
 40
0.0
 40
0.0
 40
0.0
 40
0.2573561142
 40
0.5091575437
 40
0.7563329411
 40
1.0
 40
1.0
 40
1.0
 40
1.0
 10
23.6008284565
 20
62.0798513513
 30
0.0
 10
23.6823717096
 20
62.1323293045
 30
0.0
 10
23.848068352
 20
62.2295633959
 30
0.0
 10
24.1058138282
 20
62.3520026194
 30
0.0
 10
24.3687925682
 20
62.4487414279
 30
0.0
 10
24.5479146503
 20
62.4960979931
 30
0.0
 10
24.6377069325
 20
62.515251351
 30
0.0
  0
SPLINE
  5
30B
100
AcDbEntity
  8
0
100
AcDbSpline
 62
7
  6
BYLAYER
 70
0
 71
3
 72
11
 73
7
 74
0
 42
0.0000001
 43
0.0000001
 44
0.0000000001
 40
0.0
 40
0.0
 40
0.0
 40
0.0
 40
0.2436424138
 40
0.4908029926
 40
0.7425681081
 40
1.0
 40
1.0
 40
1.0
 40
1.0
 10
26.0999140624
 20
62.5152498041
 30
0.0
 10
26.1897067839
 20
62.4960964489
 30
0.0
 10
26.3688301546
 20
62.4487264715
 30
0.0
 10
26.6318084841
 20
62.3519812255
 30
0.0
 10
26.8895765012
 20
62.229503484
 30
0.0
 10
27.0553370944
 20
62.1323082883
 30
0.0
 10
27.1369114241
 20
62.0798068956
 30
0.0
  0
ELLIPSE
  5
30C
100
AcDbEntity
  8
0
100
AcDbEllipse
 62
7
  6
BYLAYER
 10
25.3687863316
 20
50.6799841719
 30
0.0
 11
-3.5905720685
 21
3.7462965332
 31
0.0
 40
0.9667812598
 41
-2.3135705485
 42
-2.3081490645
  0
ELLIPSE
  5
30D
100
AcDbEntity
  8
0
100
AcDbEllipse
 62
7
  6
BYLAYER
 10
25.3687863316
 20
50.6799841719
 30
0.0
 11
5.0024873319
 21
5.1108318874
 31
0.0
 40
0.958051386
 41
5.4656688573
 42
5.50849979
  0
ELLIPSE
  5
30E
100
AcDbEntity
  8
0
100
AcDbEllipse
 62
7
  6
BYLAYER
 10
25.3687863316
 20
50.6799841719
 30
0.0
 11
-3.6489089619
 21
3.7250564018
 31
0.0
 40
0.9565142089
 41
-2.3191422378
 42
-2.3136981319
  0
ELLIPSE
  5
30F
100
AcDbEntity
  8
0
100
AcDbEllipse
 62
7
  6
BYLAYER
 10
25.3687863316
 20
50.6799841719
 30
0.0
 11
-3.7977250725
 21
3.8430708828
 31
0.0
 40
0.8857526005
 41
-2.2852557381
 42
-2.2799135572
  0
ELLIPSE
  5
310
100
AcDbEntity
  8
0
100
AcDbEllipse
 62
7
  6
BYLAYER
 10
25.3687863316
 20
50.6799841719
 30
0.0
 11
5.087332942
 21
5.0947007248
 31
0.0
 40
0.070509795
 41
-4.6893020568
 42
-4.6519841899
  0
ELLIPSE
  5
311
100
AcDbEntity
  8
0
100
AcDbEllipse
 62
7
  6
BYLAYER
 10
25.3687863316
 20
50.6799841719
 30
0.0
 11
5.2623639074
 21
5.3163747112
 31
0.0
 40
0.8682622735
 41
-0.8509595305
 42
-0.8073262992
  0
ELLIPSE
  5
312
100
AcDbEntity
  8
0
100
AcDbEllipse
 62
7
  6
BYLAYER
 10
25.3687863316
 20
50.6799841719
 30
0.0
 11
5.4673167446
 21
5.5020781518
 31
0.0
 40
0.7944854502
 41
-0.8926246074
 42
-0.8489913761
  0
ELLIPSE
  5
313
100
AcDbEntity
  8
0
100
AcDbEllipse
 62
7
  6
BYLAYER
 10
25.3687863316
 20
50.6799841719
 30
0.0
 11
5.0667840844
 21
5.0742427062
 31
0.0
 40
0.1145232537
 41
-4.6292037203
 42
-4.6084157013
  0
ELLIPSE
  5
314
100
AcDbEntity
  8
0
100
AcDbEllipse
 62
7
  6
BYLAYER
 10
25.3687863316
 20
50.6799841719
 30
0.0
 11
5.6564620859
 21
5.6826578387
 31
0.0
 40
0.7256540395
 41
-0.9353672605
 42
-0.8917340292
  0
ELLIPSE
  5
315
100
AcDbEntity
  8
0
100
AcDbEllipse
 62
7
  6
BYLAYER
 10
25.3687863316
 20
50.6799841719
 30
0.0
 11
5.8329387578
 21
5.8543100937
 31
0.0
 40
0.6610497746
 41
-0.9784865907
 42
-0.9348533594
  0
ELLIPSE
  5
316
100
AcDbEntity
  8
0
100
AcDbEllipse
 62
7
  6
BYLAYER
 10
25.3687863316
 20
50.6799841719
 30
0.0
 11
5.0365595245
 21
5.0441563655
 31
0.0
 40
0.1589790734
 41
-4.5685887396
 42
-4.5648498964
  0
ELLIPSE
  5
317
100
AcDbEntity
  8
0
100
AcDbEllipse
 62
7
  6
BYLAYER
 10
25.3687863316
 20
50.6799841719
 30
0.0
 11
5.9974168173
 21
6.0157097548
 31
0.0
 40
0.6000699194
 41
-1.0217810897
 42
-0.9781478584
  0
ELLIPSE
  5
318
100
AcDbEntity
  8
0
100
AcDbEllipse
 62
7
  6
BYLAYER
 10
25.3687863316
 20
50.6799841719
 30
0.0
 11
-4.3431524851
 21
4.3569134644
 31
0.0
 40
0.6135977546
 41
-2.1098580551
 42
-2.1093494623
  0
ELLIPSE
  5
319
100
AcDbEntity
  8
0
100
AcDbEllipse
 62
7
  6
BYLAYER
 10
25.3687863316
 20
50.6799841719
 30
0.0
 11
6.1499813106
 21
6.1661536952
 31
0.0
 40
0.5422036784
 41
-1.0651710796
 42
-1.0215378483
  0
ELLIPSE
  5
31A
100
AcDbEntity
  8
0
100
AcDbEllipse
 62
7
  6
BYLAYER
 10
25.3687863316
 20
50.6799841719
 30
0.0
 11
4.9967138927
 21
5.0045018736
 31
0.0
 40
0.2040563545
 41
-4.523903948
 42
-4.5212880532
  0
ELLIPSE
  5
31B
100
AcDbEntity
  8
0
100
AcDbEllipse
 62
7
  6
BYLAYER
 10
25.3687863316
 20
50.6799841719
 30
0.0
 11
-4.4562770691
 21
4.4683655583
 31
0.0
 40
0.5550666837
 41
-2.0664854502
 42
-2.0658660089
  0
ELLIPSE
  5
31C
100
AcDbEntity
  8
0
100
AcDbEllipse
 62
7
  6
BYLAYER
 10
25.3687863316
 20
50.6799841719
 30
0.0
 11
6.2905311482
 21
6.3051670535
 31
0.0
 40
0.4870137667
 41
-1.1086186981
 42
-1.0649854668
  0
ELLIPSE
  5
31D
100
AcDbEntity
  8
0
100
AcDbEllipse
 62
7
  6
BYLAYER
 10
25.3687863316
 20
50.6799841719
 30
0.0
 11
-4.5606708039
 21
4.571559276
 31
0.0
 40
0.4993053872
 41
-2.0230486825
 42
-2.0223027847
  0
ELLIPSE
  5
31E
100
AcDbEntity
  8
0
100
AcDbEllipse
 62
7
  6
BYLAYER
 10
25.3687863316
 20
50.6799841719
 30
0.0
 11
6.4189003629
 21
6.4323840013
 31
0.0
 40
0.434122008
 41
-1.1521036198
 42
-1.1084703885
  0
ELLIPSE
  5
31F
100
AcDbEntity
  8
0
100
AcDbEllipse
 62
7
  6
BYLAYER
 10
25.3687863316
 20
50.6799841719
 30
0.0
 11
4.9473187448
 21
4.9553590018
 31
0.0
 40
0.2499440643
 41
-4.4797286911
 42
-4.4777317351
  0
ELLIPSE
  5
320
100
AcDbEntity
  8
0
100
AcDbEllipse
 62
7
  6
BYLAYER
 10
25.3687863316
 20
50.6799841719
 30
0.0
 11
-4.6562194712
 21
4.6662140021
 31
0.0
 40
0.4459233868
 41
-1.9795709527
 42
-1.9786770248
  0
ELLIPSE
  5
321
100
AcDbEntity
  8
0
100
AcDbEllipse
 62
7
  6
BYLAYER
 10
25.3687863316
 20
50.6799841719
 30
0.0
 11
6.5349039496
 21
6.5475032008
 31
0.0
 40
0.3831979662
 41
-1.1956139293
 42
-1.151980698
  0
ELLIPSE
  5
322
100
AcDbEntity
  8
0
100
AcDbEllipse
 62
7
  6
BYLAYER
 10
25.3687863316
 20
50.6799841719
 30
0.0
 11
-4.7427897296
 21
4.7521011676
 31
0.0
 40
0.3945802962
 41
-1.9360656216
 42
-1.9349930881
  0
ELLIPSE
  5
323
100
AcDbEntity
  8
0
100
AcDbEllipse
 62
7
  6
BYLAYER
 10
25.3687863316
 20
50.6799841719
 30
0.0
 11
6.6383580172
 21
6.6502686821
 31
0.0
 40
0.3339498651
 41
-1.2391421521
 42
-1.1955089208
  0
ELLIPSE
  5
324
100
AcDbEntity
  8
0
100
AcDbEllipse
 62
7
  6
BYLAYER
 10
25.3687863316
 20
50.6799841719
 30
0.0
 11
4.8884619287
 21
4.8968274654
 31
0.0
 40
0.2968443431
 41
-4.435771949
 42
-4.434182944
  0
ELLIPSE
  5
325
100
AcDbEntity
  8
0
100
AcDbEllipse
 62
7
  6
BYLAYER
 10
25.3687863316
 20
50.6799841719
 30
0.0
 11
-4.8202466094
 21
4.8290275392
 31
0.0
 40
0.3449762775
 41
-1.8925409539
 42
-1.8912448882
  0
ELLIPSE
  5
326
100
AcDbEntity
  8
0
100
AcDbEllipse
 62
7
  6
BYLAYER
 10
25.3687863316
 20
50.6799841719
 30
0.0
 11
6.7290897135
 21
6.7404608004
 31
0.0
 40
0.2861172432
 41
-1.2826833349
 42
-1.2390501036
  0
ELLIPSE
  5
327
100
AcDbEntity
  8
0
100
AcDbEllipse
 62
7
  6
BYLAYER
 10
25.3687863316
 20
50.6799841719
 30
0.0
 11
-4.8884619287
 21
4.8968274654
 31
0.0
 40
0.2968443431
 41
-1.8490023632
 42
-1.8474133582
  0
ELLIPSE
  5
328
100
AcDbEntity
  8
0
100
AcDbEllipse
 62
7
  6
BYLAYER
 10
25.3687863316
 20
50.6799841719
 30
0.0
 11
-6.7290897135
 21
6.7404608004
 31
0.0
 40
0.2861172432
 41
1.2390501036
 42
1.2826833349
  0
ELLIPSE
  5
329
100
AcDbEntity
  8
0
100
AcDbEllipse
 62
7
  6
BYLAYER
 10
25.3687863316
 20
50.6799841719
 30
0.0
 11
4.8202466094
 21
4.8290275392
 31
0.0
 40
0.3449762775
 41
-4.3919404189
 42
-4.3906443533
  0
ELLIPSE
  5
32A
100
AcDbEntity
  8
0
100
AcDbEllipse
 62
7
  6
BYLAYER
 10
25.3687863316
 20
50.6799841719
 30
0.0
 11
-4.9473187448
 21
4.9553590018
 31
0.0
 40
0.2499440643
 41
-1.8054535721
 42
-1.8034566161
  0
ELLIPSE
  5
32B
100
AcDbEntity
  8
0
100
AcDbEllipse
 62
7
  6
BYLAYER
 10
25.3687863316
 20
50.6799841719
 30
0.0
 11
-4.9967138927
 21
5.0045018736
 31
0.0
 40
0.2040563545
 41
-1.761897254
 42
-1.7592813592
  0
ELLIPSE
  5
32C
100
AcDbEntity
  8
0
100
AcDbEllipse
 62
7
  6
BYLAYER
 10
25.3687863316
 20
50.6799841719
 30
0.0
 11
-6.6383580172
 21
6.6502686821
 31
0.0
 40
0.3339498651
 41
1.1955089208
 42
1.2391421521
  0
ELLIPSE
  5
32D
100
AcDbEntity
  8
0
100
AcDbEllipse
 62
7
  6
BYLAYER
 10
25.3687863316
 20
50.6799841719
 30
0.0
 11
4.7427897296
 21
4.7521011676
 31
0.0
 40
0.3945802962
 41
-4.3481922191
 42
-4.3471196856
  0
ELLIPSE
  5
32E
100
AcDbEntity
  8
0
100
AcDbEllipse
 62
7
  6
BYLAYER
 10
25.3687863316
 20
50.6799841719
 30
0.0
 11
-5.0365595245
 21
5.0441563655
 31
0.0
 40
0.1589790734
 41
-1.7183354108
 42
-1.7145965676
  0
ELLIPSE
  5
32F
100
AcDbEntity
  8
0
100
AcDbEllipse
 62
7
  6
BYLAYER
 10
25.3687863316
 20
50.6799841719
 30
0.0
 11
-5.0667840844
 21
5.0742427062
 31
0.0
 40
0.1145232537
 41
-1.6747696059
 42
-1.6539815714
  0
ELLIPSE
  5
330
100
AcDbEntity
  8
0
100
AcDbEllipse
 62
7
  6
BYLAYER
 10
25.3687863316
 20
50.6799841719
 30
0.0
 11
-6.5349039496
 21
6.5475032008
 31
0.0
 40
0.3831979662
 41
1.151980698
 42
1.1956139293
  0
ELLIPSE
  5
331
100
AcDbEntity
  8
0
100
AcDbEllipse
 62
7
  6
BYLAYER
 10
25.3687863316
 20
50.6799841719
 30
0.0
 11
4.6562194712
 21
4.6662140021
 31
0.0
 40
0.4459233868
 41
-4.3045082824
 42
-4.3036143545
  0
ELLIPSE
  5
332
100
AcDbEntity
  8
0
100
AcDbEllipse
 62
7
  6
BYLAYER
 10
25.3687863316
 20
50.6799841719
 30
0.0
 11
-5.087332942
 21
5.0947007248
 31
0.0
 40
0.070509795
 41
-1.6312011173
 42
-1.5938832937
  0
ELLIPSE
  5
333
100
AcDbEntity
  8
0
100
AcDbEllipse
 62
7
  6
BYLAYER
 10
25.3687863316
 20
50.6799841719
 30
0.0
 11
-6.4189003629
 21
6.4323840013
 31
0.0
 40
0.434122008
 41
1.1084703885
 42
1.1521036198
  0
ELLIPSE
  5
334
100
AcDbEntity
  8
0
100
AcDbEllipse
 62
7
  6
BYLAYER
 10
25.3687863316
 20
50.6799841719
 30
0.0
 11
-5.0981688005
 21
5.1054896614
 31
0.0
 40
0.0267664962
 41
-1.5876310428
 42
-1.5439978115
  0
ELLIPSE
  5
335
100
AcDbEntity
  8
0
100
AcDbEllipse
 62
7
  6
BYLAYER
 10
25.3687863316
 20
50.6799841719
 30
0.0
 11
5.0981688005
 21
5.1054896614
 31
0.0
 40
0.0267664962
 41
1.5439978115
 42
1.5876310428
  0
ELLIPSE
  5
336
100
AcDbEntity
  8
0
100
AcDbEllipse
 62
7
  6
BYLAYER
 10
25.3687863316
 20
50.6799841719
 30
0.0
 11
4.5606708039
 21
4.571559276
 31
0.0
 40
0.4993053872
 41
-4.2608825225
 42
-4.2601366246
  0
ELLIPSE
  5
337
100
AcDbEntity
  8
0
100
AcDbEllipse
 62
7
  6
BYLAYER
 10
25.3687863316
 20
50.6799841719
 30
0.0
 11
-6.2905311482
 21
6.3051670535
 31
0.0
 40
0.4870137667
 41
1.0649854668
 42
1.1086186981
  0
ELLIPSE
  5
338
100
AcDbEntity
  8
0
100
AcDbEllipse
 62
7
  6
BYLAYER
 10
25.3687863316
 20
50.6799841719
 30
0.0
 11
4.4562770691
 21
4.4683655583
 31
0.0
 40
0.5550666837
 41
-4.2173192982
 42
-4.216699857
  0
ELLIPSE
  5
339
100
AcDbEntity
  8
0
100
AcDbEllipse
 62
7
  6
BYLAYER
 10
25.3687863316
 20
50.6799841719
 30
0.0
 11
-6.1499813106
 21
6.1661536952
 31
0.0
 40
0.5422036784
 41
1.0215378483
 42
1.0651710796
  0
ELLIPSE
  5
33A
100
AcDbEntity
  8
0
100
AcDbEllipse
 62
7
  6
BYLAYER
 10
25.3687863316
 20
50.6799841719
 30
0.0
 11
4.3431524851
 21
4.3569134644
 31
0.0
 40
0.6135977546
 41
-4.1738358449
 42
-4.1733272521
  0
ELLIPSE
  5
33B
100
AcDbEntity
  8
0
100
AcDbEllipse
 62
7
  6
BYLAYER
 10
25.3687863316
 20
50.6799841719
 30
0.0
 11
-5.9974168173
 21
6.0157097548
 31
0.0
 40
0.6000699194
 41
0.9781478584
 42
1.0217810897
  0
ELLIPSE
  5
33C
100
AcDbEntity
  8
0
100
AcDbEllipse
 62
7
  6
BYLAYER
 10
25.3687863316
 20
50.6799841719
 30
0.0
 11
-5.8329387578
 21
5.8543100937
 31
0.0
 40
0.6610497746
 41
0.9348533594
 42
0.9784865907
  0
ELLIPSE
  5
33D
100
AcDbEntity
  8
0
100
AcDbEllipse
 62
7
  6
BYLAYER
 10
25.3687863316
 20
50.6799841719
 30
0.0
 11
-5.6564620859
 21
5.6826578387
 31
0.0
 40
0.7256540395
 41
0.8917340292
 42
0.9353672605
  0
ELLIPSE
  5
33E
100
AcDbEntity
  8
0
100
AcDbEllipse
 62
7
  6
BYLAYER
 10
25.3687863316
 20
50.6799841719
 30
0.0
 11
-5.4673167446
 21
5.5020781518
 31
0.0
 40
0.7944854502
 41
0.8489913761
 42
0.8926246074
  0
ELLIPSE
  5
33F
100
AcDbEntity
  8
0
100
AcDbEllipse
 62
7
  6
BYLAYER
 10
25.3687863316
 20
50.6799841719
 30
0.0
 11
-5.2623639074
 21
5.3163747112
 31
0.0
 40
0.8682622735
 41
0.8073262992
 42
0.8509595305
  0
ELLIPSE
  5
340
100
AcDbEntity
  8
0
100
AcDbEllipse
 62
7
  6
BYLAYER
 10
25.3687863316
 20
50.6799841719
 30
0.0
 11
-5.0155772056
 21
5.1517219753
 31
0.0
 40
0.9478443058
 41
0.7720085079
 42
0.8156417392
  0
ELLIPSE
  5
341
100
AcDbEntity
  8
0
100
AcDbEllipse
 62
7
  6
BYLAYER
 10
25.3687863316
 20
50.6799841719
 30
0.0
 11
-5.6147601467
 21
5.6424505175
 31
0.0
 40
0.7408567266
 41
-2.1961815261
 42
-2.1525482948
  0
ELLIPSE
  5
342
100
AcDbEntity
  8
0
100
AcDbEllipse
 62
7
  6
BYLAYER
 10
25.3687863316
 20
50.6799841719
 30
0.0
 11
5.9611896855
 21
5.9800773041
 31
0.0
 40
0.6135977546
 41
-4.2169604834
 42
-4.1733272521
  0
ELLIPSE
  5
343
100
AcDbEntity
  8
0
100
AcDbEllipse
 62
7
  6
BYLAYER
 10
25.3687863316
 20
50.6799841719
 30
0.0
 11
-5.7940113596
 21
5.8162803071
 31
0.0
 40
0.6753511535
 41
-2.1531222298
 42
-2.1094889985
  0
ELLIPSE
  5
344
100
AcDbEntity
  8
0
100
AcDbEllipse
 62
7
  6
BYLAYER
 10
25.3687863316
 20
50.6799841719
 30
0.0
 11
6.6160247579
 21
6.6280770146
 31
0.0
 40
0.3449762775
 41
-4.4342775846
 42
-4.3906443533
  0
ELLIPSE
  5
345
100
AcDbEntity
  8
0
100
AcDbEllipse
 62
7
  6
BYLAYER
 10
25.3687863316
 20
50.6799841719
 30
0.0
 11
5.7940113596
 21
5.8162803071
 31
0.0
 40
0.6753511535
 41
-4.1736963087
 42
-4.1300630774
  0
ELLIPSE
  5
346
100
AcDbEntity
  8
0
100
AcDbEllipse
 62
7
  6
BYLAYER
 10
25.3687863316
 20
50.6799841719
 30
0.0
 11
-5.9611896855
 21
5.9800773041
 31
0.0
 40
0.6135977546
 41
-2.1098580551
 42
-2.0662248238
  0
ELLIPSE
  5
347
100
AcDbEntity
  8
0
100
AcDbEllipse
 62
7
  6
BYLAYER
 10
25.3687863316
 20
50.6799841719
 30
0.0
 11
5.6147601467
 21
5.6424505175
 31
0.0
 40
0.7408567266
 41
-4.1306370124
 42
-4.0870037811
  0
ELLIPSE
  5
348
100
AcDbEntity
  8
0
100
AcDbEllipse
 62
7
  6
BYLAYER
 10
25.3687863316
 20
50.6799841719
 30
0.0
 11
6.5097113936
 21
6.5224917986
 31
0.0
 40
0.3945802962
 41
-4.3907529169
 42
-4.3471196856
  0
ELLIPSE
  5
349
100
AcDbEntity
  8
0
100
AcDbEllipse
 62
7
  6
BYLAYER
 10
25.3687863316
 20
50.6799841719
 30
0.0
 11
-6.1164587223
 21
6.1330507664
 31
0.0
 40
0.5550666837
 41
-2.0664854502
 42
-2.0228522189
  0
ELLIPSE
  5
34A
100
AcDbEntity
  8
0
100
AcDbEllipse
 62
7
  6
BYLAYER
 10
25.3687863316
 20
50.6799841719
 30
0.0
 11
5.4224896643
 21
5.4601959557
 31
0.0
 40
0.8107411185
 41
-4.0880405464
 42
-4.0444073151
  0
ELLIPSE
  5
34B
100
AcDbEntity
  8
0
100
AcDbEllipse
 62
7
  6
BYLAYER
 10
25.3687863316
 20
50.6799841719
 30
0.0
 11
3.6446693418
 21
3.7236060894
 31
0.0
 40
0.958051386
 41
-0.8175164498
 42
-0.8129720745
  0
ELLIPSE
  5
34C
100
AcDbEntity
  8
0
100
AcDbEllipse
 62
7
  6
BYLAYER
 10
25.3687863316
 20
50.6799841719
 30
0.0
 11
-6.2597442407
 21
6.2746892024
 31
0.0
 40
0.4993053872
 41
-2.0230486825
 42
-1.9794154512
  0
ELLIPSE
  5
34D
100
AcDbEntity
  8
0
100
AcDbEllipse
 62
7
  6
BYLAYER
 10
25.3687863316
 20
50.6799841719
 30
0.0
 11
6.3908894703
 21
6.4046074538
 31
0.0
 40
0.4459233868
 41
1.9359377214
 42
1.9795709527
  0
ELLIPSE
  5
34E
100
AcDbEntity
  8
0
100
AcDbEllipse
 62
7
  6
BYLAYER
 10
25.3687863316
 20
50.6799841719
 30
0.0
 11
3.8212142581
 21
3.8483355009
 31
0.0
 40
0.8776835334
 41
-0.8494096461
 42
-0.8440477719
  0
ELLIPSE
  5
34F
100
AcDbEntity
  8
0
100
AcDbEllipse
 62
7
  6
BYLAYER
 10
25.3687863316
 20
50.6799841719
 30
0.0
 11
5.212563825
 21
5.2748031724
 31
0.0
 40
0.8857526005
 41
-4.0469086388
 42
-4.0032754075
  0
ELLIPSE
  5
350
100
AcDbEntity
  8
0
100
AcDbEllipse
 62
7
  6
BYLAYER
 10
25.3687863316
 20
50.6799841719
 30
0.0
 11
-6.3908894703
 21
6.4046074538
 31
0.0
 40
0.4459233868
 41
4.3036143545
 42
4.3472475858
  0
ELLIPSE
  5
351
100
AcDbEntity
  8
0
100
AcDbEllipse
 62
7
  6
BYLAYER
 10
25.3687863316
 20
50.6799841719
 30
0.0
 11
-5.212563825
 21
5.2748031724
 31
0.0
 40
0.8857526005
 41
-2.2799098997
 42
-2.2362766684
  0
ELLIPSE
  5
352
100
AcDbEntity
  8
0
100
AcDbEllipse
 62
7
  6
BYLAYER
 10
25.3687863316
 20
50.6799841719
 30
0.0
 11
6.2597442407
 21
6.2746892024
 31
0.0
 40
0.4993053872
 41
-4.3037698559
 42
-4.2601366246
  0
ELLIPSE
  5
353
100
AcDbEntity
  8
0
100
AcDbEllipse
 62
7
  6
BYLAYER
 10
25.3687863316
 20
50.6799841719
 30
0.0
 11
4.9282361724
 21
5.1419756338
 31
0.0
 40
0.9667812598
 41
-4.0185938284
 42
-3.9749605971
  0
ELLIPSE
  5
354
100
AcDbEntity
  8
0
100
AcDbEllipse
 62
7
  6
BYLAYER
 10
25.3687863316
 20
50.6799841719
 30
0.0
 11
-6.5097113936
 21
6.5224917986
 31
0.0
 40
0.3945802962
 41
-1.9360656216
 42
-1.8924323903
  0
ELLIPSE
  5
355
100
AcDbEntity
  8
0
100
AcDbEllipse
 62
7
  6
BYLAYER
 10
25.3687863316
 20
50.6799841719
 30
0.0
 11
-4.9282361724
 21
5.1419756338
 31
0.0
 40
0.9667812598
 41
-2.3135705485
 42
-2.2645914788
  0
ELLIPSE
  5
356
100
AcDbEntity
  8
0
100
AcDbEllipse
 62
7
  6
BYLAYER
 10
25.3687863316
 20
50.6799841719
 30
0.0
 11
-5.4224896643
 21
5.4601959557
 31
0.0
 40
0.8107411185
 41
-2.238777992
 42
-2.1951447607
  0
ELLIPSE
  5
357
100
AcDbEntity
  8
0
100
AcDbEllipse
 62
7
  6
BYLAYER
 10
25.3687863316
 20
50.6799841719
 30
0.0
 11
-6.6160247579
 21
6.6280770146
 31
0.0
 40
0.3449762775
 41
-1.8925409539
 42
-1.8489077226
  0
ELLIPSE
  5
358
100
AcDbEntity
  8
0
100
AcDbEllipse
 62
7
  6
BYLAYER
 10
25.3687863316
 20
50.6799841719
 30
0.0
 11
6.1164587223
 21
6.1330507664
 31
0.0
 40
0.5550666837
 41
-4.2603330883
 42
-4.216699857
  0
ENDSEC
  0
SECTION
  2
OBJECTS
  0
DICTIONARY
  5
C
100
AcDbDictionary
280
0
281
1
  3
ACAD_GROUP
350
D
  3
ACAD_MLINESTYLE
350
17
  3
ACAD_LAYOUT
350
1A
  3
ACAD_PLOTSETTINGS
350
19
  3
ACAD_PLOTSTYLENAME
350
E
  0
DICTIONARY
  5
D
102
{ACAD_REACTORS
330
C
102
}
100
AcDbDictionary
280
0
281
1
  0
ACDBDICTIONARYWDFLT
  5
E
102
{ACAD_REACTORS
330
C
102
}
100
AcDbDictionary
281
1
  3
Normal
350
F
100
AcDbDictionaryWithDefault
340
F
  0
DICTIONARY
  5
17
102
{ACAD_REACTORS
330
C
102
}
100
AcDbDictionary
280
0
281
1
  3
Standard
350
18
  0
DICTIONARY
  5
19
102
{ACAD_REACTORS
330
C
102
}
100
AcDbDictionary
281
1
  0
DICTIONARY
  5
1A
102
{ACAD_REACTORS
330
C
102
}
100
AcDbDictionary
281
1
  3
Model
350
359
  3
Layout1
350
35A
  0
ACDBPLACEHOLDER
  5
F
102
{ACAD_REACTORS
330
E
102
}
  0
MLINESTYLE
  5
18
102
{ACAD_REACTORS
330
17
102
}
100
AcDbMlineStyle
  2
STANDARD
 70
0
  3

 62
256
 51
90.0
 52
90.0
 71
2
 49
0.5
 62
256
  6
BYLAYER
 49
-0.5
 62
256
  6
BYLAYER
  0
LAYOUT
  5
359
102
{ACAD_REACTORS
330
1A
102
}
100
AcDbPlotSettings
  1

  2
none_device
  4

  6

 40
0.0
 41
0.0
 42
0.0
 43
0.0
 44
210.0
 45
297.0
 46
0.0
 47
0.0
 48
0.0
 49
0.0
140
0.0
141
0.0
142
1.0
143
1.0
 70
1024
 72
1
 73
0
 74
0
  7

 75
0
147
1.0
148
0.0
149
0.0
100
AcDbLayout
  1
Model
 70
0
 71
0
 10
0.0
 20
0.0
 11
210.0
 21
297.0
 12
0.0
 22
0.0
 32
0.0
 14
0.0
 24
0.0
 34
0.0
 15
0.0
 25
0.0
 35
0.0
146
0.0
 13
0.0
 23
0.0
 33
0.0
 16
1.0
 26
0.0
 36
0.0
 17
0.0
 27
1.0
 37
0.0
 76
0
330
210
345
0
346
0
  0
LAYOUT
  5
35A
102
{ACAD_REACTORS
330
1A
102
}
100
AcDbPlotSettings
  1

  2
none_device
  4

  6

 40
0.0
 41
0.0
 42
0.0
 43
0.0
 44
210.0
 45
297.0
 46
0.0
 47
0.0
 48
0.0
 49
0.0
140
0.0
141
0.0
142
1.0
143
1.0
 70
0
 72
1
 73
0
 74
0
  7

 75
0
147
1.0
148
0.0
149
0.0
100
AcDbLayout
  1
Layout1
 70
0
 71
1
 10
0.0
 20
0.0
 11
210.0
 21
297.0
 12
0.0
 22
0.0
 32
0.0
 14
0.0
 24
0.0
 34
0.0
 15
0.0
 25
0.0
 35
0.0
146
0.0
 13
0.0
 23
0.0
 33
0.0
 16
1.0
 26
0.0
 36
0.0
 17
0.0
 27
1.0
 37
0.0
 76
0
330
211
345
0
346
0
  0
ENDSEC
  0
EOF
