999
DXF file: C:\Users\sesa63760\Dev\_Creo\CAD\MCADID0004551_3D-CAD\drw0001_3.dxf
999
Pro/ENGINEER 2019471 by Parametric Technology Corporation
  0
SECTION
  2
HEADER
  9
$ACADVER
  1
AC1024
  9
$DWGCODEPAGE
  3
ANSI_1252
  9
$EXTMAX
 10
22.7532450757
 20
32.1795894642
 30
0.0
  9
$EXTMIN
 10
0.0
 20
0.0
 30
0.0
  9
$LIMMIN
 10
0.0
 20
0.0
  9
$LIMMAX
 10
22.7532450757
 20
32.1795894642
  9
$VIEWCTR
 10
11.3766225378
 20
16.0897947321
  9
$VIEWSIZE
 40
32.1795894642
  9
$CLAYER
  8
0
  9
$LTSCALE
 40
2.0976324984
  9
$CELTYPE
  6
BYLAYER
  9
$DIMSCALE
 40
1.0
  9
$DIMASZ
 40
0.2708719652
  9
$DIMEXO
 40
1.0
  9
$DIMDLI
 40
1.4492733625
  9
$DIMEXE
 40
1.0
  9
$DIMCEN
 40
0.3432489543
  9
$DIMLFAC
 40
1.0
  9
$DIMBLK
  1
_FILLED
  9
$DIMALT
 70
0
  9
$DIMALTF
 40
0.0393700787
  9
$DIMTXT
 40
0.3792207513
  9
$DIMTOL
 70
1
  9
$DIMLIM
 70
0
  9
$DIMTFAC
 40
1.0
  9
$DIMTP
 40
0.01
  9
$DIMTM
 40
0.01
  9
$DIMGAP
 40
0.625
  9
$DIMDSEP
 70
46
  9
$AUNITS
 70
0
  9
$PDMODE
 70
3
  9
$PDSIZE
 40
0.3125
  9
$HANDSEED
  5
22A
  9
$TILEMODE
 70
1
  9
$MEASUREMENT
 70
1
  9
$INSUNITS
 70
4
  0
ENDSEC
  0
SECTION
  2
CLASSES
  0
CLASS
  1
ACDBDICTIONARYWDFLT
  2
AcDbDictionaryWithDefault
  3
AutoCAD 2000
 90
0
 91
1
280
0
281
0
  0
CLASS
  1
ACDBPLACEHOLDER
  2
AcDbPlaceHolder
  3
AutoCAD 2000
 90
0
 91
1
280
0
281
0
  0
CLASS
  1
LAYOUT
  2
AcDbLayout
  3
AutoCAD 2000
 90
0
 91
0
280
0
281
0
  0
ENDSEC
  0
SECTION
  2
TABLES
  0
TABLE
  2
VPORT
  5
8
100
AcDbSymbolTable
 70
2
  0
VPORT
  5
1F4
100
AcDbSymbolTableRecord
100
AcDbViewportTableRecord
  2
*ACTIVE
 70
0
 10
0.0
 20
0.0
 11
1.0
 21
1.0
 12
11.3766225378
 22
16.0897947321
 13
0.0
 23
0.0
 14
1.0
 24
1.0
 15
0.0
 25
0.0
 16
0.0
 26
0.0
 36
1.0
 17
0.0
 27
0.0
 37
0.0
 40
32.1795894642
 41
0.7070707071
 42
50.0
 43
0.0
 44
0.0
 50
0.0
 51
0.0
 71
0
 72
100
 73
1
 74
1
 75
0
 76
0
 77
0
 78
0
  0
ENDTAB
  0
TABLE
  2
LTYPE
  5
5
100
AcDbSymbolTable
 70
6
  0
LTYPE
  5
14
100
AcDbSymbolTableRecord
100
AcDbLinetypeTableRecord
  2
BYBLOCK
 70
0
  3

 72
65
 73
0
 40
0.0
  0
LTYPE
  5
15
100
AcDbSymbolTableRecord
100
AcDbLinetypeTableRecord
  2
BYLAYER
 70
0
  3

 72
65
 73
0
 40
0.0
  0
LTYPE
  5
16
100
AcDbSymbolTableRecord
100
AcDbLinetypeTableRecord
  2
CONTINUOUS
 70
64
  3
Solid line
 72
65
 73
0
 40
0.0
  0
LTYPE
  5
1F5
100
AcDbSymbolTableRecord
100
AcDbLinetypeTableRecord
  2
CENTER
 70
64
  3
____ _ ____ _ ____ _ ____ _ ____ _ ____ _ ____
 72
65
 73
4
 40
0.6
 49
0.375
 74
0
 49
-0.075
 74
0
 49
0.075
 74
0
 49
-0.075
 74
0
  0
LTYPE
  5
1F6
100
AcDbSymbolTableRecord
100
AcDbLinetypeTableRecord
  2
HIDDEN
 70
64
  3
- - - - - - - - - - - - - - - - - - - -
 72
65
 73
2
 40
0.2
 49
0.1
 74
0
 49
-0.1
 74
0
  0
LTYPE
  5
1F7
100
AcDbSymbolTableRecord
100
AcDbLinetypeTableRecord
  2
PHANTOM
 70
64
  3
_____ _ _ _____ _ _ _____ _ _ _____
 72
65
 73
6
 40
0.8
 49
0.45
 74
0
 49
-0.05
 74
0
 49
0.1
 74
0
 49
-0.05
 74
0
 49
0.1
 74
0
 49
-0.05
 74
0
  0
LTYPE
  5
1F8
100
AcDbSymbolTableRecord
100
AcDbLinetypeTableRecord
  2
DOT
 70
64
  3
. . . . . . . . . . . . . . . . . . . .
 72
65
 73
2
 40
0.2
 49
0.1
 74
0
 49
-0.1
 74
0
  0
LTYPE
  5
1F9
100
AcDbSymbolTableRecord
100
AcDbLinetypeTableRecord
  2
DASHED
 70
64
  3
- - - - - - - - - - - - - - - - - - - -
 72
65
 73
2
 40
0.2
 49
0.1
 74
0
 49
-0.1
 74
0
  0
ENDTAB
  0
TABLE
  2
LAYER
  5
2
100
AcDbSymbolTable
 70
36
  0
LAYER
  5
10
100
AcDbSymbolTableRecord
100
AcDbLayerTableRecord
  2
0
 70
0
 62
7
  6
CONTINUOUS
370
-3
390
F
  0
LAYER
  5
1FA
100
AcDbSymbolTableRecord
100
AcDbLayerTableRecord
  2
DEFAULT_1
 70
0
 62
7
  6
CENTER
370
-3
390
F
  0
LAYER
  5
1FB
100
AcDbSymbolTableRecord
100
AcDbLayerTableRecord
  2
DEFAULT_2
 70
0
 62
7
  6
HIDDEN
370
-3
390
F
  0
LAYER
  5
1FC
100
AcDbSymbolTableRecord
100
AcDbLayerTableRecord
  2
DEFAULT_3
 70
0
 62
7
  6
PHANTOM
370
-3
390
F
  0
LAYER
  5
1FD
100
AcDbSymbolTableRecord
100
AcDbLayerTableRecord
  2
00_COMPONENTS
 70
0
 62
7
  6
CONTINUOUS
370
-3
390
F
  0
LAYER
  5
1FE
100
AcDbSymbolTableRecord
100
AcDbLayerTableRecord
  2
01_1_DEFAULT_DATUMS
 70
0
 62
7
  6
CONTINUOUS
370
-3
390
F
  0
LAYER
  5
1FF
100
AcDbSymbolTableRecord
100
AcDbLayerTableRecord
  2
01_PLANES
 70
0
 62
7
  6
CONTINUOUS
370
-3
390
F
  0
LAYER
  5
200
100
AcDbSymbolTableRecord
100
AcDbLayerTableRecord
  2
02_COORD_SYS
 70
0
 62
7
  6
CONTINUOUS
370
-3
390
F
  0
LAYER
  5
201
100
AcDbSymbolTableRecord
100
AcDbLayerTableRecord
  2
03_AXES
 70
0
 62
7
  6
CONTINUOUS
370
-3
390
F
  0
LAYER
  5
202
100
AcDbSymbolTableRecord
100
AcDbLayerTableRecord
  2
04_POINTS
 70
0
 62
7
  6
CONTINUOUS
370
-3
390
F
  0
LAYER
  5
203
100
AcDbSymbolTableRecord
100
AcDbLayerTableRecord
  2
05_CURVES
 70
0
 62
7
  6
CONTINUOUS
370
-3
390
F
  0
LAYER
  5
204
100
AcDbSymbolTableRecord
100
AcDbLayerTableRecord
  2
06_SURFS
 70
0
 62
7
  6
CONTINUOUS
370
-3
390
F
  0
LAYER
  5
205
100
AcDbSymbolTableRecord
100
AcDbLayerTableRecord
  2
07_COSMETICS
 70
0
 62
7
  6
CONTINUOUS
370
-3
390
F
  0
LAYER
  5
206
100
AcDbSymbolTableRecord
100
AcDbLayerTableRecord
  2
10_NOTES
 70
0
 62
7
  6
CONTINUOUS
370
-3
390
F
  0
LAYER
  5
207
100
AcDbSymbolTableRecord
100
AcDbLayerTableRecord
  2
11_NOTES_PUB
 70
0
 62
7
  6
CONTINUOUS
370
-3
390
F
  0
LAYER
  5
208
100
AcDbSymbolTableRecord
100
AcDbLayerTableRecord
  2
13_REF_GTOL
 70
0
 62
7
  6
CONTINUOUS
370
-3
390
F
  0
LAYER
  5
209
100
AcDbSymbolTableRecord
100
AcDbLayerTableRecord
  2
16_MISC
 70
0
 62
7
  6
CONTINUOUS
370
-3
390
F
  0
LAYER
  5
20A
100
AcDbSymbolTableRecord
100
AcDbLayerTableRecord
  2
17_NO_PRINT
 70
0
 62
7
  6
CONTINUOUS
370
-3
390
F
  0
LAYER
  5
20B
100
AcDbSymbolTableRecord
100
AcDbLayerTableRecord
  2
18_DATUM_CAMS_JOINTS
 70
0
 62
7
  6
CONTINUOUS
370
-3
390
F
  0
LAYER
  5
20C
100
AcDbSymbolTableRecord
100
AcDbLayerTableRecord
  2
19_DATUM_FUNCTIONAL
 70
0
 62
7
  6
CONTINUOUS
370
-3
390
F
  0
LAYER
  5
20D
100
AcDbSymbolTableRecord
100
AcDbLayerTableRecord
  2
20_DATUM_KINEMATIC_SCHEME
 70
0
 62
7
  6
CONTINUOUS
370
-3
390
F
  0
ENDTAB
  0
TABLE
  2
STYLE
  5
3
100
AcDbSymbolTable
 70
1
  0
STYLE
  5
11
100
AcDbSymbolTableRecord
100
AcDbTextStyleTableRecord
  2
STANDARD
 70
0
 40
0.0
 41
1.0
 50
0.0
 71
0
 42
0.2
  3
ARIAL.TTF
  4

  0
STYLE
  5
20E
100
AcDbSymbolTableRecord
100
AcDbTextStyleTableRecord
  2
TEXTSTYLE_1
 70
0
 40
0.0
 41
0.8
 50
0.0
 71
0
 42
0.2
  3
gdt
  4

  0
ENDTAB
  0
TABLE
  2
VIEW
  5
6
100
AcDbSymbolTable
 70
0
  0
ENDTAB
  0
TABLE
  2
UCS
  5
7
100
AcDbSymbolTable
 70
0
  0
ENDTAB
  0
TABLE
  2
APPID
  5
9
100
AcDbSymbolTable
 70
1
  0
APPID
  5
20F
100
AcDbSymbolTableRecord
100
AcDbRegAppTableRecord
  2
ACAD
 70
0
  0
ENDTAB
  0
TABLE
  2
BLOCK_RECORD
  5
1
100
AcDbSymbolTable
 70
0
  0
BLOCK_RECORD
  5
210
100
AcDbSymbolTableRecord
100
AcDbBlockTableRecord
  2
*Model_Space
  0
BLOCK_RECORD
  5
211
100
AcDbSymbolTableRecord
100
AcDbBlockTableRecord
  2
*Paper_Space
  0
BLOCK_RECORD
  5
212
100
AcDbSymbolTableRecord
100
AcDbBlockTableRecord
  2
_FILLED
  0
ENDTAB
  0
TABLE
  2
DIMSTYLE
  5
A
100
AcDbSymbolTable
 70
1
100
AcDbDimStyleTable
 71
0
  0
DIMSTYLE
105
213
100
AcDbSymbolTableRecord
100
AcDbDimStyleTableRecord
  2
STANDARD
 70
0
  3

  4

 40
1.0
 41
0.2708719652
 42
1.0
 43
0.38
 44
1.0
 45
0.0
 46
0.0
 47
0.01
 48
0.01
140
0.3792207513
141
0.09
142
0.0
143
25.4
144
1.0
145
0.0
146
1.0
147
0.625
 71
1
 72
0
 73
0
 74
0
 75
0
 76
0
 77
1
 78
8
 79
2
170
0
171
1
172
0
173
0
174
0
175
0
176
0
177
0
178
0
270
2
179
2
271
2
272
2
273
2
274
2
275
0
280
0
281
0
282
0
283
1
284
8
285
0
286
0
287
3
288
0
340
11
278
46
341
212
342
212
343
212
344
212
  0
ENDTAB
  0
ENDSEC
  0
SECTION
  2
BLOCKS
  0
BLOCK
  5
20
100
AcDbEntity
  8
0
100
AcDbBlockBegin
  2
*Model_Space
 70
0
 10
0.0
 20
0.0
 30
0.0
  3
*Model_Space
  1

  0
ENDBLK
  5
21
100
AcDbEntity
  8
0
100
AcDbBlockEnd
  0
BLOCK
  5
1C
100
AcDbEntity
  8
0
100
AcDbBlockBegin
  2
*Paper_Space
 70
0
 10
0.0
 20
0.0
 30
0.0
  3
*Paper_Space
  1

  0
ENDBLK
  5
1D
100
AcDbEntity
  8
0
100
AcDbBlockEnd
  0
BLOCK
  5
214
100
AcDbEntity
  8
0
100
AcDbBlockBegin
  2
_FILLED
 70
64
 10
0.0
 20
0.0
  3
_FILLED
  1

  0
SOLID
  5
215
100
AcDbEntity
  8
0
  6
BYBLOCK
 62
0
100
AcDbTrace
 10
0.0
 20
0.0
 11
-1.0
 21
0.25
 12
-1.0
 22
-0.25
 13
-1.0
 23
-0.25
  0
ENDBLK
  5
216
100
AcDbEntity
  8
0
  6
BYBLOCK
 62
0
100
AcDbBlockEnd
  0
ENDSEC
  0
SECTION
  2
ENTITIES
  0
LINE
  5
217
100
AcDbEntity
  8
0
100
AcDbLine
 62
7
  6
BYLAYER
 10
14.3035520109
 20
8.6069527543
 11
4.1300570362
 21
18.780447729
  0
LINE
  5
218
100
AcDbEntity
  8
0
100
AcDbLine
 62
7
  6
BYLAYER
 10
16.474549268
 20
23.0739447044
 11
18.5204837303
 21
21.266637914
  0
LWPOLYLINE
  5
219
100
AcDbEntity
  8
0
100
AcDbPolyline
 62
7
  6
BYLAYER
 90
3
 70
0
 10
18.5204837303
 20
21.266637914
 10
19.8969349415
 20
18.8843920816
 10
20.4550647175
 20
16.1685739758
  0
ARC
  5
21A
100
AcDbEntity
  8
0
100
AcDbCircle
 62
7
  6
BYLAYER
 10
11.6916782577
 20
16.1685739758
 40
9.0
100
AcDbArc
 50
32.844081062
 51
46.6497327949
  0
ARC
  5
21B
100
AcDbEntity
  8
0
100
AcDbCircle
 62
7
  6
BYLAYER
 10
11.6916782577
 20
16.1685739758
 40
9.0
100
AcDbArc
 50
51.3707708204
 51
67.9470900596
  0
ARC
  5
21C
100
AcDbEntity
  8
0
100
AcDbCircle
 62
7
  6
BYLAYER
 10
11.6916782577
 20
16.1685739758
 40
9.0
100
AcDbArc
 50
70.0261605675
 51
25.537457763
  0
ARC
  5
21D
100
AcDbEntity
  8
0
100
AcDbCircle
 62
7
  6
BYLAYER
 10
11.6916782577
 20
16.1685739758
 40
8.4
100
AcDbArc
 50
55.2923418551
 51
349.7063381257
  0
ARC
  5
21E
100
AcDbEntity
  8
0
100
AcDbCircle
 62
7
  6
BYLAYER
 10
11.6941250906
 20
16.1666077313
 40
8.3893795839
100
AcDbArc
 50
352.4587614471
 51
22.4987163076
  0
ARC
  5
21F
100
AcDbEntity
  8
0
100
AcDbCircle
 62
7
  6
BYLAYER
 10
11.7099671009
 20
16.1832411873
 40
8.368522172
100
AcDbArc
 50
22.4350065959
 51
53.7179039096
  0
CIRCLE
  5
220
100
AcDbEntity
  8
0
100
AcDbCircle
 62
7
  6
BYLAYER
 10
11.6916782577
 20
16.1685739758
 40
8.0
  0
SPLINE
  5
221
100
AcDbEntity
  8
0
100
AcDbSpline
 62
7
  6
BYLAYER
 70
0
 71
3
 72
15
 73
11
 74
0
 42
0.0000001
 43
0.0000001
 44
0.0000000001
 40
0.0
 40
0.0
 40
0.0
 40
0.0
 40
0.2498992227
 40
0.3749122893
 40
0.4999261574
 40
0.6249411854
 40
0.6874534354
 40
0.7499665742
 40
0.8749890653
 40
1.0
 40
1.0
 40
1.0
 40
1.0
 10
19.3934096691
 20
19.3596135931
 30
0.0
 10
19.5377842128
 20
19.0095429791
 30
0.0
 10
19.7208140204
 20
18.469537347
 30
0.0
 10
19.8936941558
 20
17.7316205062
 30
0.0
 10
19.987302535
 20
17.1706522747
 30
0.0
 10
20.0347540109
 20
16.6990730753
 30
0.0
 10
20.0537395333
 20
16.3205992048
 30
0.0
 10
20.0601191282
 20
15.9416925329
 30
0.0
 10
20.0452720892
 20
15.4679986624
 30
0.0
 10
20.0105390272
 20
15.0904705089
 30
0.0
 10
19.9878371788
 20
14.9024062027
 30
0.0
  0
SPLINE
  5
222
100
AcDbEntity
  8
0
100
AcDbSpline
 62
7
  6
BYLAYER
 70
0
 71
3
 72
11
 73
7
 74
0
 42
0.0000001
 43
0.0000001
 44
0.0000000001
 40
0.0
 40
0.0
 40
0.0
 40
0.0
 40
0.2499949292
 40
0.5000003286
 40
0.7500034446
 40
1.0
 40
1.0
 40
1.0
 40
1.0
 10
19.9878371788
 20
14.9024062027
 30
0.0
 10
19.9855283527
 20
14.8827968596
 30
0.0
 10
19.9799419867
 20
14.8436982221
 30
0.0
 10
19.9716868134
 20
14.7850409885
 30
0.0
 10
19.9643077573
 20
14.7262660889
 30
0.0
 10
19.9593319759
 20
14.6870872965
 30
0.0
 10
19.956478672
 20
14.6675496215
 30
0.0
  0
SPLINE
  5
223
100
AcDbEntity
  8
0
100
AcDbSpline
 62
7
  6
BYLAYER
 70
0
 71
3
 72
37
 73
33
 74
0
 42
0.0000001
 43
0.0000001
 44
0.0000000001
 40
0.0
 40
0.0
 40
0.0
 40
0.0
 40
0.0312424478
 40
0.0625104238
 40
0.0937672357
 40
0.1250178476
 40
0.1562718705
 40
0.1875266968
 40
0.2187793639
 40
0.2500328581
 40
0.2812867836
 40
0.3125395984
 40
0.3437939219
 40
0.3750478646
 40
0.4063017781
 40
0.437555406
 40
0.4688092479
 40
0.5000642618
 40
0.5313178721
 40
0.5625715145
 40
0.5938256781
 40
0.6250788131
 40
0.6563324233
 40
0.6875865409
 40
0.7188411332
 40
0.7500960181
 40
0.7813491957
 40
0.812603547
 40
0.843858325
 40
0.8751114805
 40
0.9375541616
 40
1.0
 40
1.0
 40
1.0
 40
1.0
 10
19.956478672
 20
14.6675496215
 30
0.0
 10
19.9126725552
 20
14.4076339972
 30
0.0
 10
19.8000198998
 20
13.8914673806
 30
0.0
 10
19.5589973215
 20
13.1368359556
 30
0.0
 10
19.24817357
 20
12.4080172111
 30
0.0
 10
18.8702736063
 20
11.7117581861
 30
0.0
 10
18.4285223391
 20
11.0541886567
 30
0.0
 10
17.9275608622
 20
10.4405381086
 30
0.0
 10
17.3718816205
 20
9.8759602911
 30
0.0
 10
16.7661951346
 20
9.3654088484
 30
0.0
 10
16.1155627542
 20
8.9134851368
 30
0.0
 10
15.4252200128
 20
8.5248824951
 30
0.0
 10
14.7015067043
 20
8.2027159305
 30
0.0
 10
13.9509753333
 20
7.9492599266
 30
0.0
 10
13.1802686846
 20
7.7661697015
 30
0.0
 10
12.3959786902
 20
7.654848701
 30
0.0
 10
11.604755319
 20
7.6161868856
 30
0.0
 10
10.8133412117
 20
7.6509372567
 30
0.0
 10
10.0285611196
 20
7.7590604554
 30
0.0
 10
9.2573577041
 20
7.9401387378
 30
0.0
 10
8.5061744322
 20
8.1915628294
 30
0.0
 10
7.7812241447
 20
8.5108193706
 30
0.0
 10
7.0884563644
 20
8.8949263439
 30
0.0
 10
6.4336488868
 20
9.3407148487
 30
0.0
 10
5.8225430884
 20
9.844779892
 30
0.0
 10
5.2604613965
 20
10.402990451
 30
0.0
 10
4.7524739136
 20
11.0108459783
 30
0.0
 10
4.3025937099
 20
11.6628329176
 30
0.0
 10
3.9139523226
 20
12.3531166791
 30
0.0
 10
3.4815669822
 20
13.3158714629
 30
0.0
 10
3.107695902
 20
14.5868961672
 30
0.0
 10
2.9985003875
 20
15.6417715046
 30
0.0
 10
2.9928185155
 20
16.1685739758
 30
0.0
  0
SPLINE
  5
224
100
AcDbEntity
  8
0
100
AcDbSpline
 62
7
  6
BYLAYER
 70
0
 71
3
 72
39
 73
35
 74
0
 42
0.0000001
 43
0.0000001
 44
0.0000000001
 40
0.0
 40
0.0
 40
0.0
 40
0.0
 40
0.0312401168
 40
0.0625049771
 40
0.0937582468
 40
0.1250071568
 40
0.1562592683
 40
0.1718896053
 40
0.187519781
 40
0.2187720786
 40
0.2500240615
 40
0.2812761108
 40
0.3125280848
 40
0.3437798034
 40
0.3750321107
 40
0.4062833087
 40
0.4375340509
 40
0.4687865405
 40
0.5000386505
 40
0.5312910781
 40
0.5625433866
 40
0.5937953579
 40
0.6250477833
 40
0.6562989152
 40
0.6875509734
 40
0.7188033612
 40
0.7500545477
 40
0.7813051219
 40
0.8125555523
 40
0.8438077367
 40
0.8750589556
 40
0.9063056792
 40
0.9375610139
 40
1.0
 40
1.0
 40
1.0
 40
1.0
 10
2.9928185155
 20
16.1685739758
 30
0.0
 10
2.9898536546
 20
16.4434650841
 30
0.0
 10
3.0103371186
 20
16.9940971239
 30
0.0
 10
3.1186571962
 20
17.8131731922
 30
0.0
 10
3.3033715017
 20
18.6186323191
 30
0.0
 10
3.5626728576
 20
19.4030880869
 30
0.0
 10
3.839330277
 20
20.0337258852
 30
0.0
 10
4.0955973626
 20
20.5206902498
 30
0.0
 10
4.3748215969
 20
20.9948669826
 30
0.0
 10
4.7656625328
 20
21.5619089111
 30
0.0
 10
5.2967169557
 20
22.1948714436
 30
0.0
 10
5.8848212339
 20
22.7752338514
 30
0.0
 10
6.5244455939
 20
23.2982320485
 30
0.0
 10
7.2099417235
 20
23.7594874974
 30
0.0
 10
7.9354976636
 20
24.1547419792
 30
0.0
 10
8.6948925103
 20
24.4803263599
 30
0.0
 10
9.4817203789
 20
24.7325030959
 30
0.0
 10
10.2886958422
 20
24.9098414839
 30
0.0
 10
11.108680436
 20
25.0112509103
 30
0.0
 10
11.9345153655
 20
25.0364301828
 30
0.0
 10
12.7591456658
 20
24.9852022307
 30
0.0
 10
13.5755050408
 20
24.8578662046
 30
0.0
 10
14.3764588368
 20
24.6550556831
 30
0.0
 10
15.1549715549
 20
24.3782968892
 30
0.0
 10
15.9041455566
 20
24.0298895042
 30
0.0
 10
16.6179260344
 20
23.6138112852
 30
0.0
 10
17.2904558543
 20
23.1339393674
 30
0.0
 10
17.9161615644
 20
22.5944662136
 30
0.0
 10
18.4897372547
 20
21.9998352384
 30
0.0
 10
19.0058609521
 20
21.3546772827
 30
0.0
 10
19.4600383466
 20
20.6645716281
 30
0.0
 10
19.847955937
 20
19.9349833507
 30
0.0
 10
20.273371397
 20
18.9201065953
 30
0.0
 10
20.4885458996
 20
18.1179123621
 30
0.0
 10
20.5809057571
 20
17.5762793655
 30
0.0
  0
SPLINE
  5
225
100
AcDbEntity
  8
0
100
AcDbSpline
 62
7
  6
BYLAYER
 70
0
 71
3
 72
17
 73
13
 74
0
 42
0.0000001
 43
0.0000001
 44
0.0000000001
 40
0.0
 40
0.0
 40
0.0
 40
0.0
 40
0.125004139
 40
0.1875263391
 40
0.250044669
 40
0.3125531693
 40
0.3750600107
 40
0.4375738612
 40
0.5000906188
 40
0.6251012374
 40
0.7501103455
 40
1.0
 40
1.0
 40
1.0
 40
1.0
 10
16.6627884469
 20
22.9300454992
 30
0.0
 10
16.8113435726
 20
22.8126043068
 30
0.0
 10
17.0289755541
 20
22.6296839876
 30
0.0
 10
17.3085524868
 20
22.3740604533
 30
0.0
 10
17.5130013077
 20
22.1767073815
 30
0.0
 10
17.7114528309
 20
21.973350064
 30
0.0
 10
17.9031368018
 20
21.7636004221
 30
0.0
 10
18.0875297499
 20
21.5473901972
 30
0.0
 10
18.3234658967
 20
21.2509816913
 30
0.0
 10
18.5993750924
 20
20.8656963629
 30
0.0
 10
18.9982890226
 20
20.2215222309
 30
0.0
 10
19.2490780724
 20
19.709580072
 30
0.0
 10
19.3934096691
 20
19.3596135931
 30
0.0
  0
SPLINE
  5
226
100
AcDbEntity
  8
0
100
AcDbSpline
 62
7
  6
BYLAYER
 70
0
 71
3
 72
11
 73
7
 74
0
 42
0.0000001
 43
0.0000001
 44
0.0000000001
 40
0.0
 40
0.0
 40
0.0
 40
0.0
 40
0.2499925896
 40
0.4999911283
 40
0.7499927578
 40
1.0
 40
1.0
 40
1.0
 40
1.0
 10
20.4550647175
 20
16.1685739758
 30
0.0
 10
20.4750280157
 20
15.7040344228
 30
0.0
 10
20.4407122474
 20
14.7700899046
 30
0.0
 10
20.1689578232
 20
13.3961807461
 30
0.0
 10
19.6854630519
 20
12.0817915239
 30
0.0
 10
19.2301820663
 20
11.2657939486
 30
0.0
 10
18.9728312071
 20
10.8785067052
 30
0.0
  0
SPLINE
  5
227
100
AcDbEntity
  8
0
100
AcDbSpline
 62
7
  6
BYLAYER
 70
0
 71
3
 72
11
 73
7
 74
0
 42
0.0000001
 43
0.0000001
 44
0.0000000001
 40
0.0
 40
0.0
 40
0.0
 40
0.0
 40
0.249992998
 40
0.5000001582
 40
0.7500048622
 40
1.0
 40
1.0
 40
1.0
 40
1.0
 10
16.474549268
 20
23.0739447044
 30
0.0
 10
16.4904238766
 20
23.0622035957
 30
0.0
 10
16.5214787404
 20
23.0377971404
 30
0.0
 10
16.5682000435
 20
23.0013822144
 30
0.0
 10
16.6156290771
 20
22.9658918261
 30
0.0
 10
16.6472459688
 20
22.9422231376
 30
0.0
 10
16.6627884469
 20
22.9300454992
 30
0.0
  0
ENDSEC
  0
SECTION
  2
OBJECTS
  0
DICTIONARY
  5
C
100
AcDbDictionary
280
0
281
1
  3
ACAD_GROUP
350
D
  3
ACAD_MLINESTYLE
350
17
  3
ACAD_LAYOUT
350
1A
  3
ACAD_PLOTSETTINGS
350
19
  3
ACAD_PLOTSTYLENAME
350
E
  0
DICTIONARY
  5
D
102
{ACAD_REACTORS
330
C
102
}
100
AcDbDictionary
280
0
281
1
  0
ACDBDICTIONARYWDFLT
  5
E
102
{ACAD_REACTORS
330
C
102
}
100
AcDbDictionary
281
1
  3
Normal
350
F
100
AcDbDictionaryWithDefault
340
F
  0
DICTIONARY
  5
17
102
{ACAD_REACTORS
330
C
102
}
100
AcDbDictionary
280
0
281
1
  3
Standard
350
18
  0
DICTIONARY
  5
19
102
{ACAD_REACTORS
330
C
102
}
100
AcDbDictionary
281
1
  0
DICTIONARY
  5
1A
102
{ACAD_REACTORS
330
C
102
}
100
AcDbDictionary
281
1
  3
Model
350
228
  3
Layout1
350
229
  0
ACDBPLACEHOLDER
  5
F
102
{ACAD_REACTORS
330
E
102
}
  0
MLINESTYLE
  5
18
102
{ACAD_REACTORS
330
17
102
}
100
AcDbMlineStyle
  2
STANDARD
 70
0
  3

 62
256
 51
90.0
 52
90.0
 71
2
 49
0.5
 62
256
  6
BYLAYER
 49
-0.5
 62
256
  6
BYLAYER
  0
LAYOUT
  5
228
102
{ACAD_REACTORS
330
1A
102
}
100
AcDbPlotSettings
  1

  2
none_device
  4

  6

 40
0.0
 41
0.0
 42
0.0
 43
0.0
 44
210.0
 45
297.0
 46
0.0
 47
0.0
 48
0.0
 49
0.0
140
0.0
141
0.0
142
1.0
143
1.0
 70
1024
 72
1
 73
0
 74
0
  7

 75
0
147
1.0
148
0.0
149
0.0
100
AcDbLayout
  1
Model
 70
0
 71
0
 10
0.0
 20
0.0
 11
210.0
 21
297.0
 12
0.0
 22
0.0
 32
0.0
 14
0.0
 24
0.0
 34
0.0
 15
0.0
 25
0.0
 35
0.0
146
0.0
 13
0.0
 23
0.0
 33
0.0
 16
1.0
 26
0.0
 36
0.0
 17
0.0
 27
1.0
 37
0.0
 76
0
330
210
345
0
346
0
  0
LAYOUT
  5
229
102
{ACAD_REACTORS
330
1A
102
}
100
AcDbPlotSettings
  1

  2
none_device
  4

  6

 40
0.0
 41
0.0
 42
0.0
 43
0.0
 44
210.0
 45
297.0
 46
0.0
 47
0.0
 48
0.0
 49
0.0
140
0.0
141
0.0
142
1.0
143
1.0
 70
0
 72
1
 73
0
 74
0
  7

 75
0
147
1.0
148
0.0
149
0.0
100
AcDbLayout
  1
Layout1
 70
0
 71
1
 10
0.0
 20
0.0
 11
210.0
 21
297.0
 12
0.0
 22
0.0
 32
0.0
 14
0.0
 24
0.0
 34
0.0
 15
0.0
 25
0.0
 35
0.0
146
0.0
 13
0.0
 23
0.0
 33
0.0
 16
1.0
 26
0.0
 36
0.0
 17
0.0
 27
1.0
 37
0.0
 76
0
330
211
345
0
346
0
  0
ENDSEC
  0
EOF
