999
DXF file: C:\Users\sesa63760\Dev\_Creo\CAD\MCADID0004602_3D-CAD\drw0001_4.dxf
999
Pro/ENGINEER 2019471 by Parametric Technology Corporation
  0
SECTION
  2
HEADER
  9
$ACADVER
  1
AC1024
  9
$DWGCODEPAGE
  3
ANSI_1252
  9
$EXTMAX
 10
182.9388778992
 20
258.7278416003
 30
0.0
  9
$EXTMIN
 10
0.0
 20
0.0
 30
0.0
  9
$LIMMIN
 10
0.0
 20
0.0
  9
$LIMMAX
 10
182.9388778992
 20
258.7278416003
  9
$VIEWCTR
 10
91.4694389496
 20
129.3639208001
  9
$VIEWSIZE
 40
258.7278416003
  9
$CLAYER
  8
0
  9
$LTSCALE
 40
16.8652222673
  9
$CELTYPE
  6
BYLAYER
  9
$DIMSCALE
 40
1.0
  9
$DIMASZ
 40
2.1778437845
  9
$DIMEXO
 40
1.0
  9
$DIMDLI
 40
11.6523353847
  9
$DIMEXE
 40
1.0
  9
$DIMCEN
 40
2.7597636437
  9
$DIMLFAC
 40
1.0
  9
$DIMBLK
  1
_FILLED
  9
$DIMALT
 70
0
  9
$DIMALTF
 40
0.0393700787
  9
$DIMTXT
 40
3.0489812983
  9
$DIMTOL
 70
1
  9
$DIMLIM
 70
0
  9
$DIMTFAC
 40
1.0
  9
$DIMTP
 40
0.01
  9
$DIMTM
 40
0.01
  9
$DIMGAP
 40
0.625
  9
$DIMDSEP
 70
46
  9
$AUNITS
 70
0
  9
$PDMODE
 70
3
  9
$PDSIZE
 40
0.3125
  9
$HANDSEED
  5
287
  9
$TILEMODE
 70
1
  9
$MEASUREMENT
 70
1
  9
$INSUNITS
 70
4
  0
ENDSEC
  0
SECTION
  2
CLASSES
  0
CLASS
  1
ACDBDICTIONARYWDFLT
  2
AcDbDictionaryWithDefault
  3
AutoCAD 2000
 90
0
 91
1
280
0
281
0
  0
CLASS
  1
ACDBPLACEHOLDER
  2
AcDbPlaceHolder
  3
AutoCAD 2000
 90
0
 91
1
280
0
281
0
  0
CLASS
  1
LAYOUT
  2
AcDbLayout
  3
AutoCAD 2000
 90
0
 91
0
280
0
281
0
  0
ENDSEC
  0
SECTION
  2
TABLES
  0
TABLE
  2
VPORT
  5
8
100
AcDbSymbolTable
 70
2
  0
VPORT
  5
1F4
100
AcDbSymbolTableRecord
100
AcDbViewportTableRecord
  2
*ACTIVE
 70
0
 10
0.0
 20
0.0
 11
1.0
 21
1.0
 12
91.4694389496
 22
129.3639208001
 13
0.0
 23
0.0
 14
1.0
 24
1.0
 15
0.0
 25
0.0
 16
0.0
 26
0.0
 36
1.0
 17
0.0
 27
0.0
 37
0.0
 40
258.7278416003
 41
0.7070707071
 42
50.0
 43
0.0
 44
0.0
 50
0.0
 51
0.0
 71
0
 72
100
 73
1
 74
1
 75
0
 76
0
 77
0
 78
0
  0
ENDTAB
  0
TABLE
  2
LTYPE
  5
5
100
AcDbSymbolTable
 70
6
  0
LTYPE
  5
14
100
AcDbSymbolTableRecord
100
AcDbLinetypeTableRecord
  2
BYBLOCK
 70
0
  3

 72
65
 73
0
 40
0.0
  0
LTYPE
  5
15
100
AcDbSymbolTableRecord
100
AcDbLinetypeTableRecord
  2
BYLAYER
 70
0
  3

 72
65
 73
0
 40
0.0
  0
LTYPE
  5
16
100
AcDbSymbolTableRecord
100
AcDbLinetypeTableRecord
  2
CONTINUOUS
 70
64
  3
Solid line
 72
65
 73
0
 40
0.0
  0
LTYPE
  5
1F5
100
AcDbSymbolTableRecord
100
AcDbLinetypeTableRecord
  2
CENTER
 70
64
  3
____ _ ____ _ ____ _ ____ _ ____ _ ____ _ ____
 72
65
 73
4
 40
0.6
 49
0.375
 74
0
 49
-0.075
 74
0
 49
0.075
 74
0
 49
-0.075
 74
0
  0
LTYPE
  5
1F6
100
AcDbSymbolTableRecord
100
AcDbLinetypeTableRecord
  2
HIDDEN
 70
64
  3
- - - - - - - - - - - - - - - - - - - -
 72
65
 73
2
 40
0.2
 49
0.1
 74
0
 49
-0.1
 74
0
  0
LTYPE
  5
1F7
100
AcDbSymbolTableRecord
100
AcDbLinetypeTableRecord
  2
PHANTOM
 70
64
  3
_____ _ _ _____ _ _ _____ _ _ _____
 72
65
 73
6
 40
0.8
 49
0.45
 74
0
 49
-0.05
 74
0
 49
0.1
 74
0
 49
-0.05
 74
0
 49
0.1
 74
0
 49
-0.05
 74
0
  0
LTYPE
  5
1F8
100
AcDbSymbolTableRecord
100
AcDbLinetypeTableRecord
  2
DOT
 70
64
  3
. . . . . . . . . . . . . . . . . . . .
 72
65
 73
2
 40
0.2
 49
0.1
 74
0
 49
-0.1
 74
0
  0
LTYPE
  5
1F9
100
AcDbSymbolTableRecord
100
AcDbLinetypeTableRecord
  2
DASHED
 70
64
  3
- - - - - - - - - - - - - - - - - - - -
 72
65
 73
2
 40
0.2
 49
0.1
 74
0
 49
-0.1
 74
0
  0
ENDTAB
  0
TABLE
  2
LAYER
  5
2
100
AcDbSymbolTable
 70
36
  0
LAYER
  5
10
100
AcDbSymbolTableRecord
100
AcDbLayerTableRecord
  2
0
 70
0
 62
7
  6
CONTINUOUS
370
-3
390
F
  0
LAYER
  5
1FA
100
AcDbSymbolTableRecord
100
AcDbLayerTableRecord
  2
DEFAULT_1
 70
0
 62
7
  6
CENTER
370
-3
390
F
  0
LAYER
  5
1FB
100
AcDbSymbolTableRecord
100
AcDbLayerTableRecord
  2
DEFAULT_2
 70
0
 62
7
  6
HIDDEN
370
-3
390
F
  0
LAYER
  5
1FC
100
AcDbSymbolTableRecord
100
AcDbLayerTableRecord
  2
DEFAULT_3
 70
0
 62
7
  6
PHANTOM
370
-3
390
F
  0
LAYER
  5
1FD
100
AcDbSymbolTableRecord
100
AcDbLayerTableRecord
  2
00_COMPONENTS
 70
0
 62
7
  6
CONTINUOUS
370
-3
390
F
  0
LAYER
  5
1FE
100
AcDbSymbolTableRecord
100
AcDbLayerTableRecord
  2
01_1_DEFAULT_DATUMS
 70
0
 62
7
  6
CONTINUOUS
370
-3
390
F
  0
LAYER
  5
1FF
100
AcDbSymbolTableRecord
100
AcDbLayerTableRecord
  2
01_PLANES
 70
0
 62
7
  6
CONTINUOUS
370
-3
390
F
  0
LAYER
  5
200
100
AcDbSymbolTableRecord
100
AcDbLayerTableRecord
  2
02_COORD_SYS
 70
0
 62
7
  6
CONTINUOUS
370
-3
390
F
  0
LAYER
  5
201
100
AcDbSymbolTableRecord
100
AcDbLayerTableRecord
  2
03_AXES
 70
0
 62
7
  6
CONTINUOUS
370
-3
390
F
  0
LAYER
  5
202
100
AcDbSymbolTableRecord
100
AcDbLayerTableRecord
  2
04_POINTS
 70
0
 62
7
  6
CONTINUOUS
370
-3
390
F
  0
LAYER
  5
203
100
AcDbSymbolTableRecord
100
AcDbLayerTableRecord
  2
05_CURVES
 70
0
 62
7
  6
CONTINUOUS
370
-3
390
F
  0
LAYER
  5
204
100
AcDbSymbolTableRecord
100
AcDbLayerTableRecord
  2
06_SURFS
 70
0
 62
7
  6
CONTINUOUS
370
-3
390
F
  0
LAYER
  5
205
100
AcDbSymbolTableRecord
100
AcDbLayerTableRecord
  2
07_COSMETICS
 70
0
 62
7
  6
CONTINUOUS
370
-3
390
F
  0
LAYER
  5
206
100
AcDbSymbolTableRecord
100
AcDbLayerTableRecord
  2
10_NOTES
 70
0
 62
7
  6
CONTINUOUS
370
-3
390
F
  0
LAYER
  5
207
100
AcDbSymbolTableRecord
100
AcDbLayerTableRecord
  2
11_NOTES_PUB
 70
0
 62
7
  6
CONTINUOUS
370
-3
390
F
  0
LAYER
  5
208
100
AcDbSymbolTableRecord
100
AcDbLayerTableRecord
  2
13_REF_GTOL
 70
0
 62
7
  6
CONTINUOUS
370
-3
390
F
  0
LAYER
  5
209
100
AcDbSymbolTableRecord
100
AcDbLayerTableRecord
  2
16_MISC
 70
0
 62
7
  6
CONTINUOUS
370
-3
390
F
  0
LAYER
  5
20A
100
AcDbSymbolTableRecord
100
AcDbLayerTableRecord
  2
17_NO_PRINT
 70
0
 62
7
  6
CONTINUOUS
370
-3
390
F
  0
LAYER
  5
20B
100
AcDbSymbolTableRecord
100
AcDbLayerTableRecord
  2
18_DATUM_CAMS_JOINTS
 70
0
 62
7
  6
CONTINUOUS
370
-3
390
F
  0
LAYER
  5
20C
100
AcDbSymbolTableRecord
100
AcDbLayerTableRecord
  2
19_DATUM_FUNCTIONAL
 70
0
 62
7
  6
CONTINUOUS
370
-3
390
F
  0
LAYER
  5
20D
100
AcDbSymbolTableRecord
100
AcDbLayerTableRecord
  2
20_DATUM_KINEMATIC_SCHEME
 70
0
 62
7
  6
CONTINUOUS
370
-3
390
F
  0
ENDTAB
  0
TABLE
  2
STYLE
  5
3
100
AcDbSymbolTable
 70
1
  0
STYLE
  5
11
100
AcDbSymbolTableRecord
100
AcDbTextStyleTableRecord
  2
STANDARD
 70
0
 40
0.0
 41
1.0
 50
0.0
 71
0
 42
0.2
  3
ARIAL.TTF
  4

  0
STYLE
  5
20E
100
AcDbSymbolTableRecord
100
AcDbTextStyleTableRecord
  2
TEXTSTYLE_1
 70
0
 40
0.0
 41
0.8
 50
0.0
 71
0
 42
0.2
  3
gdt
  4

  0
ENDTAB
  0
TABLE
  2
VIEW
  5
6
100
AcDbSymbolTable
 70
0
  0
ENDTAB
  0
TABLE
  2
UCS
  5
7
100
AcDbSymbolTable
 70
0
  0
ENDTAB
  0
TABLE
  2
APPID
  5
9
100
AcDbSymbolTable
 70
1
  0
APPID
  5
20F
100
AcDbSymbolTableRecord
100
AcDbRegAppTableRecord
  2
ACAD
 70
0
  0
ENDTAB
  0
TABLE
  2
BLOCK_RECORD
  5
1
100
AcDbSymbolTable
 70
0
  0
BLOCK_RECORD
  5
210
100
AcDbSymbolTableRecord
100
AcDbBlockTableRecord
  2
*Model_Space
  0
BLOCK_RECORD
  5
211
100
AcDbSymbolTableRecord
100
AcDbBlockTableRecord
  2
*Paper_Space
  0
BLOCK_RECORD
  5
212
100
AcDbSymbolTableRecord
100
AcDbBlockTableRecord
  2
_FILLED
  0
ENDTAB
  0
TABLE
  2
DIMSTYLE
  5
A
100
AcDbSymbolTable
 70
1
100
AcDbDimStyleTable
 71
0
  0
DIMSTYLE
105
213
100
AcDbSymbolTableRecord
100
AcDbDimStyleTableRecord
  2
STANDARD
 70
0
  3

  4

 40
1.0
 41
2.1778437845
 42
1.0
 43
0.38
 44
1.0
 45
0.0
 46
0.0
 47
0.01
 48
0.01
140
3.0489812983
141
0.09
142
0.0
143
25.4
144
1.0
145
0.0
146
1.0
147
0.625
 71
1
 72
0
 73
0
 74
0
 75
0
 76
0
 77
1
 78
8
 79
2
170
0
171
1
172
0
173
0
174
0
175
0
176
0
177
0
178
0
270
2
179
2
271
2
272
2
273
2
274
2
275
0
280
0
281
0
282
0
283
1
284
8
285
0
286
0
287
3
288
0
340
11
278
46
341
212
342
212
343
212
344
212
  0
ENDTAB
  0
ENDSEC
  0
SECTION
  2
BLOCKS
  0
BLOCK
  5
20
100
AcDbEntity
  8
0
100
AcDbBlockBegin
  2
*Model_Space
 70
0
 10
0.0
 20
0.0
 30
0.0
  3
*Model_Space
  1

  0
ENDBLK
  5
21
100
AcDbEntity
  8
0
100
AcDbBlockEnd
  0
BLOCK
  5
1C
100
AcDbEntity
  8
0
100
AcDbBlockBegin
  2
*Paper_Space
 70
0
 10
0.0
 20
0.0
 30
0.0
  3
*Paper_Space
  1

  0
ENDBLK
  5
1D
100
AcDbEntity
  8
0
100
AcDbBlockEnd
  0
BLOCK
  5
214
100
AcDbEntity
  8
0
100
AcDbBlockBegin
  2
_FILLED
 70
64
 10
0.0
 20
0.0
  3
_FILLED
  1

  0
SOLID
  5
215
100
AcDbEntity
  8
0
  6
BYBLOCK
 62
0
100
AcDbTrace
 10
0.0
 20
0.0
 11
-1.0
 21
0.25
 12
-1.0
 22
-0.25
 13
-1.0
 23
-0.25
  0
ENDBLK
  5
216
100
AcDbEntity
  8
0
  6
BYBLOCK
 62
0
100
AcDbBlockEnd
  0
ENDSEC
  0
SECTION
  2
ENTITIES
  0
LINE
  5
217
100
AcDbEntity
  8
0
100
AcDbLine
 62
7
  6
BYLAYER
 10
36.6012598995
 20
134.8598472284
 11
36.6012598995
 21
122.2845926485
  0
LINE
  5
218
100
AcDbEntity
  8
0
100
AcDbLine
 62
7
  6
BYLAYER
 10
37.2222122164
 20
123.2443387721
 11
37.2222122164
 21
133.9001011049
  0
LINE
  5
219
100
AcDbEntity
  8
0
100
AcDbLine
 62
7
  6
BYLAYER
 10
37.3222983482
 20
123.5999817063
 11
37.3222983482
 21
133.5444581706
  0
LINE
  5
21A
100
AcDbEntity
  8
0
100
AcDbLine
 62
7
  6
BYLAYER
 10
38.2111418
 20
124.0722199385
 11
38.2111418
 21
125.3103186524
  0
LINE
  5
21B
100
AcDbEntity
  8
0
100
AcDbLine
 62
7
  6
BYLAYER
 10
38.2111418
 20
131.8341212245
 11
38.2111418
 21
133.0722199377
  0
LINE
  5
21C
100
AcDbEntity
  8
0
100
AcDbLine
 62
7
  6
BYLAYER
 10
39.3445415347
 20
133.0722199385
 11
39.3445415347
 21
124.0722199385
  0
LINE
  5
21D
100
AcDbEntity
  8
0
100
AcDbLine
 62
7
  6
BYLAYER
 10
53.8445415347
 20
124.822231321
 11
53.8445415347
 21
132.3222085559
  0
LINE
  5
21E
100
AcDbEntity
  8
0
100
AcDbLine
 62
7
  6
BYLAYER
 10
55.0945415347
 20
123.5722199385
 11
55.0945415347
 21
133.5722199385
  0
LINE
  5
21F
100
AcDbEntity
  8
0
100
AcDbLine
 62
7
  6
BYLAYER
 10
55.7820415347
 20
133.5722199385
 11
55.7820415347
 21
123.5722199385
  0
LINE
  5
220
100
AcDbEntity
  8
0
100
AcDbLine
 62
7
  6
BYLAYER
 10
56.3445415347
 20
122.2722199385
 11
56.3445415347
 21
126.1347199385
  0
LINE
  5
221
100
AcDbEntity
  8
0
100
AcDbLine
 62
7
  6
BYLAYER
 10
56.3445415347
 20
131.0097199385
 11
56.3445415347
 21
134.8722113623
  0
LINE
  5
222
100
AcDbEntity
  8
0
100
AcDbLine
 62
7
  6
BYLAYER
 10
58.5945415347
 20
120.0222199385
 11
58.5945415347
 21
121.6366233527
  0
LINE
  5
223
100
AcDbEntity
  8
0
100
AcDbLine
 62
7
  6
BYLAYER
 10
58.5945415347
 20
135.5078165242
 11
58.5945415347
 21
137.1222199385
  0
LINE
  5
224
100
AcDbEntity
  8
0
100
AcDbLine
 62
7
  6
BYLAYER
 10
60.545503429
 20
135.5078165242
 11
60.545503429
 21
121.6366233527
  0
LINE
  5
225
100
AcDbEntity
  8
0
100
AcDbLine
 62
7
  6
BYLAYER
 10
61.8445415347
 20
135.9911147349
 11
61.8445415347
 21
121.1533251421
  0
LINE
  5
226
100
AcDbEntity
  8
0
100
AcDbLine
 62
7
  6
BYLAYER
 10
61.8545415347
 20
124.2972199385
 11
61.8545415347
 21
132.8472199385
  0
LINE
  5
227
100
AcDbEntity
  8
0
100
AcDbLine
 62
7
  6
BYLAYER
 10
58.5945415347
 20
120.0222199385
 11
129.0945415347
 21
120.0222199385
  0
LINE
  5
228
100
AcDbEntity
  8
0
100
AcDbLine
 62
7
  6
BYLAYER
 10
125.8445415347
 20
121.1533251421
 11
61.8445415347
 21
121.1533251421
  0
LINE
  5
229
100
AcDbEntity
  8
0
100
AcDbLine
 62
7
  6
BYLAYER
 10
129.0945415347
 20
121.6366233527
 11
127.1435796403
 21
121.6366233527
  0
LINE
  5
22A
100
AcDbEntity
  8
0
100
AcDbLine
 62
7
  6
BYLAYER
 10
60.545503429
 20
121.6366233527
 11
58.5945415347
 21
121.6366233527
  0
LINE
  5
22B
100
AcDbEntity
  8
0
100
AcDbLine
 62
7
  6
BYLAYER
 10
55.0945415347
 20
123.5722199385
 11
55.7820415347
 21
123.5722199385
  0
LINE
  5
22C
100
AcDbEntity
  8
0
100
AcDbLine
 62
7
  6
BYLAYER
 10
131.9070415347
 20
123.5722199385
 11
132.5945415347
 21
123.5722199385
  0
LINE
  5
22D
100
AcDbEntity
  8
0
100
AcDbLine
 62
7
  6
BYLAYER
 10
38.2111418
 20
124.0722199385
 11
39.3445415347
 21
124.0722199385
  0
LINE
  5
22E
100
AcDbEntity
  8
0
100
AcDbLine
 62
7
  6
BYLAYER
 10
148.3445415347
 20
124.0722199385
 11
149.4779412693
 21
124.0722199385
  0
LINE
  5
22F
100
AcDbEntity
  8
0
100
AcDbLine
 62
7
  6
BYLAYER
 10
93.7310415347
 20
131.5722199385
 11
93.7310415347
 21
125.5722199385
  0
LINE
  5
230
100
AcDbEntity
  8
0
100
AcDbLine
 62
7
  6
BYLAYER
 10
93.9580415347
 20
125.5722199385
 11
93.9580415347
 21
131.5722199385
  0
LINE
  5
231
100
AcDbEntity
  8
0
100
AcDbLine
 62
7
  6
BYLAYER
 10
93.9580415347
 20
131.5722199385
 11
93.8445415347
 21
131.4587199385
  0
LINE
  5
232
100
AcDbEntity
  8
0
100
AcDbLine
 62
7
  6
BYLAYER
 10
125.8345415347
 20
124.2972199385
 11
61.8545415347
 21
124.2972199385
  0
LINE
  5
233
100
AcDbEntity
  8
0
100
AcDbLine
 62
7
  6
BYLAYER
 10
149.4779412693
 20
125.3103186524
 11
148.3445415347
 21
125.3103186524
  0
LINE
  5
234
100
AcDbEntity
  8
0
100
AcDbLine
 62
7
  6
BYLAYER
 10
39.3445415347
 20
125.3103186524
 11
38.2111418
 21
125.3103186524
  0
LINE
  5
235
100
AcDbEntity
  8
0
100
AcDbLine
 62
7
  6
BYLAYER
 10
39.3445415347
 20
125.5722199385
 11
53.8445415347
 21
125.5722199385
  0
LINE
  5
236
100
AcDbEntity
  8
0
100
AcDbLine
 62
7
  6
BYLAYER
 10
61.8545415347
 20
125.5722199385
 11
93.7310415347
 21
125.5722199385
  0
LINE
  5
237
100
AcDbEntity
  8
0
100
AcDbLine
 62
7
  6
BYLAYER
 10
93.9580415347
 20
125.5722199385
 11
125.8345415347
 21
125.5722199385
  0
LINE
  5
238
100
AcDbEntity
  8
0
100
AcDbLine
 62
7
  6
BYLAYER
 10
133.8445415347
 20
125.5722199385
 11
148.3445415347
 21
125.5722199385
  0
LINE
  5
239
100
AcDbEntity
  8
0
100
AcDbLine
 62
7
  6
BYLAYER
 10
93.8445415347
 20
125.6857199385
 11
93.9580415347
 21
125.5722199385
  0
LINE
  5
23A
100
AcDbEntity
  8
0
100
AcDbLine
 62
7
  6
BYLAYER
 10
93.7310415347
 20
125.5722199385
 11
93.8445415347
 21
125.6857199385
  0
LINE
  5
23B
100
AcDbEntity
  8
0
100
AcDbLine
 62
7
  6
BYLAYER
 10
148.3445415347
 20
131.5722199385
 11
133.8445415347
 21
131.5722199385
  0
LINE
  5
23C
100
AcDbEntity
  8
0
100
AcDbLine
 62
7
  6
BYLAYER
 10
125.8345415347
 20
131.5722199385
 11
93.9580415347
 21
131.5722199385
  0
LINE
  5
23D
100
AcDbEntity
  8
0
100
AcDbLine
 62
7
  6
BYLAYER
 10
93.7310415347
 20
131.5722199385
 11
61.8545415347
 21
131.5722199385
  0
LINE
  5
23E
100
AcDbEntity
  8
0
100
AcDbLine
 62
7
  6
BYLAYER
 10
53.8445415347
 20
131.5722199385
 11
39.3445415347
 21
131.5722199385
  0
LINE
  5
23F
100
AcDbEntity
  8
0
100
AcDbLine
 62
7
  6
BYLAYER
 10
38.2111418
 20
131.8341212245
 11
39.3445415347
 21
131.8341212245
  0
LINE
  5
240
100
AcDbEntity
  8
0
100
AcDbLine
 62
7
  6
BYLAYER
 10
148.3445415347
 20
131.8341212245
 11
149.4779412693
 21
131.8341212245
  0
LINE
  5
241
100
AcDbEntity
  8
0
100
AcDbLine
 62
7
  6
BYLAYER
 10
61.8545415347
 20
132.8472199385
 11
125.8345415347
 21
132.8472199385
  0
LINE
  5
242
100
AcDbEntity
  8
0
100
AcDbLine
 62
7
  6
BYLAYER
 10
149.4779412693
 20
133.0722199385
 11
148.3445415347
 21
133.0722199385
  0
LINE
  5
243
100
AcDbEntity
  8
0
100
AcDbLine
 62
7
  6
BYLAYER
 10
39.3445415347
 20
133.0722199385
 11
38.2111418
 21
133.0722199385
  0
LINE
  5
244
100
AcDbEntity
  8
0
100
AcDbLine
 62
7
  6
BYLAYER
 10
132.5945415347
 20
133.5722199385
 11
131.9070415347
 21
133.5722199385
  0
LINE
  5
245
100
AcDbEntity
  8
0
100
AcDbLine
 62
7
  6
BYLAYER
 10
55.7820415347
 20
133.5722199385
 11
55.0945415347
 21
133.5722199385
  0
LINE
  5
246
100
AcDbEntity
  8
0
100
AcDbLine
 62
7
  6
BYLAYER
 10
93.8445415347
 20
131.4587199385
 11
93.7310415347
 21
131.5722199385
  0
LINE
  5
247
100
AcDbEntity
  8
0
100
AcDbLine
 62
7
  6
BYLAYER
 10
58.5945415347
 20
135.5078165242
 11
60.545503429
 21
135.5078165242
  0
LINE
  5
248
100
AcDbEntity
  8
0
100
AcDbLine
 62
7
  6
BYLAYER
 10
127.1435796403
 20
135.5078165242
 11
129.0945415347
 21
135.5078165242
  0
LINE
  5
249
100
AcDbEntity
  8
0
100
AcDbLine
 62
7
  6
BYLAYER
 10
61.8445415347
 20
135.9911147349
 11
125.8445415347
 21
135.9911147349
  0
LINE
  5
24A
100
AcDbEntity
  8
0
100
AcDbLine
 62
7
  6
BYLAYER
 10
129.0945415347
 20
137.1222199385
 11
58.5945415347
 21
137.1222199385
  0
LINE
  5
24B
100
AcDbEntity
  8
0
100
AcDbLine
 62
7
  6
BYLAYER
 10
125.8345415347
 20
132.8472199385
 11
125.8345415347
 21
124.2972199385
  0
LINE
  5
24C
100
AcDbEntity
  8
0
100
AcDbLine
 62
7
  6
BYLAYER
 10
125.8445415347
 20
135.9911147349
 11
125.8445415347
 21
121.1533251421
  0
LINE
  5
24D
100
AcDbEntity
  8
0
100
AcDbLine
 62
7
  6
BYLAYER
 10
127.1435796403
 20
135.5078165242
 11
127.1435796403
 21
121.6366233527
  0
LINE
  5
24E
100
AcDbEntity
  8
0
100
AcDbLine
 62
7
  6
BYLAYER
 10
129.0945415347
 20
137.1222199385
 11
129.0945415347
 21
135.5078165242
  0
LINE
  5
24F
100
AcDbEntity
  8
0
100
AcDbLine
 62
7
  6
BYLAYER
 10
129.0945415347
 20
121.6366233527
 11
129.0945415347
 21
120.0222199385
  0
LINE
  5
250
100
AcDbEntity
  8
0
100
AcDbLine
 62
7
  6
BYLAYER
 10
131.3445415347
 20
134.8722113623
 11
131.3445415347
 21
131.0097199385
  0
LINE
  5
251
100
AcDbEntity
  8
0
100
AcDbLine
 62
7
  6
BYLAYER
 10
131.3445415347
 20
126.1347199385
 11
131.3445415347
 21
122.2722285146
  0
LINE
  5
252
100
AcDbEntity
  8
0
100
AcDbLine
 62
7
  6
BYLAYER
 10
131.9070415347
 20
123.5722199385
 11
131.9070415347
 21
133.5722199385
  0
LINE
  5
253
100
AcDbEntity
  8
0
100
AcDbLine
 62
7
  6
BYLAYER
 10
132.5945415347
 20
133.5722199385
 11
132.5945415347
 21
123.5722199385
  0
LINE
  5
254
100
AcDbEntity
  8
0
100
AcDbLine
 62
7
  6
BYLAYER
 10
133.8445415347
 20
132.3222085559
 11
133.8445415347
 21
124.822231321
  0
LINE
  5
255
100
AcDbEntity
  8
0
100
AcDbLine
 62
7
  6
BYLAYER
 10
148.3445415347
 20
124.0722199385
 11
148.3445415347
 21
133.0722199385
  0
LINE
  5
256
100
AcDbEntity
  8
0
100
AcDbLine
 62
7
  6
BYLAYER
 10
149.4779412693
 20
133.0722199385
 11
149.4779412693
 21
131.8341212245
  0
LINE
  5
257
100
AcDbEntity
  8
0
100
AcDbLine
 62
7
  6
BYLAYER
 10
149.4779412693
 20
125.3103186524
 11
149.4779412693
 21
124.0722199392
  0
LINE
  5
258
100
AcDbEntity
  8
0
100
AcDbLine
 62
7
  6
BYLAYER
 10
150.3667847211
 20
133.5444581706
 11
150.3667847211
 21
123.5999817063
  0
LINE
  5
259
100
AcDbEntity
  8
0
100
AcDbLine
 62
7
  6
BYLAYER
 10
150.4668708529
 20
133.9001011049
 11
150.4668708529
 21
123.2443387721
  0
LINE
  5
25A
100
AcDbEntity
  8
0
100
AcDbLine
 62
7
  6
BYLAYER
 10
151.0878231698
 20
122.2845926485
 11
151.0878231698
 21
134.8598472284
  0
ARC
  5
25B
100
AcDbEntity
  8
0
100
AcDbCircle
 62
7
  6
BYLAYER
 10
159.6263186056
 20
131.1305163182
 40
9.5690168264
100
AcDbArc
 50
163.1760142922
 51
165.3883306763
  0
ARC
  5
25C
100
AcDbEntity
  8
0
100
AcDbCircle
 62
7
  6
BYLAYER
 10
28.0627644635
 20
126.0139235587
 40
9.5690168267
100
AcDbArc
 50
343.1760142923
 51
345.3883306763
  0
ARC
  5
25D
100
AcDbEntity
  8
0
100
AcDbCircle
 62
7
  6
BYLAYER
 10
157.8445415347
 20
128.5722199385
 40
9.5
100
AcDbArc
 50
208.2737136273
 51
151.7262866366
  0
ARC
  5
25E
100
AcDbEntity
  8
0
100
AcDbCircle
 62
7
  6
BYLAYER
 10
29.8445415347
 20
128.5722199385
 40
9.5
100
AcDbArc
 50
28.2737136273
 51
331.7262866366
  0
ARC
  5
25F
100
AcDbEntity
  8
0
100
AcDbCircle
 62
7
  6
BYLAYER
 10
159.3063414648
 20
125.9238746045
 40
9.2366743461
100
AcDbArc
 50
194.5718637053
 51
196.8637913261
  0
ARC
  5
260
100
AcDbEntity
  8
0
100
AcDbCircle
 62
7
  6
BYLAYER
 10
28.3827416046
 20
131.2205652724
 40
9.2366743461
100
AcDbArc
 50
14.5718637053
 51
16.8637913261
  0
ARC
  5
261
100
AcDbEntity
  8
0
100
AcDbCircle
 62
7
  6
BYLAYER
 10
157.8445415347
 20
128.5722199385
 40
9.229707471
100
AcDbArc
 50
222.9404592128
 51
137.0595407872
  0
ARC
  5
262
100
AcDbEntity
  8
0
100
AcDbCircle
 62
7
  6
BYLAYER
 10
29.8445415347
 20
128.5722199385
 40
9.229707471
100
AcDbArc
 50
42.9404592128
 51
317.0595407872
  0
ARC
  5
263
100
AcDbEntity
  8
0
100
AcDbCircle
 62
7
  6
BYLAYER
 10
157.8445415347
 20
128.5722199385
 40
8.9799777283
100
AcDbArc
 50
146.3785911711
 51
158.7005935538
  0
ARC
  5
264
100
AcDbEntity
  8
0
100
AcDbCircle
 62
7
  6
BYLAYER
 10
157.8445415347
 20
128.5722199385
 40
8.9799777283
100
AcDbArc
 50
201.2994064462
 51
213.6214088289
  0
ARC
  5
265
100
AcDbEntity
  8
0
100
AcDbCircle
 62
7
  6
BYLAYER
 10
29.8445415347
 20
128.5722199385
 40
8.9799777283
100
AcDbArc
 50
326.3785911711
 51
338.7005935538
  0
ARC
  5
266
100
AcDbEntity
  8
0
100
AcDbCircle
 62
7
  6
BYLAYER
 10
29.8445415347
 20
128.5722199385
 40
8.9799777283
100
AcDbArc
 50
21.2994064462
 51
33.6214088289
  0
CIRCLE
  5
267
100
AcDbEntity
  8
0
100
AcDbCircle
 62
7
  6
BYLAYER
 10
157.8445415347
 20
128.5722199385
 40
5.0
  0
CIRCLE
  5
268
100
AcDbEntity
  8
0
100
AcDbCircle
 62
7
  6
BYLAYER
 10
29.8445415347
 20
128.5722199385
 40
5.0
  0
ARC
  5
269
100
AcDbEntity
  8
0
100
AcDbCircle
 62
7
  6
BYLAYER
 10
58.5945415347
 20
134.8722199385
 40
2.25
100
AcDbArc
 50
90.0
 51
180.0
  0
ARC
  5
26A
100
AcDbEntity
  8
0
100
AcDbCircle
 62
7
  6
BYLAYER
 10
129.0945415347
 20
134.8722199385
 40
2.25
100
AcDbArc
 50
0.0
 51
90.0
  0
ARC
  5
26B
100
AcDbEntity
  8
0
100
AcDbCircle
 62
7
  6
BYLAYER
 10
129.0945415347
 20
122.2722199385
 40
2.25
100
AcDbArc
 50
270.0
 51
360.0
  0
ARC
  5
26C
100
AcDbEntity
  8
0
100
AcDbCircle
 62
7
  6
BYLAYER
 10
58.5945415347
 20
122.2722199385
 40
2.25
100
AcDbArc
 50
180.0
 51
270.0
  0
ARC
  5
26D
100
AcDbEntity
  8
0
100
AcDbCircle
 62
7
  6
BYLAYER
 10
55.0945415347
 20
124.8222199385
 40
1.25
100
AcDbArc
 50
180.0
 51
270.0
  0
ARC
  5
26E
100
AcDbEntity
  8
0
100
AcDbCircle
 62
7
  6
BYLAYER
 10
132.5945415347
 20
124.8222199385
 40
1.25
100
AcDbArc
 50
270.0
 51
360.0
  0
ARC
  5
26F
100
AcDbEntity
  8
0
100
AcDbCircle
 62
7
  6
BYLAYER
 10
132.5945415347
 20
132.3222199385
 40
1.25
100
AcDbArc
 50
0.0
 51
90.0
  0
ARC
  5
270
100
AcDbEntity
  8
0
100
AcDbCircle
 62
7
  6
BYLAYER
 10
55.0945415347
 20
132.3222199385
 40
1.25
100
AcDbArc
 50
90.0
 51
180.0
  0
ARC
  5
271
100
AcDbEntity
  8
0
100
AcDbCircle
 62
7
  6
BYLAYER
 10
55.7820415347
 20
123.0097199385
 40
0.5625
100
AcDbArc
 50
0.0
 51
90.0
  0
ARC
  5
272
100
AcDbEntity
  8
0
100
AcDbCircle
 62
7
  6
BYLAYER
 10
131.9070415347
 20
134.1347199385
 40
0.5625
100
AcDbArc
 50
180.0
 51
270.0
  0
ARC
  5
273
100
AcDbEntity
  8
0
100
AcDbCircle
 62
7
  6
BYLAYER
 10
131.9070415347
 20
123.0097199385
 40
0.5625
100
AcDbArc
 50
90.0
 51
180.0
  0
ARC
  5
274
100
AcDbEntity
  8
0
100
AcDbCircle
 62
7
  6
BYLAYER
 10
55.7820415347
 20
134.1347199385
 40
0.5625
100
AcDbArc
 50
270.0
 51
360.0
  0
SPLINE
  5
275
100
AcDbEntity
  8
0
100
AcDbSpline
 62
7
  6
BYLAYER
 70
0
 71
3
 72
12
 73
8
 74
0
 42
0.0000001
 43
0.0000001
 44
0.0000000001
 40
0.0
 40
0.0
 40
0.0
 40
0.0
 40
0.2755757925
 40
0.5406503661
 40
0.786653973
 40
0.8990105797
 40
1.0
 40
1.0
 40
1.0
 40
1.0
 10
151.0878231698
 20
122.2845926485
 30
0.0
 10
151.015825966
 20
122.3619612339
 30
0.0
 10
150.8812126398
 20
122.5200726447
 30
0.0
 10
150.7049645318
 20
122.7652670655
 30
0.0
 10
150.5827716772
 20
122.9713666477
 30
0.0
 10
150.5071890351
 20
123.1305989732
 30
0.0
 10
150.4781199377
 20
123.207278021
 30
0.0
 10
150.4668708529
 20
123.2443387721
 30
0.0
  0
SPLINE
  5
276
100
AcDbEntity
  8
0
100
AcDbSpline
 62
7
  6
BYLAYER
 70
0
 71
3
 72
12
 73
8
 74
0
 42
0.0000001
 43
0.0000001
 44
0.0000000001
 40
0.0
 40
0.0
 40
0.0
 40
0.0
 40
0.1009893231
 40
0.2133467036
 40
0.4593506972
 40
0.7244247054
 40
1.0
 40
1.0
 40
1.0
 40
1.0
 10
150.4668708529
 20
133.9001011049
 30
0.0
 10
150.4781199268
 20
133.9371618199
 30
0.0
 10
150.5071891285
 20
134.0138411112
 30
0.0
 10
150.5827722955
 20
134.1730736301
 30
0.0
 10
150.7049647091
 20
134.3791737231
 30
0.0
 10
150.8812131498
 20
134.6243676114
 30
0.0
 10
151.0158260968
 20
134.7824787836
 30
0.0
 10
151.0878231698
 20
134.8598472284
 30
0.0
  0
SPLINE
  5
277
100
AcDbEntity
  8
0
100
AcDbSpline
 62
7
  6
BYLAYER
 70
0
 71
3
 72
12
 73
8
 74
0
 42
0.0000001
 43
0.0000001
 44
0.0000000001
 40
0.0
 40
0.0
 40
0.0
 40
0.0
 40
0.2755757925
 40
0.5406503661
 40
0.786653973
 40
0.8990105797
 40
1.0
 40
1.0
 40
1.0
 40
1.0
 10
36.6012598995
 20
134.8598472284
 30
0.0
 10
36.6732571034
 20
134.782478643
 30
0.0
 10
36.8078704296
 20
134.6243672322
 30
0.0
 10
36.9841185376
 20
134.3791728114
 30
0.0
 10
37.1063113922
 20
134.1730732292
 30
0.0
 10
37.1818940343
 20
134.0138409037
 30
0.0
 10
37.2109631316
 20
133.9371618559
 30
0.0
 10
37.2222122164
 20
133.9001011049
 30
0.0
  0
SPLINE
  5
278
100
AcDbEntity
  8
0
100
AcDbSpline
 62
7
  6
BYLAYER
 70
0
 71
3
 72
12
 73
8
 74
0
 42
0.0000001
 43
0.0000001
 44
0.0000000001
 40
0.0
 40
0.0
 40
0.0
 40
0.0
 40
0.1009893231
 40
0.2133467036
 40
0.4593506972
 40
0.7244247054
 40
1.0
 40
1.0
 40
1.0
 40
1.0
 10
37.2222122164
 20
123.2443387721
 30
0.0
 10
37.2109631426
 20
123.207278057
 30
0.0
 10
37.1818939408
 20
123.1305987657
 30
0.0
 10
37.1063107738
 20
122.9713662468
 30
0.0
 10
36.9841183602
 20
122.7652661539
 30
0.0
 10
36.8078699195
 20
122.5200722655
 30
0.0
 10
36.6732569725
 20
122.3619610934
 30
0.0
 10
36.6012598995
 20
122.2845926485
 30
0.0
  0
SPLINE
  5
279
100
AcDbEntity
  8
0
100
AcDbSpline
 62
7
  6
BYLAYER
 70
0
 71
3
 72
13
 73
9
 74
0
 42
0.0000001
 43
0.0000001
 44
0.0000000001
 40
0.0
 40
0.0
 40
0.0
 40
0.0
 40
0.1249587707
 40
0.2499654992
 40
0.3750434073
 40
0.5001928598
 40
0.7498026669
 40
1.0
 40
1.0
 40
1.0
 40
1.0
 10
129.0945415347
 20
135.5078165242
 30
0.0
 10
129.2718069271
 20
135.5078165242
 30
0.0
 10
129.6284872707
 20
135.4551119328
 30
0.0
 10
130.1174477846
 20
135.2297302415
 30
0.0
 10
130.5316143132
 20
134.8867687932
 30
0.0
 10
130.9644979327
 20
134.3188123573
 30
0.0
 10
131.2829848988
 20
133.4719190916
 30
0.0
 10
131.3445415347
 20
132.7599012125
 30
0.0
 10
131.3445415347
 20
132.4049735178
 30
0.0
  0
SPLINE
  5
27A
100
AcDbEntity
  8
0
100
AcDbSpline
 62
7
  6
BYLAYER
 70
0
 71
3
 72
10
 73
6
 74
0
 42
0.0000001
 43
0.0000001
 44
0.0000000001
 40
0.0
 40
0.0
 40
0.0
 40
0.0
 40
0.4998947506
 40
0.7499926595
 40
1.0
 40
1.0
 40
1.0
 40
1.0
 10
55.7820415347
 20
128.5722199385
 30
0.0
 10
55.9151026471
 20
128.9689315287
 30
0.0
 10
56.1161503977
 20
129.5646836017
 30
0.0
 10
56.3010363517
 20
130.3818363675
 30
0.0
 10
56.3445415347
 20
130.8004537411
 30
0.0
 10
56.3445415347
 20
131.0097199385
 30
0.0
  0
SPLINE
  5
27B
100
AcDbEntity
  8
0
100
AcDbSpline
 62
7
  6
BYLAYER
 70
0
 71
3
 72
13
 73
9
 74
0
 42
0.0000001
 43
0.0000001
 44
0.0000000001
 40
0.0
 40
0.0
 40
0.0
 40
0.0
 40
0.2501974717
 40
0.4998072903
 40
0.6249568069
 40
0.7500347922
 40
0.8750414856
 40
1.0
 40
1.0
 40
1.0
 40
1.0
 10
131.3445415347
 20
124.7394663591
 30
0.0
 10
131.3445415347
 20
124.3845384702
 30
0.0
 10
131.2829848416
 20
123.6725203789
 30
0.0
 10
130.9644976347
 20
122.8256268655
 30
0.0
 10
130.5316136751
 20
122.257670408
 30
0.0
 10
130.1174468348
 20
121.9147090865
 30
0.0
 10
129.6284864701
 20
121.6893278339
 30
0.0
 10
129.2718065622
 20
121.6366233527
 30
0.0
 10
129.0945415347
 20
121.6366233527
 30
0.0
  0
SPLINE
  5
27C
100
AcDbEntity
  8
0
100
AcDbSpline
 62
7
  6
BYLAYER
 70
0
 71
3
 72
13
 73
9
 74
0
 42
0.0000001
 43
0.0000001
 44
0.0000000001
 40
0.0
 40
0.0
 40
0.0
 40
0.0
 40
0.1249587707
 40
0.2499654992
 40
0.3750434073
 40
0.5001928598
 40
0.7498026669
 40
1.0
 40
1.0
 40
1.0
 40
1.0
 10
58.5945415347
 20
121.6366233527
 30
0.0
 10
58.4172761422
 20
121.6366233527
 30
0.0
 10
58.0605957987
 20
121.6893279441
 30
0.0
 10
57.5716352848
 20
121.9147096354
 30
0.0
 10
57.1574687562
 20
122.2576710837
 30
0.0
 10
56.7245851366
 20
122.8256275196
 30
0.0
 10
56.4060981705
 20
123.6725207853
 30
0.0
 10
56.3445415347
 20
124.3845386644
 30
0.0
 10
56.3445415347
 20
124.7394663591
 30
0.0
  0
SPLINE
  5
27D
100
AcDbEntity
  8
0
100
AcDbSpline
 62
7
  6
BYLAYER
 70
0
 71
3
 72
13
 73
9
 74
0
 42
0.0000001
 43
0.0000001
 44
0.0000000001
 40
0.0
 40
0.0
 40
0.0
 40
0.0
 40
0.2501974717
 40
0.4998072903
 40
0.6249568069
 40
0.7500347922
 40
0.8750414856
 40
1.0
 40
1.0
 40
1.0
 40
1.0
 10
56.3445415347
 20
132.4049735178
 30
0.0
 10
56.3445415347
 20
132.7599014068
 30
0.0
 10
56.4060982277
 20
133.471919498
 30
0.0
 10
56.7245854347
 20
134.3188130114
 30
0.0
 10
57.1574693942
 20
134.886769469
 30
0.0
 10
57.5716362345
 20
135.2297307904
 30
0.0
 10
58.0605965992
 20
135.455112043
 30
0.0
 10
58.4172765071
 20
135.5078165242
 30
0.0
 10
58.5945415347
 20
135.5078165242
 30
0.0
  0
SPLINE
  5
27E
100
AcDbEntity
  8
0
100
AcDbSpline
 62
7
  6
BYLAYER
 70
0
 71
3
 72
10
 73
6
 74
0
 42
0.0000001
 43
0.0000001
 44
0.0000000001
 40
0.0
 40
0.0
 40
0.0
 40
0.0
 40
0.2500072323
 40
0.5001031601
 40
1.0
 40
1.0
 40
1.0
 40
1.0
 10
131.3445415347
 20
131.0097199385
 30
0.0
 10
131.3445415347
 20
130.8004538527
 30
0.0
 10
131.3880484284
 20
130.3818384407
 30
0.0
 10
131.5729327553
 20
129.5646855632
 30
0.0
 10
131.7739798795
 20
128.9689331467
 30
0.0
 10
131.9070415347
 20
128.5722199385
 30
0.0
  0
SPLINE
  5
27F
100
AcDbEntity
  8
0
100
AcDbSpline
 62
7
  6
BYLAYER
 70
0
 71
3
 72
10
 73
6
 74
0
 42
0.0000001
 43
0.0000001
 44
0.0000000001
 40
0.0
 40
0.0
 40
0.0
 40
0.0
 40
0.2500072323
 40
0.5001031601
 40
1.0
 40
1.0
 40
1.0
 40
1.0
 10
56.3445415347
 20
126.1347199385
 30
0.0
 10
56.3445415347
 20
126.3439860242
 30
0.0
 10
56.3010346409
 20
126.7626014362
 30
0.0
 10
56.116150314
 20
127.5797543137
 30
0.0
 10
55.9151031899
 20
128.1755067302
 30
0.0
 10
55.7820415347
 20
128.5722199385
 30
0.0
  0
SPLINE
  5
280
100
AcDbEntity
  8
0
100
AcDbSpline
 62
7
  6
BYLAYER
 70
0
 71
3
 72
10
 73
6
 74
0
 42
0.0000001
 43
0.0000001
 44
0.0000000001
 40
0.0
 40
0.0
 40
0.0
 40
0.0
 40
0.4998947506
 40
0.7499926595
 40
1.0
 40
1.0
 40
1.0
 40
1.0
 10
131.9070415347
 20
128.5722199385
 30
0.0
 10
131.7739804222
 20
128.1755083482
 30
0.0
 10
131.5729326716
 20
127.5797562752
 30
0.0
 10
131.3880467176
 20
126.7626035094
 30
0.0
 10
131.3445415347
 20
126.3439861358
 30
0.0
 10
131.3445415347
 20
126.1347199385
 30
0.0
  0
ELLIPSE
  5
281
100
AcDbEntity
  8
0
100
AcDbEllipse
 62
7
  6
BYLAYER
 10
118.4833256025
 20
128.5722199385
 30
0.0
 11
14.8090344047
 21
-0.0
 31
0.0
 40
0.5773502692
 41
0.9461686135
 42
1.0505705906
  0
ELLIPSE
  5
282
100
AcDbEntity
  8
0
100
AcDbEllipse
 62
7
  6
BYLAYER
 10
69.2057574668
 20
128.5722199385
 30
0.0
 11
14.8090344047
 21
0.0
 31
0.0
 40
0.5773502692
 41
2.091022063
 42
2.1954240401
  0
ELLIPSE
  5
283
100
AcDbEntity
  8
0
100
AcDbEllipse
 62
7
  6
BYLAYER
 10
69.2057574668
 20
128.5722199385
 30
0.0
 11
14.8090344047
 21
0.0
 31
0.0
 40
0.5773502692
 41
-2.1954240401
 42
-2.091022063
  0
ELLIPSE
  5
284
100
AcDbEntity
  8
0
100
AcDbEllipse
 62
7
  6
BYLAYER
 10
118.4833256025
 20
128.5722199385
 30
0.0
 11
14.8090344047
 21
-0.0
 31
0.0
 40
0.5773502692
 41
-1.0505705906
 42
-0.9461686135
  0
ENDSEC
  0
SECTION
  2
OBJECTS
  0
DICTIONARY
  5
C
100
AcDbDictionary
280
0
281
1
  3
ACAD_GROUP
350
D
  3
ACAD_MLINESTYLE
350
17
  3
ACAD_LAYOUT
350
1A
  3
ACAD_PLOTSETTINGS
350
19
  3
ACAD_PLOTSTYLENAME
350
E
  0
DICTIONARY
  5
D
102
{ACAD_REACTORS
330
C
102
}
100
AcDbDictionary
280
0
281
1
  0
ACDBDICTIONARYWDFLT
  5
E
102
{ACAD_REACTORS
330
C
102
}
100
AcDbDictionary
281
1
  3
Normal
350
F
100
AcDbDictionaryWithDefault
340
F
  0
DICTIONARY
  5
17
102
{ACAD_REACTORS
330
C
102
}
100
AcDbDictionary
280
0
281
1
  3
Standard
350
18
  0
DICTIONARY
  5
19
102
{ACAD_REACTORS
330
C
102
}
100
AcDbDictionary
281
1
  0
DICTIONARY
  5
1A
102
{ACAD_REACTORS
330
C
102
}
100
AcDbDictionary
281
1
  3
Model
350
285
  3
Layout1
350
286
  0
ACDBPLACEHOLDER
  5
F
102
{ACAD_REACTORS
330
E
102
}
  0
MLINESTYLE
  5
18
102
{ACAD_REACTORS
330
17
102
}
100
AcDbMlineStyle
  2
STANDARD
 70
0
  3

 62
256
 51
90.0
 52
90.0
 71
2
 49
0.5
 62
256
  6
BYLAYER
 49
-0.5
 62
256
  6
BYLAYER
  0
LAYOUT
  5
285
102
{ACAD_REACTORS
330
1A
102
}
100
AcDbPlotSettings
  1

  2
none_device
  4

  6

 40
0.0
 41
0.0
 42
0.0
 43
0.0
 44
210.0
 45
297.0
 46
0.0
 47
0.0
 48
0.0
 49
0.0
140
0.0
141
0.0
142
1.0
143
1.0
 70
1024
 72
1
 73
0
 74
0
  7

 75
0
147
1.0
148
0.0
149
0.0
100
AcDbLayout
  1
Model
 70
0
 71
0
 10
0.0
 20
0.0
 11
210.0
 21
297.0
 12
0.0
 22
0.0
 32
0.0
 14
0.0
 24
0.0
 34
0.0
 15
0.0
 25
0.0
 35
0.0
146
0.0
 13
0.0
 23
0.0
 33
0.0
 16
1.0
 26
0.0
 36
0.0
 17
0.0
 27
1.0
 37
0.0
 76
0
330
210
345
0
346
0
  0
LAYOUT
  5
286
102
{ACAD_REACTORS
330
1A
102
}
100
AcDbPlotSettings
  1

  2
none_device
  4

  6

 40
0.0
 41
0.0
 42
0.0
 43
0.0
 44
210.0
 45
297.0
 46
0.0
 47
0.0
 48
0.0
 49
0.0
140
0.0
141
0.0
142
1.0
143
1.0
 70
0
 72
1
 73
0
 74
0
  7

 75
0
147
1.0
148
0.0
149
0.0
100
AcDbLayout
  1
Layout1
 70
0
 71
1
 10
0.0
 20
0.0
 11
210.0
 21
297.0
 12
0.0
 22
0.0
 32
0.0
 14
0.0
 24
0.0
 34
0.0
 15
0.0
 25
0.0
 35
0.0
146
0.0
 13
0.0
 23
0.0
 33
0.0
 16
1.0
 26
0.0
 36
0.0
 17
0.0
 27
1.0
 37
0.0
 76
0
330
211
345
0
346
0
  0
ENDSEC
  0
EOF
