999
DXF file: C:\Users\sesa63760\Dev\_Creo\CAD\MCADID0003835_3D-CAD\drw0001_3.dxf
999
Pro/ENGINEER 2019471 by Parametric Technology Corporation
  0
SECTION
  2
HEADER
  9
$ACADVER
  1
AC1024
  9
$DWGCODEPAGE
  3
ANSI_1252
  9
$EXTMAX
 10
59.471390728
 20
84.1095383153
 30
0.0
  9
$EXTMIN
 10
0.0
 20
0.0
 30
0.0
  9
$LIMMIN
 10
0.0
 20
0.0
  9
$LIMMAX
 10
59.471390728
 20
84.1095383153
  9
$VIEWCTR
 10
29.735695364
 20
42.0547691577
  9
$VIEWSIZE
 40
84.1095383153
  9
$CLAYER
  8
0
  9
$LTSCALE
 40
5.4826958309
  9
$CELTYPE
  6
BYLAYER
  9
$DIMSCALE
 40
1.0
  9
$DIMASZ
 40
0.7079927468
  9
$DIMEXO
 40
1.0
  9
$DIMDLI
 40
3.7880443923
  9
$DIMEXE
 40
1.0
  9
$DIMCEN
 40
0.8971684087
  9
$DIMLFAC
 40
1.0
  9
$DIMBLK
  1
_FILLED
  9
$DIMALT
 70
0
  9
$DIMALTF
 40
0.0393700787
  9
$DIMTXT
 40
0.9911898455
  9
$DIMTOL
 70
1
  9
$DIMLIM
 70
0
  9
$DIMTFAC
 40
1.0
  9
$DIMTP
 40
0.01
  9
$DIMTM
 40
0.01
  9
$DIMGAP
 40
0.625
  9
$DIMDSEP
 70
46
  9
$AUNITS
 70
0
  9
$PDMODE
 70
3
  9
$PDSIZE
 40
0.3125
  9
$HANDSEED
  5
262
  9
$TILEMODE
 70
1
  9
$MEASUREMENT
 70
1
  9
$INSUNITS
 70
4
  0
ENDSEC
  0
SECTION
  2
CLASSES
  0
CLASS
  1
ACDBDICTIONARYWDFLT
  2
AcDbDictionaryWithDefault
  3
AutoCAD 2000
 90
0
 91
1
280
0
281
0
  0
CLASS
  1
ACDBPLACEHOLDER
  2
AcDbPlaceHolder
  3
AutoCAD 2000
 90
0
 91
1
280
0
281
0
  0
CLASS
  1
LAYOUT
  2
AcDbLayout
  3
AutoCAD 2000
 90
0
 91
0
280
0
281
0
  0
ENDSEC
  0
SECTION
  2
TABLES
  0
TABLE
  2
VPORT
  5
8
100
AcDbSymbolTable
 70
2
  0
VPORT
  5
1F4
100
AcDbSymbolTableRecord
100
AcDbViewportTableRecord
  2
*ACTIVE
 70
0
 10
0.0
 20
0.0
 11
1.0
 21
1.0
 12
29.735695364
 22
42.0547691577
 13
0.0
 23
0.0
 14
1.0
 24
1.0
 15
0.0
 25
0.0
 16
0.0
 26
0.0
 36
1.0
 17
0.0
 27
0.0
 37
0.0
 40
84.1095383153
 41
0.7070707071
 42
50.0
 43
0.0
 44
0.0
 50
0.0
 51
0.0
 71
0
 72
100
 73
1
 74
1
 75
0
 76
0
 77
0
 78
0
  0
ENDTAB
  0
TABLE
  2
LTYPE
  5
5
100
AcDbSymbolTable
 70
6
  0
LTYPE
  5
14
100
AcDbSymbolTableRecord
100
AcDbLinetypeTableRecord
  2
BYBLOCK
 70
0
  3

 72
65
 73
0
 40
0.0
  0
LTYPE
  5
15
100
AcDbSymbolTableRecord
100
AcDbLinetypeTableRecord
  2
BYLAYER
 70
0
  3

 72
65
 73
0
 40
0.0
  0
LTYPE
  5
16
100
AcDbSymbolTableRecord
100
AcDbLinetypeTableRecord
  2
CONTINUOUS
 70
64
  3
Solid line
 72
65
 73
0
 40
0.0
  0
LTYPE
  5
1F5
100
AcDbSymbolTableRecord
100
AcDbLinetypeTableRecord
  2
CENTER
 70
64
  3
____ _ ____ _ ____ _ ____ _ ____ _ ____ _ ____
 72
65
 73
4
 40
0.6
 49
0.375
 74
0
 49
-0.075
 74
0
 49
0.075
 74
0
 49
-0.075
 74
0
  0
LTYPE
  5
1F6
100
AcDbSymbolTableRecord
100
AcDbLinetypeTableRecord
  2
HIDDEN
 70
64
  3
- - - - - - - - - - - - - - - - - - - -
 72
65
 73
2
 40
0.2
 49
0.1
 74
0
 49
-0.1
 74
0
  0
LTYPE
  5
1F7
100
AcDbSymbolTableRecord
100
AcDbLinetypeTableRecord
  2
PHANTOM
 70
64
  3
_____ _ _ _____ _ _ _____ _ _ _____
 72
65
 73
6
 40
0.8
 49
0.45
 74
0
 49
-0.05
 74
0
 49
0.1
 74
0
 49
-0.05
 74
0
 49
0.1
 74
0
 49
-0.05
 74
0
  0
LTYPE
  5
1F8
100
AcDbSymbolTableRecord
100
AcDbLinetypeTableRecord
  2
DOT
 70
64
  3
. . . . . . . . . . . . . . . . . . . .
 72
65
 73
2
 40
0.2
 49
0.1
 74
0
 49
-0.1
 74
0
  0
LTYPE
  5
1F9
100
AcDbSymbolTableRecord
100
AcDbLinetypeTableRecord
  2
DASHED
 70
64
  3
- - - - - - - - - - - - - - - - - - - -
 72
65
 73
2
 40
0.2
 49
0.1
 74
0
 49
-0.1
 74
0
  0
ENDTAB
  0
TABLE
  2
LAYER
  5
2
100
AcDbSymbolTable
 70
36
  0
LAYER
  5
10
100
AcDbSymbolTableRecord
100
AcDbLayerTableRecord
  2
0
 70
0
 62
7
  6
CONTINUOUS
370
-3
390
F
  0
LAYER
  5
1FA
100
AcDbSymbolTableRecord
100
AcDbLayerTableRecord
  2
DEFAULT_1
 70
0
 62
7
  6
CENTER
370
-3
390
F
  0
LAYER
  5
1FB
100
AcDbSymbolTableRecord
100
AcDbLayerTableRecord
  2
DEFAULT_2
 70
0
 62
7
  6
HIDDEN
370
-3
390
F
  0
LAYER
  5
1FC
100
AcDbSymbolTableRecord
100
AcDbLayerTableRecord
  2
DEFAULT_3
 70
0
 62
7
  6
PHANTOM
370
-3
390
F
  0
LAYER
  5
1FD
100
AcDbSymbolTableRecord
100
AcDbLayerTableRecord
  2
00_COMPONENTS
 70
0
 62
7
  6
CONTINUOUS
370
-3
390
F
  0
LAYER
  5
1FE
100
AcDbSymbolTableRecord
100
AcDbLayerTableRecord
  2
01_1_DEFAULT_DATUMS
 70
0
 62
7
  6
CONTINUOUS
370
-3
390
F
  0
LAYER
  5
1FF
100
AcDbSymbolTableRecord
100
AcDbLayerTableRecord
  2
01_PLANES
 70
0
 62
7
  6
CONTINUOUS
370
-3
390
F
  0
LAYER
  5
200
100
AcDbSymbolTableRecord
100
AcDbLayerTableRecord
  2
02_COORD_SYS
 70
0
 62
7
  6
CONTINUOUS
370
-3
390
F
  0
LAYER
  5
201
100
AcDbSymbolTableRecord
100
AcDbLayerTableRecord
  2
03_AXES
 70
0
 62
7
  6
CONTINUOUS
370
-3
390
F
  0
LAYER
  5
202
100
AcDbSymbolTableRecord
100
AcDbLayerTableRecord
  2
04_POINTS
 70
0
 62
7
  6
CONTINUOUS
370
-3
390
F
  0
LAYER
  5
203
100
AcDbSymbolTableRecord
100
AcDbLayerTableRecord
  2
05_CURVES
 70
0
 62
7
  6
CONTINUOUS
370
-3
390
F
  0
LAYER
  5
204
100
AcDbSymbolTableRecord
100
AcDbLayerTableRecord
  2
06_SURFS
 70
0
 62
7
  6
CONTINUOUS
370
-3
390
F
  0
LAYER
  5
205
100
AcDbSymbolTableRecord
100
AcDbLayerTableRecord
  2
07_COSMETICS
 70
0
 62
7
  6
CONTINUOUS
370
-3
390
F
  0
LAYER
  5
206
100
AcDbSymbolTableRecord
100
AcDbLayerTableRecord
  2
10_NOTES
 70
0
 62
7
  6
CONTINUOUS
370
-3
390
F
  0
LAYER
  5
207
100
AcDbSymbolTableRecord
100
AcDbLayerTableRecord
  2
11_NOTES_PUB
 70
0
 62
7
  6
CONTINUOUS
370
-3
390
F
  0
LAYER
  5
208
100
AcDbSymbolTableRecord
100
AcDbLayerTableRecord
  2
13_REF_GTOL
 70
0
 62
7
  6
CONTINUOUS
370
-3
390
F
  0
LAYER
  5
209
100
AcDbSymbolTableRecord
100
AcDbLayerTableRecord
  2
16_MISC
 70
0
 62
7
  6
CONTINUOUS
370
-3
390
F
  0
LAYER
  5
20A
100
AcDbSymbolTableRecord
100
AcDbLayerTableRecord
  2
17_NO_PRINT
 70
0
 62
7
  6
CONTINUOUS
370
-3
390
F
  0
LAYER
  5
20B
100
AcDbSymbolTableRecord
100
AcDbLayerTableRecord
  2
18_DATUM_CAMS_JOINTS
 70
0
 62
7
  6
CONTINUOUS
370
-3
390
F
  0
LAYER
  5
20C
100
AcDbSymbolTableRecord
100
AcDbLayerTableRecord
  2
19_DATUM_FUNCTIONAL
 70
0
 62
7
  6
CONTINUOUS
370
-3
390
F
  0
LAYER
  5
20D
100
AcDbSymbolTableRecord
100
AcDbLayerTableRecord
  2
20_DATUM_KINEMATIC_SCHEME
 70
0
 62
7
  6
CONTINUOUS
370
-3
390
F
  0
ENDTAB
  0
TABLE
  2
STYLE
  5
3
100
AcDbSymbolTable
 70
1
  0
STYLE
  5
11
100
AcDbSymbolTableRecord
100
AcDbTextStyleTableRecord
  2
STANDARD
 70
0
 40
0.0
 41
1.0
 50
0.0
 71
0
 42
0.2
  3
ARIAL.TTF
  4

  0
STYLE
  5
20E
100
AcDbSymbolTableRecord
100
AcDbTextStyleTableRecord
  2
TEXTSTYLE_1
 70
0
 40
0.0
 41
0.8
 50
0.0
 71
0
 42
0.2
  3
gdt
  4

  0
ENDTAB
  0
TABLE
  2
VIEW
  5
6
100
AcDbSymbolTable
 70
0
  0
ENDTAB
  0
TABLE
  2
UCS
  5
7
100
AcDbSymbolTable
 70
0
  0
ENDTAB
  0
TABLE
  2
APPID
  5
9
100
AcDbSymbolTable
 70
1
  0
APPID
  5
20F
100
AcDbSymbolTableRecord
100
AcDbRegAppTableRecord
  2
ACAD
 70
0
  0
ENDTAB
  0
TABLE
  2
BLOCK_RECORD
  5
1
100
AcDbSymbolTable
 70
0
  0
BLOCK_RECORD
  5
210
100
AcDbSymbolTableRecord
100
AcDbBlockTableRecord
  2
*Model_Space
  0
BLOCK_RECORD
  5
211
100
AcDbSymbolTableRecord
100
AcDbBlockTableRecord
  2
*Paper_Space
  0
BLOCK_RECORD
  5
212
100
AcDbSymbolTableRecord
100
AcDbBlockTableRecord
  2
_FILLED
  0
ENDTAB
  0
TABLE
  2
DIMSTYLE
  5
A
100
AcDbSymbolTable
 70
1
100
AcDbDimStyleTable
 71
0
  0
DIMSTYLE
105
213
100
AcDbSymbolTableRecord
100
AcDbDimStyleTableRecord
  2
STANDARD
 70
0
  3

  4

 40
1.0
 41
0.7079927468
 42
1.0
 43
0.38
 44
1.0
 45
0.0
 46
0.0
 47
0.01
 48
0.01
140
0.9911898455
141
0.09
142
0.0
143
25.4
144
1.0
145
0.0
146
1.0
147
0.625
 71
1
 72
0
 73
0
 74
0
 75
0
 76
0
 77
1
 78
8
 79
2
170
0
171
1
172
0
173
0
174
0
175
0
176
0
177
0
178
0
270
2
179
2
271
2
272
2
273
2
274
2
275
0
280
0
281
0
282
0
283
1
284
8
285
0
286
0
287
3
288
0
340
11
278
46
341
212
342
212
343
212
344
212
  0
ENDTAB
  0
ENDSEC
  0
SECTION
  2
BLOCKS
  0
BLOCK
  5
20
100
AcDbEntity
  8
0
100
AcDbBlockBegin
  2
*Model_Space
 70
0
 10
0.0
 20
0.0
 30
0.0
  3
*Model_Space
  1

  0
ENDBLK
  5
21
100
AcDbEntity
  8
0
100
AcDbBlockEnd
  0
BLOCK
  5
1C
100
AcDbEntity
  8
0
100
AcDbBlockBegin
  2
*Paper_Space
 70
0
 10
0.0
 20
0.0
 30
0.0
  3
*Paper_Space
  1

  0
ENDBLK
  5
1D
100
AcDbEntity
  8
0
100
AcDbBlockEnd
  0
BLOCK
  5
214
100
AcDbEntity
  8
0
100
AcDbBlockBegin
  2
_FILLED
 70
64
 10
0.0
 20
0.0
  3
_FILLED
  1

  0
SOLID
  5
215
100
AcDbEntity
  8
0
  6
BYBLOCK
 62
0
100
AcDbTrace
 10
0.0
 20
0.0
 11
-1.0
 21
0.25
 12
-1.0
 22
-0.25
 13
-1.0
 23
-0.25
  0
ENDBLK
  5
216
100
AcDbEntity
  8
0
  6
BYBLOCK
 62
0
100
AcDbBlockEnd
  0
ENDSEC
  0
SECTION
  2
ENTITIES
  0
LINE
  5
217
100
AcDbEntity
  8
0
100
AcDbLine
 62
7
  6
BYLAYER
 10
41.3647786391
 20
6.7495267931
 11
41.3147786391
 21
6.7431759604
  0
LINE
  5
218
100
AcDbEntity
  8
0
100
AcDbLine
 62
7
  6
BYLAYER
 10
41.3147751727
 20
6.7431759604
 11
31.0147821056
 21
6.7431759604
  0
LINE
  5
219
100
AcDbEntity
  8
0
100
AcDbLine
 62
7
  6
BYLAYER
 10
41.3647786391
 20
6.9431759604
 11
30.9647786391
 21
6.9431759604
  0
LINE
  5
21A
100
AcDbEntity
  8
0
100
AcDbLine
 62
7
  6
BYLAYER
 10
41.5647684464
 20
7.1431759604
 11
30.7647888318
 21
7.1431759604
  0
LINE
  5
21B
100
AcDbEntity
  8
0
100
AcDbLine
 62
7
  6
BYLAYER
 10
30.9647786391
 20
6.7495267931
 11
31.0147786391
 21
6.7431759604
  0
LINE
  5
21C
100
AcDbEntity
  8
0
100
AcDbLine
 62
7
  6
BYLAYER
 10
42.1647786391
 20
7.7431777516
 11
30.1647786391
 21
7.7431777516
  0
LINE
  5
21D
100
AcDbEntity
  8
0
100
AcDbLine
 62
7
  6
BYLAYER
 10
30.7647813178
 20
7.1431770475
 11
30.1647798356
 21
7.7431789481
  0
LINE
  5
21E
100
AcDbEntity
  8
0
100
AcDbLine
 62
7
  6
BYLAYER
 10
18.9742931517
 20
73.8314503528
 11
20.4107777537
 21
77.7781593602
  0
LINE
  5
21F
100
AcDbEntity
  8
0
100
AcDbLine
 62
7
  6
BYLAYER
 10
28.8309791869
 20
74.7134566719
 11
27.394494585
 21
70.7667476646
  0
LINE
  5
220
100
AcDbEntity
  8
0
100
AcDbLine
 62
7
  6
BYLAYER
 10
30.1647786391
 20
36.8931759604
 11
42.1647786391
 21
36.8931759604
  0
LINE
  5
221
100
AcDbEntity
  8
0
100
AcDbLine
 62
7
  6
BYLAYER
 10
41.5147786391
 20
37.5431759604
 11
30.8147786391
 21
37.5431759604
  0
LINE
  5
222
100
AcDbEntity
  8
0
100
AcDbLine
 62
7
  6
BYLAYER
 10
30.1647786391
 20
7.7431801446
 11
30.1647786391
 21
36.8931759604
  0
LINE
  5
223
100
AcDbEntity
  8
0
100
AcDbLine
 62
7
  6
BYLAYER
 10
30.8147786391
 20
37.5431759604
 11
30.8147786391
 21
43.8931733008
  0
LINE
  5
224
100
AcDbEntity
  8
0
100
AcDbLine
 62
7
  6
BYLAYER
 10
30.8647786391
 20
44.0431759604
 11
30.8647786391
 21
46.0058845577
  0
LINE
  5
225
100
AcDbEntity
  8
0
100
AcDbLine
 62
7
  6
BYLAYER
 10
30.8703104625
 20
46.0800547831
 11
30.8647786391
 21
46.0058845577
  0
LINE
  5
226
100
AcDbEntity
  8
0
100
AcDbLine
 62
7
  6
BYLAYER
 10
31.1647786391
 20
48.0431759604
 11
30.8703104627
 21
46.0800547842
  0
LINE
  5
227
100
AcDbEntity
  8
0
100
AcDbLine
 62
7
  6
BYLAYER
 10
30.9647811619
 20
44.0431759604
 11
30.8147786391
 21
43.8931733649
  0
LINE
  5
228
100
AcDbEntity
  8
0
100
AcDbLine
 62
7
  6
BYLAYER
 10
30.9647786391
 20
6.7495305319
 11
30.9647786391
 21
7.1431759604
  0
LINE
  5
229
100
AcDbEntity
  8
0
100
AcDbLine
 62
7
  6
BYLAYER
 10
32.5925354527
 20
63.3431759604
 11
32.5925354527
 21
50.0431759604
  0
LINE
  5
22A
100
AcDbEntity
  8
0
100
AcDbLine
 62
7
  6
BYLAYER
 10
31.7695503411
 20
48.3133248447
 11
31.9142881688
 21
49.7607031215
  0
LINE
  5
22B
100
AcDbEntity
  8
0
100
AcDbLine
 62
7
  6
BYLAYER
 10
30.8147786391
 20
43.8931733008
 11
41.5147786391
 21
43.8931733008
  0
LINE
  5
22C
100
AcDbEntity
  8
0
100
AcDbLine
 62
7
  6
BYLAYER
 10
41.4647110847
 20
44.0431759604
 11
30.8648461936
 21
44.0431759604
  0
LINE
  5
22D
100
AcDbEntity
  8
0
100
AcDbLine
 62
7
  6
BYLAYER
 10
30.8147786391
 20
37.5431759604
 11
30.1647786391
 21
36.8931759604
  0
LINE
  5
22E
100
AcDbEntity
  8
0
100
AcDbLine
 62
7
  6
BYLAYER
 10
30.8647786391
 20
46.005884558
 11
41.4647786391
 21
46.005884558
  0
LINE
  5
22F
100
AcDbEntity
  8
0
100
AcDbLine
 62
7
  6
BYLAYER
 10
41.4592468157
 20
46.0800547831
 11
30.8703104625
 21
46.0800547831
  0
LINE
  5
230
100
AcDbEntity
  8
0
100
AcDbLine
 62
7
  6
BYLAYER
 10
41.5147786391
 20
37.5431759604
 11
42.1647786391
 21
36.8931759604
  0
LINE
  5
231
100
AcDbEntity
  8
0
100
AcDbLine
 62
7
  6
BYLAYER
 10
37.4811202934
 20
49.6573275533
 11
37.4707827366
 21
49.7607031215
  0
LINE
  5
232
100
AcDbEntity
  8
0
100
AcDbLine
 62
7
  6
BYLAYER
 10
36.7925354527
 20
63.3431759604
 11
36.7925354527
 21
50.0431759604
  0
LINE
  5
233
100
AcDbEntity
  8
0
100
AcDbLine
 62
7
  6
BYLAYER
 10
37.9093770148
 20
49.242361216
 11
37.9091101396
 21
49.2423373422
  0
LINE
  5
234
100
AcDbEntity
  8
0
100
AcDbLine
 62
7
  6
BYLAYER
 10
31.1648432792
 20
48.0431759604
 11
41.1265729221
 21
48.0431759604
  0
LINE
  5
235
100
AcDbEntity
  8
0
100
AcDbLine
 62
7
  6
BYLAYER
 10
37.040360402
 20
48.3133248447
 11
31.7695503411
 21
48.3133248447
  0
LINE
  5
236
100
AcDbEntity
  8
0
100
AcDbLine
 62
7
  6
BYLAYER
 10
40.7318572073
 20
48.4411988334
 11
37.8602387149
 21
48.4411988334
  0
LINE
  5
237
100
AcDbEntity
  8
0
100
AcDbLine
 62
7
  6
BYLAYER
 10
37.9225237365
 20
49.0839668112
 11
40.5979472119
 21
49.0839668112
  0
LINE
  5
238
100
AcDbEntity
  8
0
100
AcDbLine
 62
7
  6
BYLAYER
 10
37.9277169381
 20
49.2431759604
 11
40.4021511279
 21
49.2431759604
  0
LINE
  5
239
100
AcDbEntity
  8
0
100
AcDbLine
 62
7
  6
BYLAYER
 10
31.9142881688
 20
49.7607031215
 11
37.4707827366
 21
49.7607031215
  0
LINE
  5
23A
100
AcDbEntity
  8
0
100
AcDbLine
 62
7
  6
BYLAYER
 10
32.2264171424
 20
50.0431759604
 11
37.158653763
 21
50.0431759604
  0
LWPOLYLINE
  5
23B
100
AcDbEntity
  8
0
100
AcDbPolyline
 62
7
  6
BYLAYER
 90
6
 70
0
 10
37.9072781605
 20
49.2435692397
 10
37.8419593601
 20
49.2530029663
 10
37.7097879667
 20
49.3063998205
 10
37.5790060976
 20
49.4207956279
 10
37.499211871
 20
49.5706796213
 10
37.4811211733
 20
49.6573069524
  0
LINE
  5
23C
100
AcDbEntity
  8
0
100
AcDbLine
 62
7
  6
BYLAYER
 10
41.3647761164
 20
44.0431759604
 11
41.5147786391
 21
43.8931733649
  0
LINE
  5
23D
100
AcDbEntity
  8
0
100
AcDbLine
 62
7
  6
BYLAYER
 10
41.4592468157
 20
46.0800547831
 11
41.4647786391
 21
46.0058845577
  0
LINE
  5
23E
100
AcDbEntity
  8
0
100
AcDbLine
 62
7
  6
BYLAYER
 10
41.3647786391
 20
6.7495305319
 11
41.3647786391
 21
7.1431759604
  0
LINE
  5
23F
100
AcDbEntity
  8
0
100
AcDbLine
 62
7
  6
BYLAYER
 10
41.4647786391
 20
44.0431759604
 11
41.4647786391
 21
46.0058845577
  0
LINE
  5
240
100
AcDbEntity
  8
0
100
AcDbLine
 62
7
  6
BYLAYER
 10
41.5147786391
 20
37.5431759604
 11
41.5147786391
 21
43.8931733008
  0
LINE
  5
241
100
AcDbEntity
  8
0
100
AcDbLine
 62
7
  6
BYLAYER
 10
42.1647786391
 20
7.7431801446
 11
42.1647786391
 21
36.8931759604
  0
LINE
  5
242
100
AcDbEntity
  8
0
100
AcDbLine
 62
7
  6
BYLAYER
 10
40.5979472119
 20
49.0839668112
 11
40.7318572073
 21
48.4411988334
  0
LINE
  5
243
100
AcDbEntity
  8
0
100
AcDbLine
 62
7
  6
BYLAYER
 10
41.1643282869
 20
48.0461783085
 11
41.4592468156
 21
46.0800547842
  0
LINE
  5
244
100
AcDbEntity
  8
0
100
AcDbLine
 62
7
  6
BYLAYER
 10
32.5925354527
 20
63.3431759604
 11
36.7925354527
 21
63.3431759604
  0
LINE
  5
245
100
AcDbEntity
  8
0
100
AcDbLine
 62
7
  6
BYLAYER
 10
18.9742931517
 20
73.8314503529
 11
27.394494585
 21
70.7667476646
  0
LINE
  5
246
100
AcDbEntity
  8
0
100
AcDbLine
 62
7
  6
BYLAYER
 10
20.4107777537
 20
77.7781593602
 11
28.8309791869
 21
74.7134566719
  0
LINE
  5
247
100
AcDbEntity
  8
0
100
AcDbLine
 62
7
  6
BYLAYER
 10
41.5647759605
 20
7.1431770475
 11
42.1647774426
 21
7.7431789481
  0
ARC
  5
248
100
AcDbEntity
  8
0
100
AcDbCircle
 62
7
  6
BYLAYER
 10
213.9515215084
 20
31.7021348527
 40
176.8850930373
100
AcDbArc
 50
174.360658746
 51
174.5698364246
  0
ARC
  5
249
100
AcDbEntity
  8
0
100
AcDbCircle
 62
7
  6
BYLAYER
 10
24.6925354527
 20
63.3431759604
 40
12.1
100
AcDbArc
 50
0.0
 51
70.0
  0
ARC
  5
24A
100
AcDbEntity
  8
0
100
AcDbCircle
 62
7
  6
BYLAYER
 10
24.6925354527
 20
63.3431759604
 40
7.9
100
AcDbArc
 50
0.0
 51
70.0
  0
ARC
  5
24B
100
AcDbEntity
  8
0
100
AcDbCircle
 62
7
  6
BYLAYER
 10
41.2213474171
 20
48.5431759604
 40
0.5
100
AcDbArc
 50
191.768288932
 51
263.4472755045
  0
ARC
  5
24C
100
AcDbEntity
  8
0
100
AcDbCircle
 62
7
  6
BYLAYER
 10
32.2264171424
 20
49.7294902241
 40
0.3136857363
100
AcDbArc
 50
90.0
 51
174.2894068625
  0
ARC
  5
24D
100
AcDbEntity
  8
0
100
AcDbCircle
 62
7
  6
BYLAYER
 10
37.158653763
 20
49.7294902241
 40
0.3136857363
100
AcDbArc
 50
5.7105931375
 51
90.0
  0
ARC
  5
24E
100
AcDbEntity
  8
0
100
AcDbCircle
 62
7
  6
BYLAYER
 10
31.4710391841
 20
48.3431759604
 40
0.3
100
AcDbArc
 50
270.0
 51
354.2894068625
  0
ARC
  5
24F
100
AcDbEntity
  8
0
100
AcDbCircle
 62
7
  6
BYLAYER
 10
40.4021511279
 20
49.0431759604
 40
0.2
100
AcDbArc
 50
11.7682889319
 51
90.0
  0
ARC
  5
250
100
AcDbEntity
  8
0
100
AcDbCircle
 62
7
  6
BYLAYER
 10
37.9274061503
 20
49.0431759604
 40
0.2
100
AcDbArc
 50
90.0
 51
95.2487592199
  0
ARC
  5
251
100
AcDbEntity
  8
0
100
AcDbCircle
 62
7
  6
BYLAYER
 10
37.9135479579
 20
49.1934980064
 40
0.0490406812
100
AcDbArc
 50
95.1918136356
 51
96.8385001114
  0
ARC
  5
252
100
AcDbEntity
  8
0
100
AcDbCircle
 62
7
  6
BYLAYER
 10
37.9120775625
 20
49.2059556857
 40
0.0364965551
100
AcDbArc
 50
96.8752605397
 51
97.8918582341
  0
SPLINE
  5
253
100
AcDbEntity
  8
0
100
AcDbSpline
 62
7
  6
BYLAYER
 70
0
 71
3
 72
20
 73
16
 74
0
 42
0.0000001
 43
0.0000001
 44
0.0000000001
 40
0.0
 40
0.0
 40
0.0
 40
0.0
 40
0.040829541
 40
0.0888234754
 40
0.1442019745
 40
0.2066694588
 40
0.3498463199
 40
0.5075607633
 40
0.6640262535
 40
0.7367714428
 40
0.8037765045
 40
0.8639046679
 40
0.9166850725
 40
0.9619397202
 40
1.0
 40
1.0
 40
1.0
 40
1.0
 10
37.0800995251
 20
49.1361940269
 30
0.0
 10
37.0905554061
 20
49.1309600549
 30
0.0
 10
37.1137967554
 20
49.1205540904
 30
0.0
 10
37.1525461182
 20
49.1062081506
 30
0.0
 10
37.197978995
 20
49.0922899501
 30
0.0
 10
37.2704860733
 20
49.0740055622
 30
0.0
 10
37.3730619451
 20
49.0556847149
 30
0.0
 10
37.5035011876
 20
49.042656187
 30
0.0
 10
37.614403673
 20
49.0399057777
 30
0.0
 10
37.699195187
 20
49.0431020448
 30
0.0
 10
37.756267666
 20
49.0477591184
 30
0.0
 10
37.8073759474
 20
49.054459681
 30
0.0
 10
37.851926014
 20
49.0627873084
 30
0.0
 10
37.8897304262
 20
49.0723794053
 30
0.0
 10
37.9123822904
 20
49.0799821966
 30
0.0
 10
37.9225275831
 20
49.0839666476
 30
0.0
  0
SPLINE
  5
254
100
AcDbEntity
  8
0
100
AcDbSpline
 62
7
  6
BYLAYER
 70
0
 71
3
 72
15
 73
11
 74
0
 42
0.0000001
 43
0.0000001
 44
0.0000000001
 40
0.0
 40
0.0
 40
0.0
 40
0.0
 40
0.0583258225
 40
0.1287640951
 40
0.216223487
 40
0.3266424945
 40
0.463165255
 40
0.6243014891
 40
0.8052043139
 40
1.0
 40
1.0
 40
1.0
 40
1.0
 10
37.3828183552
 20
49.6904889371
 30
0.0
 10
37.3696665325
 20
49.6890631455
 30
0.0
 10
37.3407627635
 20
49.6839149644
 30
0.0
 10
37.2949531296
 20
49.6651076717
 30
0.0
 10
37.245862468
 20
49.6280315044
 30
0.0
 10
37.1973736943
 20
49.5689553002
 30
0.0
 10
37.1530982368
 20
49.4871663955
 30
0.0
 10
37.1165447844
 20
49.3845846684
 30
0.0
 10
37.0906867792
 20
49.2653135555
 30
0.0
 10
37.0821937457
 20
49.1803231853
 30
0.0
 10
37.0800874481
 20
49.1361918041
 30
0.0
  0
SPLINE
  5
255
100
AcDbEntity
  8
0
100
AcDbSpline
 62
7
  6
BYLAYER
 70
0
 71
3
 72
15
 73
11
 74
0
 42
0.0000001
 43
0.0000001
 44
0.0000000001
 40
0.0
 40
0.0
 40
0.0
 40
0.0
 40
0.2364175304
 40
0.2999599452
 40
0.3646485188
 40
0.4957043425
 40
0.6272470019
 40
0.7566562025
 40
0.8813649466
 40
1.0
 40
1.0
 40
1.0
 40
1.0
 10
37.3828183481
 20
49.6904889361
 30
0.0
 10
37.3889786046
 20
49.6305392563
 30
0.0
 10
37.4104541188
 20
49.554831857
 30
0.0
 10
37.4554998203
 20
49.473474402
 30
0.0
 10
37.4928906894
 20
49.4188604483
 30
0.0
 10
37.5499004979
 20
49.3570876464
 30
0.0
 10
37.6321698045
 20
49.2991475945
 30
0.0
 10
37.7228135598
 20
49.2592974462
 30
0.0
 10
37.8165186354
 20
49.2400271077
 30
0.0
 10
37.8789956233
 20
49.239571083
 30
0.0
 10
37.9091101611
 20
49.2423375603
 30
0.0
  0
SPLINE
  5
256
100
AcDbEntity
  8
0
100
AcDbSpline
 62
7
  6
BYLAYER
 70
0
 71
3
 72
21
 73
17
 74
0
 42
0.0000001
 43
0.0000001
 44
0.0000000001
 40
0.0
 40
0.0
 40
0.0
 40
0.0
 40
0.2353151672
 40
0.4385603265
 40
0.6101935043
 40
0.7505102348
 40
0.8089750043
 40
0.8596509824
 40
0.9025349832
 40
0.9376223489
 40
0.9649125458
 40
0.9844055614
 40
0.9912281223
 40
0.9961013832
 40
0.9990253426
 40
1.0
 40
1.0
 40
1.0
 40
1.0
 10
41.1264844195
 20
48.0431759604
 30
0.0
 10
41.1294647725
 20
48.0431759604
 30
0.0
 10
41.1350199676
 20
48.043273419
 30
0.0
 10
41.1427385911
 20
48.043690619
 30
0.0
 10
41.1492393806
 20
48.0442674037
 30
0.0
 10
41.1538979459
 20
48.0448278083
 30
0.0
 10
41.1570267103
 20
48.0452670455
 30
0.0
 10
41.1589310328
 20
48.0455528003
 30
0.0
 10
41.1605404969
 20
48.0458034248
 30
0.0
 10
41.1618595251
 20
48.0460065407
 30
0.0
 10
41.1628800788
 20
48.046168611
 30
0.0
 10
41.1635594476
 20
48.046266647
 30
0.0
 10
41.1639383802
 20
48.0463356534
 30
0.0
 10
41.164140069
 20
48.0463504685
 30
0.0
 10
41.1642167736
 20
48.0463916986
 30
0.0
 10
41.1642998049
 20
48.0463743475
 30
0.0
 10
41.1642979311
 20
48.0463865489
 30
0.0
  0
SPLINE
  5
257
100
AcDbEntity
  8
0
100
AcDbSpline
 62
7
  6
BYLAYER
 70
0
 71
3
 72
15
 73
11
 74
0
 42
0.0000001
 43
0.0000001
 44
0.0000000001
 40
0.0
 40
0.0
 40
0.0
 40
0.0
 40
0.1423974747
 40
0.2409934676
 40
0.3137406414
 40
0.3893694751
 40
0.4896966546
 40
0.6228638984
 40
0.7921408412
 40
1.0
 40
1.0
 40
1.0
 40
1.0
 10
37.9070695516
 20
49.2421069031
 30
0.0
 10
37.9061646383
 20
49.2419812115
 30
0.0
 10
37.9046434939
 20
49.2417112069
 30
0.0
 10
37.9027162515
 20
49.2410273088
 30
0.0
 10
37.9015716034
 20
49.2397945754
 30
0.0
 10
37.9014499204
 20
49.2381243206
 30
0.0
 10
37.9019316579
 20
49.236200368
 30
0.0
 10
37.9028186011
 20
49.2337688599
 30
0.0
 10
37.9040405858
 20
49.230732767
 30
0.0
 10
37.9049167415
 20
49.2284766758
 30
0.0
 10
37.9053801932
 20
49.2272262026
 30
0.0
  0
SPLINE
  5
258
100
AcDbEntity
  8
0
100
AcDbSpline
 62
7
  6
BYLAYER
 70
0
 71
3
 72
14
 73
10
 74
0
 42
0.0000001
 43
0.0000001
 44
0.0000000001
 40
0.0
 40
0.0
 40
0.0
 40
0.0
 40
0.0597266686
 40
0.1373807628
 40
0.2347054118
 40
0.3519639399
 40
0.4890758387
 40
0.6449745097
 40
1.0
 40
1.0
 40
1.0
 40
1.0
 10
37.9053801932
 20
49.2272262026
 30
0.0
 10
37.9063806564
 20
49.2245267795
 30
0.0
 10
37.9084708083
 20
49.2182352141
 30
0.0
 10
37.9110256066
 20
49.2071981162
 30
0.0
 10
37.9131340678
 20
49.1932630193
 30
0.0
 10
37.9149880455
 20
49.1764106207
 30
0.0
 10
37.9166294614
 20
49.1567020196
 30
0.0
 10
37.9188141785
 20
49.1255440775
 30
0.0
 10
37.9207297677
 20
49.10098534
 30
0.0
 10
37.9225292303
 20
49.0839678044
 30
0.0
  0
SPLINE
  5
259
100
AcDbEntity
  8
0
100
AcDbSpline
 62
7
  6
BYLAYER
 70
0
 71
3
 72
15
 73
11
 74
0
 42
0.0000001
 43
0.0000001
 44
0.0000000001
 40
0.0
 40
0.0
 40
0.0
 40
0.0
 40
0.1172209379
 40
0.2375635054
 40
0.3606545878
 40
0.4861471377
 40
0.6134904775
 40
0.7420521253
 40
0.8712070295
 40
1.0
 40
1.0
 40
1.0
 40
1.0
 10
37.3679838713
 20
48.0431759604
 30
0.0
 10
37.3943363294
 20
48.0431759604
 30
0.0
 10
37.4478585849
 20
48.0484548121
 30
0.0
 10
37.5261559039
 20
48.0709870695
 30
0.0
 10
37.6011527494
 20
48.1072937328
 30
0.0
 10
37.670640827
 20
48.155998747
 30
0.0
 10
37.7327647964
 20
48.2155503317
 30
0.0
 10
37.7861554155
 20
48.2840681172
 30
0.0
 10
37.8294603569
 20
48.3597153861
 30
0.0
 10
37.8511963116
 20
48.4136950232
 30
0.0
 10
37.8602446665
 20
48.4411988334
 30
0.0
  0
SPLINE
  5
25A
100
AcDbEntity
  8
0
100
AcDbSpline
 62
7
  6
BYLAYER
 70
0
 71
3
 72
15
 73
11
 74
0
 42
0.0000001
 43
0.0000001
 44
0.0000000001
 40
0.0
 40
0.0
 40
0.0
 40
0.0
 40
0.167851885
 40
0.333618264
 40
0.4906101609
 40
0.6323504324
 40
0.7537236381
 40
0.853337488
 40
0.9330571221
 40
1.0
 40
1.0
 40
1.0
 40
1.0
 10
37.2575904468
 20
48.2791976176
 30
0.0
 10
37.2588589761
 20
48.2637656689
 30
0.0
 10
37.2623394764
 20
48.2331632681
 30
0.0
 10
37.2705028387
 20
48.1886041469
 30
0.0
 10
37.2817404834
 20
48.1471976387
 30
0.0
 10
37.2955556721
 20
48.1108935414
 30
0.0
 10
37.3116928873
 20
48.0814349525
 30
0.0
 10
37.329312544
 20
48.0597192622
 30
0.0
 10
37.3481810161
 20
48.0463733143
 30
0.0
 10
37.3618007395
 20
48.0431958975
 30
0.0
 10
37.3679760851
 20
48.0431958178
 30
0.0
  0
SPLINE
  5
25B
100
AcDbEntity
  8
0
100
AcDbSpline
 62
7
  6
BYLAYER
 70
0
 71
3
 72
14
 73
10
 74
0
 42
0.0000001
 43
0.0000001
 44
0.0000000001
 40
0.0
 40
0.0
 40
0.0
 40
0.0
 40
0.2643066465
 40
0.4001292505
 40
0.5333665481
 40
0.6610803369
 40
0.781717759
 40
0.8944434346
 40
1.0
 40
1.0
 40
1.0
 40
1.0
 10
37.040347287
 20
48.3133254322
 30
0.0
 10
37.0431360964
 20
48.2786041373
 30
0.0
 10
37.0547905194
 20
48.2261295562
 30
0.0
 10
37.0858738027
 20
48.1628153627
 30
0.0
 10
37.1166613723
 20
48.1201608486
 30
0.0
 10
37.1537649059
 20
48.0857281366
 30
0.0
 10
37.1947014813
 20
48.0607602866
 30
0.0
 10
37.2373514208
 20
48.046350976
 30
0.0
 10
37.2662015169
 20
48.0431761669
 30
0.0
 10
37.2801128727
 20
48.0431759604
 30
0.0
  0
SPLINE
  5
25C
100
AcDbEntity
  8
0
100
AcDbSpline
 62
7
  6
BYLAYER
 70
0
 71
3
 72
18
 73
14
 74
0
 42
0.0000001
 43
0.0000001
 44
0.0000000001
 40
0.0
 40
0.0
 40
0.0
 40
0.0
 40
0.1822302756
 40
0.3399640984
 40
0.4744169904
 40
0.5866350133
 40
0.6350123167
 40
0.6790342233
 40
0.7201647121
 40
0.7609248817
 40
0.8560997622
 40
0.9200428237
 40
1.0
 40
1.0
 40
1.0
 40
1.0
 10
37.382818401
 20
49.6904890186
 30
0.0
 10
37.3900573708
 20
49.6912746738
 30
0.0
 10
37.4036144309
 20
49.6922945335
 30
0.0
 10
37.4225703137
 20
49.6927005946
 30
0.0
 10
37.4387286638
 20
49.6927170678
 30
0.0
 10
37.4505191704
 20
49.6920871186
 30
0.0
 10
37.4586141491
 20
49.6908787054
 30
0.0
 10
37.4637860069
 20
49.6894945251
 30
0.0
 10
37.4683710825
 20
49.6873391067
 30
0.0
 10
37.473954513
 20
49.6828613849
 30
0.0
 10
37.4777623458
 20
49.6754860766
 30
0.0
 10
37.4800330737
 20
49.6662227751
 30
0.0
 10
37.4808009018
 20
49.6605062258
 30
0.0
 10
37.4811191456
 20
49.657327221
 30
0.0
  0
SPLINE
  5
25D
100
AcDbEntity
  8
0
100
AcDbSpline
 62
7
  6
BYLAYER
 70
0
 71
3
 72
9
 73
5
 74
0
 42
0.0000001
 43
0.0000001
 44
0.0000000001
 40
0.0
 40
0.0
 40
0.0
 40
0.0
 40
0.2505270379
 40
1.0
 40
1.0
 40
1.0
 40
1.0
 10
37.0403309238
 20
48.313335211
 30
0.0
 10
37.0437106493
 20
48.3820486054
 30
0.0
 10
37.0571137114
 20
48.6563282728
 30
0.0
 10
37.0702476011
 20
48.9306209942
 30
0.0
 10
37.0800761805
 20
49.1361966472
 30
0.0
  0
SPLINE
  5
25E
100
AcDbEntity
  8
0
100
AcDbSpline
 62
7
  6
BYLAYER
 70
0
 71
3
 72
10
 73
6
 74
0
 42
0.0000001
 43
0.0000001
 44
0.0000000001
 40
0.0
 40
0.0
 40
0.0
 40
0.0
 40
0.4498807406
 40
0.7147666837
 40
1.0
 40
1.0
 40
1.0
 40
1.0
 10
37.0403602223
 20
48.3133209548
 30
0.0
 10
37.0724442576
 20
48.3056126559
 30
0.0
 10
37.1240528446
 20
48.2959902062
 30
0.0
 10
37.1966881354
 20
48.2858196727
 30
0.0
 10
37.2367875826
 20
48.281268032
 30
0.0
 10
37.2576053555
 20
48.279194701
 30
0.0
  0
SPLINE
  5
25F
100
AcDbEntity
  8
0
100
AcDbSpline
 62
7
  6
BYLAYER
 70
0
 71
3
 72
15
 73
11
 74
0
 42
0.0000001
 43
0.0000001
 44
0.0000000001
 40
0.0
 40
0.0
 40
0.0
 40
0.0
 40
0.1307802429
 40
0.2653785465
 40
0.4004704906
 40
0.5333397177
 40
0.6614962601
 40
0.7828793087
 40
0.8958550217
 40
1.0
 40
1.0
 40
1.0
 40
1.0
 10
37.2576079627
 20
48.2791960724
 30
0.0
 10
37.2853082994
 20
48.2764031463
 30
0.0
 10
37.3418520111
 20
48.2737725988
 30
0.0
 10
37.4271224156
 20
48.2777538299
 30
0.0
 10
37.512131261
 20
48.2894683948
 30
0.0
 10
37.5944518277
 20
48.3082507955
 30
0.0
 10
37.6719743438
 20
48.3334685813
 30
0.0
 10
37.7429216768
 20
48.3641569421
 30
0.0
 10
37.8058558919
 20
48.3995329998
 30
0.0
 10
37.8433163063
 20
48.4268688855
 30
0.0
 10
37.8602381066
 20
48.4411932894
 30
0.0
  0
ENDSEC
  0
SECTION
  2
OBJECTS
  0
DICTIONARY
  5
C
100
AcDbDictionary
280
0
281
1
  3
ACAD_GROUP
350
D
  3
ACAD_MLINESTYLE
350
17
  3
ACAD_LAYOUT
350
1A
  3
ACAD_PLOTSETTINGS
350
19
  3
ACAD_PLOTSTYLENAME
350
E
  0
DICTIONARY
  5
D
102
{ACAD_REACTORS
330
C
102
}
100
AcDbDictionary
280
0
281
1
  0
ACDBDICTIONARYWDFLT
  5
E
102
{ACAD_REACTORS
330
C
102
}
100
AcDbDictionary
281
1
  3
Normal
350
F
100
AcDbDictionaryWithDefault
340
F
  0
DICTIONARY
  5
17
102
{ACAD_REACTORS
330
C
102
}
100
AcDbDictionary
280
0
281
1
  3
Standard
350
18
  0
DICTIONARY
  5
19
102
{ACAD_REACTORS
330
C
102
}
100
AcDbDictionary
281
1
  0
DICTIONARY
  5
1A
102
{ACAD_REACTORS
330
C
102
}
100
AcDbDictionary
281
1
  3
Model
350
260
  3
Layout1
350
261
  0
ACDBPLACEHOLDER
  5
F
102
{ACAD_REACTORS
330
E
102
}
  0
MLINESTYLE
  5
18
102
{ACAD_REACTORS
330
17
102
}
100
AcDbMlineStyle
  2
STANDARD
 70
0
  3

 62
256
 51
90.0
 52
90.0
 71
2
 49
0.5
 62
256
  6
BYLAYER
 49
-0.5
 62
256
  6
BYLAYER
  0
LAYOUT
  5
260
102
{ACAD_REACTORS
330
1A
102
}
100
AcDbPlotSettings
  1

  2
none_device
  4

  6

 40
0.0
 41
0.0
 42
0.0
 43
0.0
 44
210.0
 45
297.0
 46
0.0
 47
0.0
 48
0.0
 49
0.0
140
0.0
141
0.0
142
1.0
143
1.0
 70
1024
 72
1
 73
0
 74
0
  7

 75
0
147
1.0
148
0.0
149
0.0
100
AcDbLayout
  1
Model
 70
0
 71
0
 10
0.0
 20
0.0
 11
210.0
 21
297.0
 12
0.0
 22
0.0
 32
0.0
 14
0.0
 24
0.0
 34
0.0
 15
0.0
 25
0.0
 35
0.0
146
0.0
 13
0.0
 23
0.0
 33
0.0
 16
1.0
 26
0.0
 36
0.0
 17
0.0
 27
1.0
 37
0.0
 76
0
330
210
345
0
346
0
  0
LAYOUT
  5
261
102
{ACAD_REACTORS
330
1A
102
}
100
AcDbPlotSettings
  1

  2
none_device
  4

  6

 40
0.0
 41
0.0
 42
0.0
 43
0.0
 44
210.0
 45
297.0
 46
0.0
 47
0.0
 48
0.0
 49
0.0
140
0.0
141
0.0
142
1.0
143
1.0
 70
0
 72
1
 73
0
 74
0
  7

 75
0
147
1.0
148
0.0
149
0.0
100
AcDbLayout
  1
Layout1
 70
0
 71
1
 10
0.0
 20
0.0
 11
210.0
 21
297.0
 12
0.0
 22
0.0
 32
0.0
 14
0.0
 24
0.0
 34
0.0
 15
0.0
 25
0.0
 35
0.0
146
0.0
 13
0.0
 23
0.0
 33
0.0
 16
1.0
 26
0.0
 36
0.0
 17
0.0
 27
1.0
 37
0.0
 76
0
330
211
345
0
346
0
  0
ENDSEC
  0
EOF
