  0
SECTION
  2
HEADER
  9
$ACADVER
  1
AC1009
  9
$DWGCODEPAGE
  3
ansi_1252
  9
$INSBASE
 10
0.0
 20
0.0
 30
0.0
  9
$EXTMIN
 10
-2.362205
 20
-1.119016
 30
0.0
  9
$EXTMAX
 10
0.098425
 20
0.65
 30
0.0
  9
$LIMMIN
 10
0.0
 20
0.0
  9
$LIMMAX
 10
0.0
 20
0.0
  9
$ORTHOMODE
 70
     0
  9
$REGENMODE
 70
     1
  9
$FILLMODE
 70
     1
  9
$QTEXTMODE
 70
     0
  9
$MIRRTEXT
 70
     1
  9
$DRAGMODE
 70
     2
  9
$LTSCALE
 40
1.0
  9
$OSMODE
 70
     0
  9
$ATTMODE
 70
     1
  9
$TEXTSIZE
 40
0.2
  9
$TRACEWID
 40
0.05
  9
$TEXTSTYLE
  7
STANDARD
  9
$CLAYER
  8
0
  9
$CELTYPE
  6
CONTINUOUS
  9
$CECOLOR
 62
   256
  9
$DIMSCALE
 40
1.0
  9
$DIMASZ
 40
0.18
  9
$DIMEXO
 40
0.0625
  9
$DIMDLI
 40
0.38
  9
$DIMRND
 40
0.0
  9
$DIMDLE
 40
0.0
  9
$DIMEXE
 40
0.18
  9
$DIMTP
 40
0.0
  9
$DIMTM
 40
0.0
  9
$DIMTXT
 40
0.18
  9
$DIMCEN
 40
0.09
  9
$DIMTSZ
 40
0.0
  9
$DIMTOL
 70
     0
  9
$DIMLIM
 70
     0
  9
$DIMTIH
 70
     1
  9
$DIMTOH
 70
     1
  9
$DIMSE1
 70
     0
  9
$DIMSE2
 70
     0
  9
$DIMTAD
 70
     0
  9
$DIMZIN
 70
     0
  9
$DIMBLK
  1

  9
$DIMASO
 70
     1
  9
$DIMSHO
 70
     1
  9
$DIMPOST
  1

  9
$DIMAPOST
  1

  9
$DIMALT
 70
     0
  9
$DIMALTD
 70
     2
  9
$DIMALTF
 40
25.4
  9
$DIMLFAC
 40
1.0
  9
$DIMTOFL
 70
     0
  9
$DIMTVP
 40
0.0
  9
$DIMTIX
 70
     0
  9
$DIMSOXD
 70
     0
  9
$DIMSAH
 70
     0
  9
$DIMBLK1
  1

  9
$DIMBLK2
  1

  9
$DIMSTYLE
  2
STANDARD
  9
$DIMCLRD
 70
     0
  9
$DIMCLRE
 70
     0
  9
$DIMCLRT
 70
     0
  9
$DIMTFAC
 40
1.0
  9
$DIMGAP
 40
0.09
  9
$LUNITS
 70
     2
  9
$LUPREC
 70
     4
  9
$AXISMODE
 70
     0
  9
$AXISUNIT
 10
0.0
 20
0.0
  9
$SKETCHINC
 40
0.1
  9
$FILLETRAD
 40
0.0
  9
$AUNITS
 70
     0
  9
$AUPREC
 70
     0
  9
$MENU
  1
acad
  9
$ELEVATION
 40
0.0
  9
$PELEVATION
 40
0.0
  9
$THICKNESS
 40
0.0
  9
$LIMCHECK
 70
     0
  9
$BLIPMODE
 70
     1
  9
$CHAMFERA
 40
0.0
  9
$CHAMFERB
 40
0.0
  9
$SKPOLY
 70
     0
  9
$TDCREATE
 40
0.000000000
  9
$TDUPDATE
 40
0.000000000
  9
$TDINDWG
 40
0.0000000000
  9
$TDUSRTIMER
 40
0.0000000000
  9
$USRTIMER
 70
     1
  9
$ANGBASE
 50
0.0
  9
$ANGDIR
 70
     0
  9
$PDMODE
 70
     0
  9
$PDSIZE
 40
0.0
  9
$PLINEWID
 40
0.0
  9
$COORDS
 70
     0
  9
$SPLFRAME
 70
     0
  9
$SPLINETYPE
 70
     6
  9
$SPLINESEGS
 70
     8
  9
$ATTDIA
 70
     0
  9
$ATTREQ
 70
     1
  9
$HANDLING
 70
     1
  9
$HANDSEED
  5
7DA
  9
$SURFTAB1
 70
     6
  9
$SURFTAB2
 70
     6
  9
$SURFTYPE
 70
     6
  9
$SURFU
 70
     6
  9
$SURFV
 70
     6
  9
$UCSNAME
  2

  9
$UCSORG
 10
0.0
 20
0.0
 30
0.0
  9
$UCSXDIR
 10
1.0
 20
0.0
 30
0.0
  9
$UCSYDIR
 10
0.0
 20
1.0
 30
0.0
  9
$PUCSNAME
  2

  9
$PUCSORG
 10
0.0
 20
0.0
 30
0.0
  9
$PUCSXDIR
 10
1.0
 20
0.0
 30
0.0
  9
$PUCSYDIR
 10
0.0
 20
1.0
 30
0.0
  9
$USERI1
 70
     0
  9
$USERI2
 70
     0
  9
$USERI3
 70
     0
  9
$USERI4
 70
     0
  9
$USERI5
 70
     0
  9
$USERR1
 40
0.0
  9
$USERR2
 40
0.0
  9
$USERR3
 40
0.0
  9
$USERR4
 40
0.0
  9
$USERR5
 40
0.0
  9
$WORLDVIEW
 70
     1
  9
$SHADEDGE
 70
     3
  9
$SHADEDIF
 70
    70
  9
$TILEMODE
 70
     1
  9
$MAXACTVP
 70
    16
  9
$PINSBASE
 10
0.0
 20
0.0
 30
0.0
  9
$PLIMCHECK
 70
     0
  9
$PEXTMIN
 10
1.000000E+20
 20
1.000000E+20
 30
1.000000E+20
  9
$PEXTMAX
 10
-1.000000E+20
 20
-1.000000E+20
 30
-1.000000E+20
  9
$PLIMMIN
 10
0.0
 20
0.0
  9
$PLIMMAX
 10
12.0
 20
9.0
  9
$UNITMODE
 70
     0
  9
$VISRETAIN
 70
     0
  9
$PLINEGEN
 70
     1
  9
$PSLTSCALE
 70
     0
  9
$TREEDEPTH
 70
  3020
  0
ENDSEC
  0
SECTION
  2
TABLES
  0
TABLE
  2
VPORT
 70
     1
  0
VPORT
  2
*ACTIVE
 70
     0
 10
0.0
 20
0.0
 11
1.0
 21
1.0
 12
6.591288
 22
4.579184
 13
0.0
 23
0.0
 14
1.0
 24
1.0
 15
0.0
 25
0.0
 16
0.0
 26
0.0
 36
1.0
 17
0.0
 27
0.0
 37
0.0
 40
9.158369
 41
0.688564
 42
50.0
 43
0.0
 44
0.0
 50
0.0
 51
0.0
 71
     0
 72
   100
 73
     1
 74
     1
 75
     0
 76
     0
 77
     0
 78
     0
  0
ENDTAB
  0
TABLE
  2
LTYPE
 70
     5
  0
LTYPE
  2
CONTINUOUS
 70
    64
  3
Solid line
 72
    65
 73
     0
 40
0.0
  0
LTYPE
  2
CENTER
 70
    64
  3
Center ____ _ ____ _ ____ _ ____ _ ____ _ ____
 72
    65
 73
     4
 40
50.8
 49
31.75
 49
-6.35
 49
6.35
 49
-6.35
  0
LTYPE
  2
HIDDEN
 70
    64
  3
Hidden __ __ __ __ __ __ __ __ __ __ __ __ __ __
 72
    65
 73
     2
 40
9.525
 49
6.35
 49
-3.175
  0
LTYPE
  2
CENTER2
 70
    64
  3
Center (.5x) ___ _ ___ _ ___ _ ___ _ ___ _ ___
 72
    65
 73
     4
 40
28.575
 49
19.05
 49
-3.175
 49
3.175
 49
-3.175
  0
LTYPE
  2
HIDDEN2
 70
    64
  3
Hidden (.5x) _ _ _ _ _ _ _ _ _ _ _ _ _ _ _ _ _
 72
    65
 73
     2
 40
4.7625
 49
3.175
 49
-1.5875
  0
ENDTAB
  0
TABLE
  2
LAYER
 70
     7
  0
LAYER
  2
0
 70
     0
 62
     7
  6
CONTINUOUS
  0
LAYER
  2
TRMODEL1
 70
     0
 62
     7
  6
CONTINUOUS
  0
LAYER
  2
TRMODEL3
 70
     0
 62
     7
  6
CONTINUOUS
  0
LAYER
  2
TRDETAIL2
 70
     0
 62
     7
  6
CONTINUOUS
  0
LAYER
  2
TRDETAIL3
 70
     0
 62
     7
  6
CONTINUOUS
  0
LAYER
  2
TRDETAIL4
 70
     0
 62
     7
  6
CONTINUOUS
  0
LAYER
  2
TRDETAIL5
 70
     0
 62
     7
  6
CONTINUOUS
  0
ENDTAB
  0
TABLE
  2
STYLE
 70
     1
  0
STYLE
  2
STANDARD
 70
     0
 40
0.0
 41
1.0
 50
0.0
 71
     0
 42
0.0
  3
txt
  4

  0
ENDTAB
  0
TABLE
  2
VIEW
 70
     0
  0
ENDTAB
  0
TABLE
  2
UCS
 70
     0
  0
ENDTAB
  0
TABLE
  2
APPID
 70
     1
  0
APPID
  2
ACAD
 70
     0
  0
ENDTAB
  0
TABLE
  2
DIMSTYLE
 70
     1
  0
DIMSTYLE
  2
STANDARD
 70
     0
  3

  4

  5

  6

  7

 40
1.0
 41
0.18
 42
0.0625
 43
0.38
 44
0.18
 45
0.0
 46
0.0
 47
0.0
 48
0.0
 71
     0
 72
     0
 73
     1
 74
     1
 75
     0
 76
     0
 77
     0
 78
     0
140
0.18
141
0.09
142
0.0
143
25.4
144
1.0
145
0.0
146
1.0
147
0.09
170
     0
171
     2
172
     0
173
     0
174
     0
175
     0
176
     0
177
     0
178
     0
  0
ENDTAB
  0
ENDSEC
  0
SECTION
  2
BLOCKS
  0
ENDSEC
  0
SECTION
  2
ENTITIES
  0
LINE
  8
TRMODEL1
  6
CONTINUOUS
 62
     7
  5
442
 10
-0.984252
 20
-0.312298
 30
0.0
 11
-0.984252
 21
-0.45
 31
0.0
  0
LINE
  8
TRMODEL1
  6
CONTINUOUS
 62
     7
  5
443
 10
-0.984252
 20
0.45
 30
0.0
 11
-0.984252
 21
0.312298
 31
0.0
  0
LINE
  8
TRMODEL1
  6
CONTINUOUS
 62
     7
  5
444
 10
-0.024154
 20
-0.354331
 30
0.0
 11
-0.024154
 21
0.354331
 31
0.0
  0
CIRCLE
  8
TRMODEL1
  6
CONTINUOUS
 62
     7
  5
445
 10
-1.137205
 20
0.475
 30
0.0
 40
0.048406
  0
CIRCLE
  8
TRMODEL1
  6
CONTINUOUS
 62
     7
  5
446
 10
-1.137205
 20
0.475
 30
0.0
 40
0.059055
  0
CIRCLE
  8
TRMODEL1
  6
CONTINUOUS
 62
     7
  5
447
 10
-1.137205
 20
-0.475
 30
0.0
 40
0.048406
  0
CIRCLE
  8
TRMODEL1
  6
CONTINUOUS
 62
     7
  5
448
 10
-1.137205
 20
-0.475
 30
0.0
 40
0.059055
  0
LINE
  8
TRMODEL1
  6
CONTINUOUS
 62
     7
  5
449
 10
-2.224409
 20
0.65
 30
0.0
 11
-2.224409
 21
-0.65
 31
0.0
  0
LINE
  8
TRMODEL1
  6
CONTINUOUS
 62
     7
  5
44A
 10
-2.224409
 20
-0.65
 30
0.0
 11
-2.262205
 21
-0.65
 31
0.0
  0
ARC
  8
TRMODEL1
  6
CONTINUOUS
 62
     7
  5
44B
 10
-2.262205
 20
-0.55
 30
0.0
 40
0.1
 50
180.0
 51
270.0
  0
LINE
  8
TRMODEL1
  6
CONTINUOUS
 62
     7
  5
44C
 10
-2.362205
 20
-0.55
 30
0.0
 11
-2.362205
 21
0.55
 31
0.0
  0
ARC
  8
TRMODEL1
  6
CONTINUOUS
 62
     7
  5
44D
 10
-2.262205
 20
0.55
 30
0.0
 40
0.1
 50
90.0
 51
180.0
  0
LINE
  8
TRMODEL1
  6
CONTINUOUS
 62
     7
  5
44E
 10
-2.262205
 20
0.65
 30
0.0
 11
-2.224409
 21
0.65
 31
0.0
  0
LINE
  8
TRMODEL1
  6
CONTINUOUS
 62
     7
  5
44F
 10
-2.220858
 20
-0.713957
 30
0.0
 11
-1.677551
 21
-0.713957
 31
0.0
  0
LINE
  8
TRMODEL1
  6
CONTINUOUS
 62
     7
  5
450
 10
-2.161272
 20
-1.076378
 30
0.0
 11
-1.737138
 21
-1.076378
 31
0.0
  0
LINE
  8
TRMODEL1
  6
CONTINUOUS
 62
     7
  5
451
 10
-2.185425
 20
-1.052224
 30
0.0
 11
-1.712984
 21
-1.052224
 31
0.0
  0
LINE
  8
TRMODEL1
  6
CONTINUOUS
 62
     7
  5
452
 10
0.0
 20
-0.330177
 30
0.0
 11
0.0
 21
0.330177
 31
0.0
  0
LINE
  8
TRMODEL1
  6
CONTINUOUS
 62
     7
  5
453
 10
-2.223409
 20
-0.65
 30
0.0
 11
-2.223409
 21
0.65
 31
0.0
  0
LINE
  8
TRMODEL1
  6
CONTINUOUS
 62
     7
  5
454
 10
-2.223409
 20
0.65
 30
0.0
 11
-1.184252
 21
0.65
 31
0.0
  0
ARC
  8
TRMODEL1
  6
CONTINUOUS
 62
     7
  5
455
 10
-1.184252
 20
0.45
 30
0.0
 40
0.2
 50
0.0
 51
90.0
  0
ARC
  8
TRMODEL1
  6
CONTINUOUS
 62
     7
  5
456
 10
-1.184252
 20
-0.45
 30
0.0
 40
0.2
 50
270.0
 51
360.0
  0
LINE
  8
TRMODEL1
  6
CONTINUOUS
 62
     7
  5
457
 10
-1.184252
 20
-0.65
 30
0.0
 11
-2.223409
 21
-0.65
 31
0.0
  0
LINE
  8
TRMODEL1
  6
CONTINUOUS
 62
     7
  5
458
 10
-0.984252
 20
-0.312298
 30
0.0
 11
-0.984252
 21
0.0
 31
0.0
  0
LINE
  8
TRMODEL1
  6
CONTINUOUS
 62
     7
  5
459
 10
-0.984252
 20
0.0
 30
0.0
 11
-0.984252
 21
0.312298
 31
0.0
  0
LINE
  8
TRMODEL1
  6
CONTINUOUS
 62
     7
  5
45A
 10
-0.984252
 20
-0.472441
 30
0.0
 11
-0.984252
 21
-0.45
 31
0.0
  0
LINE
  8
TRMODEL1
  6
CONTINUOUS
 62
     7
  5
45B
 10
-0.984252
 20
0.45
 30
0.0
 11
-0.984252
 21
0.472441
 31
0.0
  0
LINE
  8
TRMODEL1
  6
CONTINUOUS
 62
     7
  5
45C
 10
-0.826772
 20
0.409146
 30
0.0
 11
-0.826806
 21
0.412896
 31
0.0
  0
LINE
  8
TRMODEL1
  6
CONTINUOUS
 62
     7
  5
45D
 10
-0.826806
 20
0.412896
 30
0.0
 11
-0.826909
 21
0.41664
 31
0.0
  0
LINE
  8
TRMODEL1
  6
CONTINUOUS
 62
     7
  5
45E
 10
-0.826909
 20
0.41664
 30
0.0
 11
-0.82708
 21
0.420378
 31
0.0
  0
LINE
  8
TRMODEL1
  6
CONTINUOUS
 62
     7
  5
45F
 10
-0.82708
 20
0.420378
 30
0.0
 11
-0.827319
 21
0.424113
 31
0.0
  0
LINE
  8
TRMODEL1
  6
CONTINUOUS
 62
     7
  5
460
 10
-0.827319
 20
0.424113
 30
0.0
 11
-0.827625
 21
0.427845
 31
0.0
  0
LINE
  8
TRMODEL1
  6
CONTINUOUS
 62
     7
  5
461
 10
-0.827625
 20
0.427845
 30
0.0
 11
-0.827998
 21
0.431575
 31
0.0
  0
LINE
  8
TRMODEL1
  6
CONTINUOUS
 62
     7
  5
462
 10
-0.827998
 20
0.431575
 30
0.0
 11
-0.828439
 21
0.435307
 31
0.0
  0
LINE
  8
TRMODEL1
  6
CONTINUOUS
 62
     7
  5
463
 10
-0.828439
 20
0.435307
 30
0.0
 11
-0.828947
 21
0.439039
 31
0.0
  0
LINE
  8
TRMODEL1
  6
CONTINUOUS
 62
     7
  5
464
 10
-0.828947
 20
0.439039
 30
0.0
 11
-0.829522
 21
0.442775
 31
0.0
  0
LINE
  8
TRMODEL1
  6
CONTINUOUS
 62
     7
  5
465
 10
-0.829522
 20
0.442775
 30
0.0
 11
-0.830164
 21
0.446515
 31
0.0
  0
LINE
  8
TRMODEL1
  6
CONTINUOUS
 62
     7
  5
466
 10
-0.830164
 20
0.446515
 30
0.0
 11
-0.830873
 21
0.450261
 31
0.0
  0
LINE
  8
TRMODEL1
  6
CONTINUOUS
 62
     7
  5
467
 10
-0.830873
 20
0.450261
 30
0.0
 11
-0.831649
 21
0.454014
 31
0.0
  0
LINE
  8
TRMODEL1
  6
CONTINUOUS
 62
     7
  5
468
 10
-0.831649
 20
0.454014
 30
0.0
 11
-0.832492
 21
0.457776
 31
0.0
  0
LINE
  8
TRMODEL1
  6
CONTINUOUS
 62
     7
  5
469
 10
-0.832492
 20
0.457776
 30
0.0
 11
-0.833402
 21
0.461547
 31
0.0
  0
LINE
  8
TRMODEL1
  6
CONTINUOUS
 62
     7
  5
46A
 10
-0.833402
 20
0.461547
 30
0.0
 11
-0.834381
 21
0.465329
 31
0.0
  0
LINE
  8
TRMODEL1
  6
CONTINUOUS
 62
     7
  5
46B
 10
-0.834381
 20
0.465329
 30
0.0
 11
-0.835427
 21
0.469124
 31
0.0
  0
LINE
  8
TRMODEL1
  6
CONTINUOUS
 62
     7
  5
46C
 10
-0.835427
 20
0.469124
 30
0.0
 11
-0.836541
 21
0.472933
 31
0.0
  0
LINE
  8
TRMODEL1
  6
CONTINUOUS
 62
     7
  5
46D
 10
-0.836541
 20
0.472933
 30
0.0
 11
-0.837725
 21
0.476757
 31
0.0
  0
LINE
  8
TRMODEL1
  6
CONTINUOUS
 62
     7
  5
46E
 10
-0.837725
 20
0.476757
 30
0.0
 11
-0.838977
 21
0.480598
 31
0.0
  0
LINE
  8
TRMODEL1
  6
CONTINUOUS
 62
     7
  5
46F
 10
-0.838977
 20
0.480598
 30
0.0
 11
-0.840299
 21
0.484457
 31
0.0
  0
LINE
  8
TRMODEL1
  6
CONTINUOUS
 62
     7
  5
470
 10
-0.840299
 20
0.484457
 30
0.0
 11
-0.841691
 21
0.488335
 31
0.0
  0
LINE
  8
TRMODEL1
  6
CONTINUOUS
 62
     7
  5
471
 10
-0.841691
 20
0.488335
 30
0.0
 11
-0.843153
 21
0.492235
 31
0.0
  0
LINE
  8
TRMODEL1
  6
CONTINUOUS
 62
     7
  5
472
 10
-0.843153
 20
0.492235
 30
0.0
 11
-0.844687
 21
0.496157
 31
0.0
  0
LINE
  8
TRMODEL1
  6
CONTINUOUS
 62
     7
  5
473
 10
-0.844687
 20
0.496157
 30
0.0
 11
-0.846293
 21
0.500102
 31
0.0
  0
LINE
  8
TRMODEL1
  6
CONTINUOUS
 62
     7
  5
474
 10
-0.846293
 20
0.500102
 30
0.0
 11
-0.847972
 21
0.504073
 31
0.0
  0
LINE
  8
TRMODEL1
  6
CONTINUOUS
 62
     7
  5
475
 10
-0.847972
 20
0.504073
 30
0.0
 11
-0.849725
 21
0.508071
 31
0.0
  0
LINE
  8
TRMODEL1
  6
CONTINUOUS
 62
     7
  5
476
 10
-0.849725
 20
0.508071
 30
0.0
 11
-0.851551
 21
0.512097
 31
0.0
  0
LINE
  8
TRMODEL1
  6
CONTINUOUS
 62
     7
  5
477
 10
-0.851551
 20
0.512097
 30
0.0
 11
-0.853453
 21
0.516154
 31
0.0
  0
LINE
  8
TRMODEL1
  6
CONTINUOUS
 62
     7
  5
478
 10
-0.853453
 20
0.516154
 30
0.0
 11
-0.855432
 21
0.520242
 31
0.0
  0
LINE
  8
TRMODEL1
  6
CONTINUOUS
 62
     7
  5
479
 10
-0.855432
 20
0.520242
 30
0.0
 11
-0.857488
 21
0.524363
 31
0.0
  0
LINE
  8
TRMODEL1
  6
CONTINUOUS
 62
     7
  5
47A
 10
-0.857488
 20
0.524363
 30
0.0
 11
-0.859622
 21
0.528519
 31
0.0
  0
LINE
  8
TRMODEL1
  6
CONTINUOUS
 62
     7
  5
47B
 10
-0.859622
 20
0.528519
 30
0.0
 11
-0.861836
 21
0.532712
 31
0.0
  0
LINE
  8
TRMODEL1
  6
CONTINUOUS
 62
     7
  5
47C
 10
-0.861836
 20
0.532712
 30
0.0
 11
-0.864131
 21
0.536943
 31
0.0
  0
LINE
  8
TRMODEL1
  6
CONTINUOUS
 62
     7
  5
47D
 10
-0.864131
 20
0.536943
 30
0.0
 11
-0.866508
 21
0.541215
 31
0.0
  0
LINE
  8
TRMODEL1
  6
CONTINUOUS
 62
     7
  5
47E
 10
-0.866508
 20
0.541215
 30
0.0
 11
-0.868968
 21
0.545528
 31
0.0
  0
LINE
  8
TRMODEL1
  6
CONTINUOUS
 62
     7
  5
47F
 10
-0.826772
 20
0.472441
 30
0.0
 11
-0.826772
 21
0.409146
 31
0.0
  0
LINE
  8
TRMODEL1
  6
CONTINUOUS
 62
     7
  5
480
 10
-0.868968
 20
-0.545528
 30
0.0
 11
-0.866508
 21
-0.541215
 31
0.0
  0
LINE
  8
TRMODEL1
  6
CONTINUOUS
 62
     7
  5
481
 10
-0.866508
 20
-0.541215
 30
0.0
 11
-0.864131
 21
-0.536943
 31
0.0
  0
LINE
  8
TRMODEL1
  6
CONTINUOUS
 62
     7
  5
482
 10
-0.864131
 20
-0.536943
 30
0.0
 11
-0.861836
 21
-0.532712
 31
0.0
  0
LINE
  8
TRMODEL1
  6
CONTINUOUS
 62
     7
  5
483
 10
-0.861836
 20
-0.532712
 30
0.0
 11
-0.859622
 21
-0.528519
 31
0.0
  0
LINE
  8
TRMODEL1
  6
CONTINUOUS
 62
     7
  5
484
 10
-0.859622
 20
-0.528519
 30
0.0
 11
-0.857488
 21
-0.524363
 31
0.0
  0
LINE
  8
TRMODEL1
  6
CONTINUOUS
 62
     7
  5
485
 10
-0.857488
 20
-0.524363
 30
0.0
 11
-0.855432
 21
-0.520242
 31
0.0
  0
LINE
  8
TRMODEL1
  6
CONTINUOUS
 62
     7
  5
486
 10
-0.855432
 20
-0.520242
 30
0.0
 11
-0.853453
 21
-0.516154
 31
0.0
  0
LINE
  8
TRMODEL1
  6
CONTINUOUS
 62
     7
  5
487
 10
-0.853453
 20
-0.516154
 30
0.0
 11
-0.851551
 21
-0.512097
 31
0.0
  0
LINE
  8
TRMODEL1
  6
CONTINUOUS
 62
     7
  5
488
 10
-0.851551
 20
-0.512097
 30
0.0
 11
-0.849725
 21
-0.508071
 31
0.0
  0
LINE
  8
TRMODEL1
  6
CONTINUOUS
 62
     7
  5
489
 10
-0.849725
 20
-0.508071
 30
0.0
 11
-0.847972
 21
-0.504073
 31
0.0
  0
LINE
  8
TRMODEL1
  6
CONTINUOUS
 62
     7
  5
48A
 10
-0.847972
 20
-0.504073
 30
0.0
 11
-0.846293
 21
-0.500102
 31
0.0
  0
LINE
  8
TRMODEL1
  6
CONTINUOUS
 62
     7
  5
48B
 10
-0.846293
 20
-0.500102
 30
0.0
 11
-0.844687
 21
-0.496157
 31
0.0
  0
LINE
  8
TRMODEL1
  6
CONTINUOUS
 62
     7
  5
48C
 10
-0.844687
 20
-0.496157
 30
0.0
 11
-0.843153
 21
-0.492235
 31
0.0
  0
LINE
  8
TRMODEL1
  6
CONTINUOUS
 62
     7
  5
48D
 10
-0.843153
 20
-0.492235
 30
0.0
 11
-0.841691
 21
-0.488335
 31
0.0
  0
LINE
  8
TRMODEL1
  6
CONTINUOUS
 62
     7
  5
48E
 10
-0.841691
 20
-0.488335
 30
0.0
 11
-0.840299
 21
-0.484457
 31
0.0
  0
LINE
  8
TRMODEL1
  6
CONTINUOUS
 62
     7
  5
48F
 10
-0.840299
 20
-0.484457
 30
0.0
 11
-0.838977
 21
-0.480598
 31
0.0
  0
LINE
  8
TRMODEL1
  6
CONTINUOUS
 62
     7
  5
490
 10
-0.838977
 20
-0.480598
 30
0.0
 11
-0.837725
 21
-0.476757
 31
0.0
  0
LINE
  8
TRMODEL1
  6
CONTINUOUS
 62
     7
  5
491
 10
-0.837725
 20
-0.476757
 30
0.0
 11
-0.836541
 21
-0.472933
 31
0.0
  0
LINE
  8
TRMODEL1
  6
CONTINUOUS
 62
     7
  5
492
 10
-0.836541
 20
-0.472933
 30
0.0
 11
-0.835427
 21
-0.469124
 31
0.0
  0
LINE
  8
TRMODEL1
  6
CONTINUOUS
 62
     7
  5
493
 10
-0.835427
 20
-0.469124
 30
0.0
 11
-0.834381
 21
-0.465329
 31
0.0
  0
LINE
  8
TRMODEL1
  6
CONTINUOUS
 62
     7
  5
494
 10
-0.834381
 20
-0.465329
 30
0.0
 11
-0.833402
 21
-0.461547
 31
0.0
  0
LINE
  8
TRMODEL1
  6
CONTINUOUS
 62
     7
  5
495
 10
-0.833402
 20
-0.461547
 30
0.0
 11
-0.832492
 21
-0.457776
 31
0.0
  0
LINE
  8
TRMODEL1
  6
CONTINUOUS
 62
     7
  5
496
 10
-0.832492
 20
-0.457776
 30
0.0
 11
-0.831649
 21
-0.454014
 31
0.0
  0
LINE
  8
TRMODEL1
  6
CONTINUOUS
 62
     7
  5
497
 10
-0.831649
 20
-0.454014
 30
0.0
 11
-0.830873
 21
-0.450261
 31
0.0
  0
LINE
  8
TRMODEL1
  6
CONTINUOUS
 62
     7
  5
498
 10
-0.830873
 20
-0.450261
 30
0.0
 11
-0.830164
 21
-0.446515
 31
0.0
  0
LINE
  8
TRMODEL1
  6
CONTINUOUS
 62
     7
  5
499
 10
-0.830164
 20
-0.446515
 30
0.0
 11
-0.829522
 21
-0.442775
 31
0.0
  0
LINE
  8
TRMODEL1
  6
CONTINUOUS
 62
     7
  5
49A
 10
-0.829522
 20
-0.442775
 30
0.0
 11
-0.828947
 21
-0.439039
 31
0.0
  0
LINE
  8
TRMODEL1
  6
CONTINUOUS
 62
     7
  5
49B
 10
-0.828947
 20
-0.439039
 30
0.0
 11
-0.828439
 21
-0.435307
 31
0.0
  0
LINE
  8
TRMODEL1
  6
CONTINUOUS
 62
     7
  5
49C
 10
-0.828439
 20
-0.435307
 30
0.0
 11
-0.827998
 21
-0.431575
 31
0.0
  0
LINE
  8
TRMODEL1
  6
CONTINUOUS
 62
     7
  5
49D
 10
-0.827998
 20
-0.431575
 30
0.0
 11
-0.827625
 21
-0.427845
 31
0.0
  0
LINE
  8
TRMODEL1
  6
CONTINUOUS
 62
     7
  5
49E
 10
-0.827625
 20
-0.427845
 30
0.0
 11
-0.827319
 21
-0.424113
 31
0.0
  0
LINE
  8
TRMODEL1
  6
CONTINUOUS
 62
     7
  5
49F
 10
-0.827319
 20
-0.424113
 30
0.0
 11
-0.82708
 21
-0.420378
 31
0.0
  0
LINE
  8
TRMODEL1
  6
CONTINUOUS
 62
     7
  5
4A0
 10
-0.82708
 20
-0.420378
 30
0.0
 11
-0.826909
 21
-0.41664
 31
0.0
  0
LINE
  8
TRMODEL1
  6
CONTINUOUS
 62
     7
  5
4A1
 10
-0.826909
 20
-0.41664
 30
0.0
 11
-0.826806
 21
-0.412896
 31
0.0
  0
LINE
  8
TRMODEL1
  6
CONTINUOUS
 62
     7
  5
4A2
 10
-0.826806
 20
-0.412896
 30
0.0
 11
-0.826772
 21
-0.409146
 31
0.0
  0
LINE
  8
TRMODEL1
  6
CONTINUOUS
 62
     7
  5
4A3
 10
-0.826772
 20
-0.409146
 30
0.0
 11
-0.826772
 21
-0.472441
 31
0.0
  0
LINE
  8
TRMODEL1
  6
CONTINUOUS
 62
     7
  5
4A4
 10
-0.826772
 20
0.0
 30
0.0
 11
-0.826806
 21
0.007501
 31
0.0
  0
LINE
  8
TRMODEL1
  6
CONTINUOUS
 62
     7
  5
4A5
 10
-0.826806
 20
0.007501
 30
0.0
 11
-0.826909
 21
0.014988
 31
0.0
  0
LINE
  8
TRMODEL1
  6
CONTINUOUS
 62
     7
  5
4A6
 10
-0.826909
 20
0.014988
 30
0.0
 11
-0.82708
 21
0.022464
 31
0.0
  0
LINE
  8
TRMODEL1
  6
CONTINUOUS
 62
     7
  5
4A7
 10
-0.82708
 20
0.022464
 30
0.0
 11
-0.827319
 21
0.029933
 31
0.0
  0
LINE
  8
TRMODEL1
  6
CONTINUOUS
 62
     7
  5
4A8
 10
-0.827319
 20
0.029933
 30
0.0
 11
-0.827625
 21
0.037397
 31
0.0
  0
LINE
  8
TRMODEL1
  6
CONTINUOUS
 62
     7
  5
4A9
 10
-0.827625
 20
0.037397
 30
0.0
 11
-0.827998
 21
0.044859
 31
0.0
  0
LINE
  8
TRMODEL1
  6
CONTINUOUS
 62
     7
  5
4AA
 10
-0.827998
 20
0.044859
 30
0.0
 11
-0.828439
 21
0.052321
 31
0.0
  0
LINE
  8
TRMODEL1
  6
CONTINUOUS
 62
     7
  5
4AB
 10
-0.828439
 20
0.052321
 30
0.0
 11
-0.828947
 21
0.059787
 31
0.0
  0
LINE
  8
TRMODEL1
  6
CONTINUOUS
 62
     7
  5
4AC
 10
-0.828947
 20
0.059787
 30
0.0
 11
-0.829522
 21
0.067259
 31
0.0
  0
LINE
  8
TRMODEL1
  6
CONTINUOUS
 62
     7
  5
4AD
 10
-0.829522
 20
0.067259
 30
0.0
 11
-0.830164
 21
0.074739
 31
0.0
  0
LINE
  8
TRMODEL1
  6
CONTINUOUS
 62
     7
  5
4AE
 10
-0.830164
 20
0.074739
 30
0.0
 11
-0.830873
 21
0.082231
 31
0.0
  0
LINE
  8
TRMODEL1
  6
CONTINUOUS
 62
     7
  5
4AF
 10
-0.830873
 20
0.082231
 30
0.0
 11
-0.831649
 21
0.089737
 31
0.0
  0
LINE
  8
TRMODEL1
  6
CONTINUOUS
 62
     7
  5
4B0
 10
-0.831649
 20
0.089737
 30
0.0
 11
-0.832492
 21
0.09726
 31
0.0
  0
LINE
  8
TRMODEL1
  6
CONTINUOUS
 62
     7
  5
4B1
 10
-0.832492
 20
0.09726
 30
0.0
 11
-0.833402
 21
0.104802
 31
0.0
  0
LINE
  8
TRMODEL1
  6
CONTINUOUS
 62
     7
  5
4B2
 10
-0.833402
 20
0.104802
 30
0.0
 11
-0.834381
 21
0.112367
 31
0.0
  0
LINE
  8
TRMODEL1
  6
CONTINUOUS
 62
     7
  5
4B3
 10
-0.834381
 20
0.112367
 30
0.0
 11
-0.835427
 21
0.119957
 31
0.0
  0
LINE
  8
TRMODEL1
  6
CONTINUOUS
 62
     7
  5
4B4
 10
-0.835427
 20
0.119957
 30
0.0
 11
-0.836541
 21
0.127575
 31
0.0
  0
LINE
  8
TRMODEL1
  6
CONTINUOUS
 62
     7
  5
4B5
 10
-0.836541
 20
0.127575
 30
0.0
 11
-0.837725
 21
0.135223
 31
0.0
  0
LINE
  8
TRMODEL1
  6
CONTINUOUS
 62
     7
  5
4B6
 10
-0.837725
 20
0.135223
 30
0.0
 11
-0.838977
 21
0.142905
 31
0.0
  0
LINE
  8
TRMODEL1
  6
CONTINUOUS
 62
     7
  5
4B7
 10
-0.838977
 20
0.142905
 30
0.0
 11
-0.840299
 21
0.150622
 31
0.0
  0
LINE
  8
TRMODEL1
  6
CONTINUOUS
 62
     7
  5
4B8
 10
-0.840299
 20
0.150622
 30
0.0
 11
-0.841691
 21
0.158379
 31
0.0
  0
LINE
  8
TRMODEL1
  6
CONTINUOUS
 62
     7
  5
4B9
 10
-0.841691
 20
0.158379
 30
0.0
 11
-0.843153
 21
0.166178
 31
0.0
  0
LINE
  8
TRMODEL1
  6
CONTINUOUS
 62
     7
  5
4BA
 10
-0.843153
 20
0.166178
 30
0.0
 11
-0.844687
 21
0.174021
 31
0.0
  0
LINE
  8
TRMODEL1
  6
CONTINUOUS
 62
     7
  5
4BB
 10
-0.844687
 20
0.174021
 30
0.0
 11
-0.846293
 21
0.181913
 31
0.0
  0
LINE
  8
TRMODEL1
  6
CONTINUOUS
 62
     7
  5
4BC
 10
-0.846293
 20
0.181913
 30
0.0
 11
-0.847972
 21
0.189855
 31
0.0
  0
LINE
  8
TRMODEL1
  6
CONTINUOUS
 62
     7
  5
4BD
 10
-0.847972
 20
0.189855
 30
0.0
 11
-0.849725
 21
0.19785
 31
0.0
  0
LINE
  8
TRMODEL1
  6
CONTINUOUS
 62
     7
  5
4BE
 10
-0.849725
 20
0.19785
 30
0.0
 11
-0.851551
 21
0.205903
 31
0.0
  0
LINE
  8
TRMODEL1
  6
CONTINUOUS
 62
     7
  5
4BF
 10
-0.851551
 20
0.205903
 30
0.0
 11
-0.853453
 21
0.214016
 31
0.0
  0
LINE
  8
TRMODEL1
  6
CONTINUOUS
 62
     7
  5
4C0
 10
-0.853453
 20
0.214016
 30
0.0
 11
-0.855432
 21
0.222192
 31
0.0
  0
LINE
  8
TRMODEL1
  6
CONTINUOUS
 62
     7
  5
4C1
 10
-0.855432
 20
0.222192
 30
0.0
 11
-0.857488
 21
0.230434
 31
0.0
  0
LINE
  8
TRMODEL1
  6
CONTINUOUS
 62
     7
  5
4C2
 10
-0.857488
 20
0.230434
 30
0.0
 11
-0.859622
 21
0.238747
 31
0.0
  0
LINE
  8
TRMODEL1
  6
CONTINUOUS
 62
     7
  5
4C3
 10
-0.859622
 20
0.238747
 30
0.0
 11
-0.861836
 21
0.247132
 31
0.0
  0
LINE
  8
TRMODEL1
  6
CONTINUOUS
 62
     7
  5
4C4
 10
-0.861836
 20
0.247132
 30
0.0
 11
-0.864131
 21
0.255595
 31
0.0
  0
LINE
  8
TRMODEL1
  6
CONTINUOUS
 62
     7
  5
4C5
 10
-0.864131
 20
0.255595
 30
0.0
 11
-0.866508
 21
0.264137
 31
0.0
  0
LINE
  8
TRMODEL1
  6
CONTINUOUS
 62
     7
  5
4C6
 10
-0.866508
 20
0.264137
 30
0.0
 11
-0.868968
 21
0.272764
 31
0.0
  0
LINE
  8
TRMODEL1
  6
CONTINUOUS
 62
     7
  5
4C7
 10
-0.826772
 20
0.409146
 30
0.0
 11
-0.826772
 21
0.0
 31
0.0
  0
LINE
  8
TRMODEL1
  6
CONTINUOUS
 62
     7
  5
4C8
 10
-0.868968
 20
0.272764
 30
0.0
 11
-0.866508
 21
0.277077
 31
0.0
  0
LINE
  8
TRMODEL1
  6
CONTINUOUS
 62
     7
  5
4C9
 10
-0.866508
 20
0.277077
 30
0.0
 11
-0.864131
 21
0.281349
 31
0.0
  0
LINE
  8
TRMODEL1
  6
CONTINUOUS
 62
     7
  5
4CA
 10
-0.864131
 20
0.281349
 30
0.0
 11
-0.861836
 21
0.28558
 31
0.0
  0
LINE
  8
TRMODEL1
  6
CONTINUOUS
 62
     7
  5
4CB
 10
-0.861836
 20
0.28558
 30
0.0
 11
-0.859622
 21
0.289772
 31
0.0
  0
LINE
  8
TRMODEL1
  6
CONTINUOUS
 62
     7
  5
4CC
 10
-0.859622
 20
0.289772
 30
0.0
 11
-0.857488
 21
0.293929
 31
0.0
  0
LINE
  8
TRMODEL1
  6
CONTINUOUS
 62
     7
  5
4CD
 10
-0.857488
 20
0.293929
 30
0.0
 11
-0.855432
 21
0.29805
 31
0.0
  0
LINE
  8
TRMODEL1
  6
CONTINUOUS
 62
     7
  5
4CE
 10
-0.855432
 20
0.29805
 30
0.0
 11
-0.853453
 21
0.302138
 31
0.0
  0
LINE
  8
TRMODEL1
  6
CONTINUOUS
 62
     7
  5
4CF
 10
-0.853453
 20
0.302138
 30
0.0
 11
-0.851551
 21
0.306194
 31
0.0
  0
LINE
  8
TRMODEL1
  6
CONTINUOUS
 62
     7
  5
4D0
 10
-0.851551
 20
0.306194
 30
0.0
 11
-0.849725
 21
0.310221
 31
0.0
  0
LINE
  8
TRMODEL1
  6
CONTINUOUS
 62
     7
  5
4D1
 10
-0.849725
 20
0.310221
 30
0.0
 11
-0.847972
 21
0.314219
 31
0.0
  0
LINE
  8
TRMODEL1
  6
CONTINUOUS
 62
     7
  5
4D2
 10
-0.847972
 20
0.314219
 30
0.0
 11
-0.846293
 21
0.31819
 31
0.0
  0
LINE
  8
TRMODEL1
  6
CONTINUOUS
 62
     7
  5
4D3
 10
-0.846293
 20
0.31819
 30
0.0
 11
-0.844687
 21
0.322135
 31
0.0
  0
LINE
  8
TRMODEL1
  6
CONTINUOUS
 62
     7
  5
4D4
 10
-0.844687
 20
0.322135
 30
0.0
 11
-0.843153
 21
0.326057
 31
0.0
  0
LINE
  8
TRMODEL1
  6
CONTINUOUS
 62
     7
  5
4D5
 10
-0.843153
 20
0.326057
 30
0.0
 11
-0.841691
 21
0.329956
 31
0.0
  0
LINE
  8
TRMODEL1
  6
CONTINUOUS
 62
     7
  5
4D6
 10
-0.841691
 20
0.329956
 30
0.0
 11
-0.840299
 21
0.333835
 31
0.0
  0
LINE
  8
TRMODEL1
  6
CONTINUOUS
 62
     7
  5
4D7
 10
-0.840299
 20
0.333835
 30
0.0
 11
-0.838977
 21
0.337694
 31
0.0
  0
LINE
  8
TRMODEL1
  6
CONTINUOUS
 62
     7
  5
4D8
 10
-0.838977
 20
0.337694
 30
0.0
 11
-0.837725
 21
0.341534
 31
0.0
  0
LINE
  8
TRMODEL1
  6
CONTINUOUS
 62
     7
  5
4D9
 10
-0.837725
 20
0.341534
 30
0.0
 11
-0.836541
 21
0.345358
 31
0.0
  0
LINE
  8
TRMODEL1
  6
CONTINUOUS
 62
     7
  5
4DA
 10
-0.836541
 20
0.345358
 30
0.0
 11
-0.835427
 21
0.349167
 31
0.0
  0
LINE
  8
TRMODEL1
  6
CONTINUOUS
 62
     7
  5
4DB
 10
-0.835427
 20
0.349167
 30
0.0
 11
-0.834381
 21
0.352962
 31
0.0
  0
LINE
  8
TRMODEL1
  6
CONTINUOUS
 62
     7
  5
4DC
 10
-0.834381
 20
0.352962
 30
0.0
 11
-0.833402
 21
0.356745
 31
0.0
  0
LINE
  8
TRMODEL1
  6
CONTINUOUS
 62
     7
  5
4DD
 10
-0.833402
 20
0.356745
 30
0.0
 11
-0.832492
 21
0.360516
 31
0.0
  0
LINE
  8
TRMODEL1
  6
CONTINUOUS
 62
     7
  5
4DE
 10
-0.832492
 20
0.360516
 30
0.0
 11
-0.831649
 21
0.364277
 31
0.0
  0
LINE
  8
TRMODEL1
  6
CONTINUOUS
 62
     7
  5
4DF
 10
-0.831649
 20
0.364277
 30
0.0
 11
-0.830873
 21
0.36803
 31
0.0
  0
LINE
  8
TRMODEL1
  6
CONTINUOUS
 62
     7
  5
4E0
 10
-0.830873
 20
0.36803
 30
0.0
 11
-0.830164
 21
0.371776
 31
0.0
  0
LINE
  8
TRMODEL1
  6
CONTINUOUS
 62
     7
  5
4E1
 10
-0.830164
 20
0.371776
 30
0.0
 11
-0.829522
 21
0.375516
 31
0.0
  0
LINE
  8
TRMODEL1
  6
CONTINUOUS
 62
     7
  5
4E2
 10
-0.829522
 20
0.375516
 30
0.0
 11
-0.828947
 21
0.379252
 31
0.0
  0
LINE
  8
TRMODEL1
  6
CONTINUOUS
 62
     7
  5
4E3
 10
-0.828947
 20
0.379252
 30
0.0
 11
-0.828439
 21
0.382985
 31
0.0
  0
LINE
  8
TRMODEL1
  6
CONTINUOUS
 62
     7
  5
4E4
 10
-0.828439
 20
0.382985
 30
0.0
 11
-0.827998
 21
0.386716
 31
0.0
  0
LINE
  8
TRMODEL1
  6
CONTINUOUS
 62
     7
  5
4E5
 10
-0.827998
 20
0.386716
 30
0.0
 11
-0.827625
 21
0.390447
 31
0.0
  0
LINE
  8
TRMODEL1
  6
CONTINUOUS
 62
     7
  5
4E6
 10
-0.827625
 20
0.390447
 30
0.0
 11
-0.827319
 21
0.394179
 31
0.0
  0
LINE
  8
TRMODEL1
  6
CONTINUOUS
 62
     7
  5
4E7
 10
-0.827319
 20
0.394179
 30
0.0
 11
-0.82708
 21
0.397914
 31
0.0
  0
LINE
  8
TRMODEL1
  6
CONTINUOUS
 62
     7
  5
4E8
 10
-0.82708
 20
0.397914
 30
0.0
 11
-0.826909
 21
0.401652
 31
0.0
  0
LINE
  8
TRMODEL1
  6
CONTINUOUS
 62
     7
  5
4E9
 10
-0.826909
 20
0.401652
 30
0.0
 11
-0.826806
 21
0.405396
 31
0.0
  0
LINE
  8
TRMODEL1
  6
CONTINUOUS
 62
     7
  5
4EA
 10
-0.826806
 20
0.405396
 30
0.0
 11
-0.826772
 21
0.409146
 31
0.0
  0
LINE
  8
TRMODEL1
  6
CONTINUOUS
 62
     7
  5
4EB
 10
-0.868968
 20
-0.272764
 30
0.0
 11
-0.866508
 21
-0.264137
 31
0.0
  0
LINE
  8
TRMODEL1
  6
CONTINUOUS
 62
     7
  5
4EC
 10
-0.866508
 20
-0.264137
 30
0.0
 11
-0.864131
 21
-0.255595
 31
0.0
  0
LINE
  8
TRMODEL1
  6
CONTINUOUS
 62
     7
  5
4ED
 10
-0.864131
 20
-0.255595
 30
0.0
 11
-0.861836
 21
-0.247132
 31
0.0
  0
LINE
  8
TRMODEL1
  6
CONTINUOUS
 62
     7
  5
4EE
 10
-0.861836
 20
-0.247132
 30
0.0
 11
-0.859622
 21
-0.238747
 31
0.0
  0
LINE
  8
TRMODEL1
  6
CONTINUOUS
 62
     7
  5
4EF
 10
-0.859622
 20
-0.238747
 30
0.0
 11
-0.857488
 21
-0.230434
 31
0.0
  0
LINE
  8
TRMODEL1
  6
CONTINUOUS
 62
     7
  5
4F0
 10
-0.857488
 20
-0.230434
 30
0.0
 11
-0.855432
 21
-0.222192
 31
0.0
  0
LINE
  8
TRMODEL1
  6
CONTINUOUS
 62
     7
  5
4F1
 10
-0.855432
 20
-0.222192
 30
0.0
 11
-0.853453
 21
-0.214016
 31
0.0
  0
LINE
  8
TRMODEL1
  6
CONTINUOUS
 62
     7
  5
4F2
 10
-0.853453
 20
-0.214016
 30
0.0
 11
-0.851551
 21
-0.205903
 31
0.0
  0
LINE
  8
TRMODEL1
  6
CONTINUOUS
 62
     7
  5
4F3
 10
-0.851551
 20
-0.205903
 30
0.0
 11
-0.849725
 21
-0.19785
 31
0.0
  0
LINE
  8
TRMODEL1
  6
CONTINUOUS
 62
     7
  5
4F4
 10
-0.849725
 20
-0.19785
 30
0.0
 11
-0.847972
 21
-0.189855
 31
0.0
  0
LINE
  8
TRMODEL1
  6
CONTINUOUS
 62
     7
  5
4F5
 10
-0.847972
 20
-0.189855
 30
0.0
 11
-0.846293
 21
-0.181913
 31
0.0
  0
LINE
  8
TRMODEL1
  6
CONTINUOUS
 62
     7
  5
4F6
 10
-0.846293
 20
-0.181913
 30
0.0
 11
-0.844687
 21
-0.174021
 31
0.0
  0
LINE
  8
TRMODEL1
  6
CONTINUOUS
 62
     7
  5
4F7
 10
-0.844687
 20
-0.174021
 30
0.0
 11
-0.843153
 21
-0.166178
 31
0.0
  0
LINE
  8
TRMODEL1
  6
CONTINUOUS
 62
     7
  5
4F8
 10
-0.843153
 20
-0.166178
 30
0.0
 11
-0.841691
 21
-0.158379
 31
0.0
  0
LINE
  8
TRMODEL1
  6
CONTINUOUS
 62
     7
  5
4F9
 10
-0.841691
 20
-0.158379
 30
0.0
 11
-0.840299
 21
-0.150622
 31
0.0
  0
LINE
  8
TRMODEL1
  6
CONTINUOUS
 62
     7
  5
4FA
 10
-0.840299
 20
-0.150622
 30
0.0
 11
-0.838977
 21
-0.142905
 31
0.0
  0
LINE
  8
TRMODEL1
  6
CONTINUOUS
 62
     7
  5
4FB
 10
-0.838977
 20
-0.142905
 30
0.0
 11
-0.837725
 21
-0.135223
 31
0.0
  0
LINE
  8
TRMODEL1
  6
CONTINUOUS
 62
     7
  5
4FC
 10
-0.837725
 20
-0.135223
 30
0.0
 11
-0.836541
 21
-0.127575
 31
0.0
  0
LINE
  8
TRMODEL1
  6
CONTINUOUS
 62
     7
  5
4FD
 10
-0.836541
 20
-0.127575
 30
0.0
 11
-0.835427
 21
-0.119957
 31
0.0
  0
LINE
  8
TRMODEL1
  6
CONTINUOUS
 62
     7
  5
4FE
 10
-0.835427
 20
-0.119957
 30
0.0
 11
-0.834381
 21
-0.112367
 31
0.0
  0
LINE
  8
TRMODEL1
  6
CONTINUOUS
 62
     7
  5
4FF
 10
-0.834381
 20
-0.112367
 30
0.0
 11
-0.833402
 21
-0.104802
 31
0.0
  0
LINE
  8
TRMODEL1
  6
CONTINUOUS
 62
     7
  5
500
 10
-0.833402
 20
-0.104802
 30
0.0
 11
-0.832492
 21
-0.09726
 31
0.0
  0
LINE
  8
TRMODEL1
  6
CONTINUOUS
 62
     7
  5
501
 10
-0.832492
 20
-0.09726
 30
0.0
 11
-0.831649
 21
-0.089737
 31
0.0
  0
LINE
  8
TRMODEL1
  6
CONTINUOUS
 62
     7
  5
502
 10
-0.831649
 20
-0.089737
 30
0.0
 11
-0.830873
 21
-0.082231
 31
0.0
  0
LINE
  8
TRMODEL1
  6
CONTINUOUS
 62
     7
  5
503
 10
-0.830873
 20
-0.082231
 30
0.0
 11
-0.830164
 21
-0.074739
 31
0.0
  0
LINE
  8
TRMODEL1
  6
CONTINUOUS
 62
     7
  5
504
 10
-0.830164
 20
-0.074739
 30
0.0
 11
-0.829522
 21
-0.067259
 31
0.0
  0
LINE
  8
TRMODEL1
  6
CONTINUOUS
 62
     7
  5
505
 10
-0.829522
 20
-0.067259
 30
0.0
 11
-0.828947
 21
-0.059787
 31
0.0
  0
LINE
  8
TRMODEL1
  6
CONTINUOUS
 62
     7
  5
506
 10
-0.828947
 20
-0.059787
 30
0.0
 11
-0.828439
 21
-0.052321
 31
0.0
  0
LINE
  8
TRMODEL1
  6
CONTINUOUS
 62
     7
  5
507
 10
-0.828439
 20
-0.052321
 30
0.0
 11
-0.827998
 21
-0.044859
 31
0.0
  0
LINE
  8
TRMODEL1
  6
CONTINUOUS
 62
     7
  5
508
 10
-0.827998
 20
-0.044859
 30
0.0
 11
-0.827625
 21
-0.037397
 31
0.0
  0
LINE
  8
TRMODEL1
  6
CONTINUOUS
 62
     7
  5
509
 10
-0.827625
 20
-0.037397
 30
0.0
 11
-0.827319
 21
-0.029933
 31
0.0
  0
LINE
  8
TRMODEL1
  6
CONTINUOUS
 62
     7
  5
50A
 10
-0.827319
 20
-0.029933
 30
0.0
 11
-0.82708
 21
-0.022464
 31
0.0
  0
LINE
  8
TRMODEL1
  6
CONTINUOUS
 62
     7
  5
50B
 10
-0.82708
 20
-0.022464
 30
0.0
 11
-0.826909
 21
-0.014988
 31
0.0
  0
LINE
  8
TRMODEL1
  6
CONTINUOUS
 62
     7
  5
50C
 10
-0.826909
 20
-0.014988
 30
0.0
 11
-0.826806
 21
-0.007501
 31
0.0
  0
LINE
  8
TRMODEL1
  6
CONTINUOUS
 62
     7
  5
50D
 10
-0.826806
 20
-0.007501
 30
0.0
 11
-0.826772
 21
0.0
 31
0.0
  0
LINE
  8
TRMODEL1
  6
CONTINUOUS
 62
     7
  5
50E
 10
-0.826772
 20
-0.409146
 30
0.0
 11
-0.826806
 21
-0.405396
 31
0.0
  0
LINE
  8
TRMODEL1
  6
CONTINUOUS
 62
     7
  5
50F
 10
-0.826806
 20
-0.405396
 30
0.0
 11
-0.826909
 21
-0.401652
 31
0.0
  0
LINE
  8
TRMODEL1
  6
CONTINUOUS
 62
     7
  5
510
 10
-0.826909
 20
-0.401652
 30
0.0
 11
-0.82708
 21
-0.397914
 31
0.0
  0
LINE
  8
TRMODEL1
  6
CONTINUOUS
 62
     7
  5
511
 10
-0.82708
 20
-0.397914
 30
0.0
 11
-0.827319
 21
-0.394179
 31
0.0
  0
LINE
  8
TRMODEL1
  6
CONTINUOUS
 62
     7
  5
512
 10
-0.827319
 20
-0.394179
 30
0.0
 11
-0.827625
 21
-0.390447
 31
0.0
  0
LINE
  8
TRMODEL1
  6
CONTINUOUS
 62
     7
  5
513
 10
-0.827625
 20
-0.390447
 30
0.0
 11
-0.827998
 21
-0.386716
 31
0.0
  0
LINE
  8
TRMODEL1
  6
CONTINUOUS
 62
     7
  5
514
 10
-0.827998
 20
-0.386716
 30
0.0
 11
-0.828439
 21
-0.382985
 31
0.0
  0
LINE
  8
TRMODEL1
  6
CONTINUOUS
 62
     7
  5
515
 10
-0.828439
 20
-0.382985
 30
0.0
 11
-0.828947
 21
-0.379252
 31
0.0
  0
LINE
  8
TRMODEL1
  6
CONTINUOUS
 62
     7
  5
516
 10
-0.828947
 20
-0.379252
 30
0.0
 11
-0.829522
 21
-0.375516
 31
0.0
  0
LINE
  8
TRMODEL1
  6
CONTINUOUS
 62
     7
  5
517
 10
-0.829522
 20
-0.375516
 30
0.0
 11
-0.830164
 21
-0.371776
 31
0.0
  0
LINE
  8
TRMODEL1
  6
CONTINUOUS
 62
     7
  5
518
 10
-0.830164
 20
-0.371776
 30
0.0
 11
-0.830873
 21
-0.36803
 31
0.0
  0
LINE
  8
TRMODEL1
  6
CONTINUOUS
 62
     7
  5
519
 10
-0.830873
 20
-0.36803
 30
0.0
 11
-0.831649
 21
-0.364277
 31
0.0
  0
LINE
  8
TRMODEL1
  6
CONTINUOUS
 62
     7
  5
51A
 10
-0.831649
 20
-0.364277
 30
0.0
 11
-0.832492
 21
-0.360516
 31
0.0
  0
LINE
  8
TRMODEL1
  6
CONTINUOUS
 62
     7
  5
51B
 10
-0.832492
 20
-0.360516
 30
0.0
 11
-0.833402
 21
-0.356745
 31
0.0
  0
LINE
  8
TRMODEL1
  6
CONTINUOUS
 62
     7
  5
51C
 10
-0.833402
 20
-0.356745
 30
0.0
 11
-0.834381
 21
-0.352962
 31
0.0
  0
LINE
  8
TRMODEL1
  6
CONTINUOUS
 62
     7
  5
51D
 10
-0.834381
 20
-0.352962
 30
0.0
 11
-0.835427
 21
-0.349167
 31
0.0
  0
LINE
  8
TRMODEL1
  6
CONTINUOUS
 62
     7
  5
51E
 10
-0.835427
 20
-0.349167
 30
0.0
 11
-0.836541
 21
-0.345358
 31
0.0
  0
LINE
  8
TRMODEL1
  6
CONTINUOUS
 62
     7
  5
51F
 10
-0.836541
 20
-0.345358
 30
0.0
 11
-0.837725
 21
-0.341534
 31
0.0
  0
LINE
  8
TRMODEL1
  6
CONTINUOUS
 62
     7
  5
520
 10
-0.837725
 20
-0.341534
 30
0.0
 11
-0.838977
 21
-0.337694
 31
0.0
  0
LINE
  8
TRMODEL1
  6
CONTINUOUS
 62
     7
  5
521
 10
-0.838977
 20
-0.337694
 30
0.0
 11
-0.840299
 21
-0.333835
 31
0.0
  0
LINE
  8
TRMODEL1
  6
CONTINUOUS
 62
     7
  5
522
 10
-0.840299
 20
-0.333835
 30
0.0
 11
-0.841691
 21
-0.329956
 31
0.0
  0
LINE
  8
TRMODEL1
  6
CONTINUOUS
 62
     7
  5
523
 10
-0.841691
 20
-0.329956
 30
0.0
 11
-0.843153
 21
-0.326057
 31
0.0
  0
LINE
  8
TRMODEL1
  6
CONTINUOUS
 62
     7
  5
524
 10
-0.843153
 20
-0.326057
 30
0.0
 11
-0.844687
 21
-0.322135
 31
0.0
  0
LINE
  8
TRMODEL1
  6
CONTINUOUS
 62
     7
  5
525
 10
-0.844687
 20
-0.322135
 30
0.0
 11
-0.846293
 21
-0.31819
 31
0.0
  0
LINE
  8
TRMODEL1
  6
CONTINUOUS
 62
     7
  5
526
 10
-0.846293
 20
-0.31819
 30
0.0
 11
-0.847972
 21
-0.314219
 31
0.0
  0
LINE
  8
TRMODEL1
  6
CONTINUOUS
 62
     7
  5
527
 10
-0.847972
 20
-0.314219
 30
0.0
 11
-0.849725
 21
-0.310221
 31
0.0
  0
LINE
  8
TRMODEL1
  6
CONTINUOUS
 62
     7
  5
528
 10
-0.849725
 20
-0.310221
 30
0.0
 11
-0.851551
 21
-0.306194
 31
0.0
  0
LINE
  8
TRMODEL1
  6
CONTINUOUS
 62
     7
  5
529
 10
-0.851551
 20
-0.306194
 30
0.0
 11
-0.853453
 21
-0.302138
 31
0.0
  0
LINE
  8
TRMODEL1
  6
CONTINUOUS
 62
     7
  5
52A
 10
-0.853453
 20
-0.302138
 30
0.0
 11
-0.855432
 21
-0.29805
 31
0.0
  0
LINE
  8
TRMODEL1
  6
CONTINUOUS
 62
     7
  5
52B
 10
-0.855432
 20
-0.29805
 30
0.0
 11
-0.857488
 21
-0.293929
 31
0.0
  0
LINE
  8
TRMODEL1
  6
CONTINUOUS
 62
     7
  5
52C
 10
-0.857488
 20
-0.293929
 30
0.0
 11
-0.859622
 21
-0.289772
 31
0.0
  0
LINE
  8
TRMODEL1
  6
CONTINUOUS
 62
     7
  5
52D
 10
-0.859622
 20
-0.289772
 30
0.0
 11
-0.861836
 21
-0.28558
 31
0.0
  0
LINE
  8
TRMODEL1
  6
CONTINUOUS
 62
     7
  5
52E
 10
-0.861836
 20
-0.28558
 30
0.0
 11
-0.864131
 21
-0.281349
 31
0.0
  0
LINE
  8
TRMODEL1
  6
CONTINUOUS
 62
     7
  5
52F
 10
-0.864131
 20
-0.281349
 30
0.0
 11
-0.866508
 21
-0.277077
 31
0.0
  0
LINE
  8
TRMODEL1
  6
CONTINUOUS
 62
     7
  5
530
 10
-0.866508
 20
-0.277077
 30
0.0
 11
-0.868968
 21
-0.272764
 31
0.0
  0
LINE
  8
TRMODEL1
  6
CONTINUOUS
 62
     7
  5
531
 10
-0.826772
 20
0.0
 30
0.0
 11
-0.826772
 21
-0.409146
 31
0.0
  0
LINE
  8
TRMODEL1
  6
CONTINUOUS
 62
     7
  5
532
 10
-0.868968
 20
0.272764
 30
0.0
 11
-0.942055
 21
0.272764
 31
0.0
  0
LINE
  8
TRMODEL1
  6
CONTINUOUS
 62
     7
  5
533
 10
-0.942055
 20
0.272764
 30
0.0
 11
-0.944516
 21
0.264137
 31
0.0
  0
LINE
  8
TRMODEL1
  6
CONTINUOUS
 62
     7
  5
534
 10
-0.944516
 20
0.264137
 30
0.0
 11
-0.946893
 21
0.255595
 31
0.0
  0
LINE
  8
TRMODEL1
  6
CONTINUOUS
 62
     7
  5
535
 10
-0.946893
 20
0.255595
 30
0.0
 11
-0.949188
 21
0.247132
 31
0.0
  0
LINE
  8
TRMODEL1
  6
CONTINUOUS
 62
     7
  5
536
 10
-0.949188
 20
0.247132
 30
0.0
 11
-0.951401
 21
0.238747
 31
0.0
  0
LINE
  8
TRMODEL1
  6
CONTINUOUS
 62
     7
  5
537
 10
-0.951401
 20
0.238747
 30
0.0
 11
-0.953536
 21
0.230434
 31
0.0
  0
LINE
  8
TRMODEL1
  6
CONTINUOUS
 62
     7
  5
538
 10
-0.953536
 20
0.230434
 30
0.0
 11
-0.955592
 21
0.222192
 31
0.0
  0
LINE
  8
TRMODEL1
  6
CONTINUOUS
 62
     7
  5
539
 10
-0.955592
 20
0.222192
 30
0.0
 11
-0.95757
 21
0.214016
 31
0.0
  0
LINE
  8
TRMODEL1
  6
CONTINUOUS
 62
     7
  5
53A
 10
-0.95757
 20
0.214016
 30
0.0
 11
-0.959472
 21
0.205903
 31
0.0
  0
LINE
  8
TRMODEL1
  6
CONTINUOUS
 62
     7
  5
53B
 10
-0.959472
 20
0.205903
 30
0.0
 11
-0.961299
 21
0.19785
 31
0.0
  0
LINE
  8
TRMODEL1
  6
CONTINUOUS
 62
     7
  5
53C
 10
-0.961299
 20
0.19785
 30
0.0
 11
-0.963051
 21
0.189855
 31
0.0
  0
LINE
  8
TRMODEL1
  6
CONTINUOUS
 62
     7
  5
53D
 10
-0.963051
 20
0.189855
 30
0.0
 11
-0.96473
 21
0.181913
 31
0.0
  0
LINE
  8
TRMODEL1
  6
CONTINUOUS
 62
     7
  5
53E
 10
-0.96473
 20
0.181913
 30
0.0
 11
-0.966336
 21
0.174021
 31
0.0
  0
LINE
  8
TRMODEL1
  6
CONTINUOUS
 62
     7
  5
53F
 10
-0.966336
 20
0.174021
 30
0.0
 11
-0.96787
 21
0.166178
 31
0.0
  0
LINE
  8
TRMODEL1
  6
CONTINUOUS
 62
     7
  5
540
 10
-0.96787
 20
0.166178
 30
0.0
 11
-0.969333
 21
0.158379
 31
0.0
  0
LINE
  8
TRMODEL1
  6
CONTINUOUS
 62
     7
  5
541
 10
-0.969333
 20
0.158379
 30
0.0
 11
-0.970725
 21
0.150622
 31
0.0
  0
LINE
  8
TRMODEL1
  6
CONTINUOUS
 62
     7
  5
542
 10
-0.970725
 20
0.150622
 30
0.0
 11
-0.972047
 21
0.142905
 31
0.0
  0
LINE
  8
TRMODEL1
  6
CONTINUOUS
 62
     7
  5
543
 10
-0.972047
 20
0.142905
 30
0.0
 11
-0.973299
 21
0.135223
 31
0.0
  0
LINE
  8
TRMODEL1
  6
CONTINUOUS
 62
     7
  5
544
 10
-0.973299
 20
0.135223
 30
0.0
 11
-0.974482
 21
0.127575
 31
0.0
  0
LINE
  8
TRMODEL1
  6
CONTINUOUS
 62
     7
  5
545
 10
-0.974482
 20
0.127575
 30
0.0
 11
-0.975597
 21
0.119957
 31
0.0
  0
LINE
  8
TRMODEL1
  6
CONTINUOUS
 62
     7
  5
546
 10
-0.975597
 20
0.119957
 30
0.0
 11
-0.976643
 21
0.112367
 31
0.0
  0
LINE
  8
TRMODEL1
  6
CONTINUOUS
 62
     7
  5
547
 10
-0.976643
 20
0.112367
 30
0.0
 11
-0.977621
 21
0.104802
 31
0.0
  0
LINE
  8
TRMODEL1
  6
CONTINUOUS
 62
     7
  5
548
 10
-0.977621
 20
0.104802
 30
0.0
 11
-0.978532
 21
0.09726
 31
0.0
  0
LINE
  8
TRMODEL1
  6
CONTINUOUS
 62
     7
  5
549
 10
-0.978532
 20
0.09726
 30
0.0
 11
-0.979375
 21
0.089737
 31
0.0
  0
LINE
  8
TRMODEL1
  6
CONTINUOUS
 62
     7
  5
54A
 10
-0.979375
 20
0.089737
 30
0.0
 11
-0.980151
 21
0.082231
 31
0.0
  0
LINE
  8
TRMODEL1
  6
CONTINUOUS
 62
     7
  5
54B
 10
-0.980151
 20
0.082231
 30
0.0
 11
-0.98086
 21
0.074739
 31
0.0
  0
LINE
  8
TRMODEL1
  6
CONTINUOUS
 62
     7
  5
54C
 10
-0.98086
 20
0.074739
 30
0.0
 11
-0.981502
 21
0.067259
 31
0.0
  0
LINE
  8
TRMODEL1
  6
CONTINUOUS
 62
     7
  5
54D
 10
-0.981502
 20
0.067259
 30
0.0
 11
-0.982077
 21
0.059787
 31
0.0
  0
LINE
  8
TRMODEL1
  6
CONTINUOUS
 62
     7
  5
54E
 10
-0.982077
 20
0.059787
 30
0.0
 11
-0.982584
 21
0.052321
 31
0.0
  0
LINE
  8
TRMODEL1
  6
CONTINUOUS
 62
     7
  5
54F
 10
-0.982584
 20
0.052321
 30
0.0
 11
-0.983025
 21
0.044859
 31
0.0
  0
LINE
  8
TRMODEL1
  6
CONTINUOUS
 62
     7
  5
550
 10
-0.983025
 20
0.044859
 30
0.0
 11
-0.983399
 21
0.037397
 31
0.0
  0
LINE
  8
TRMODEL1
  6
CONTINUOUS
 62
     7
  5
551
 10
-0.983399
 20
0.037397
 30
0.0
 11
-0.983705
 21
0.029933
 31
0.0
  0
LINE
  8
TRMODEL1
  6
CONTINUOUS
 62
     7
  5
552
 10
-0.983705
 20
0.029933
 30
0.0
 11
-0.983944
 21
0.022464
 31
0.0
  0
LINE
  8
TRMODEL1
  6
CONTINUOUS
 62
     7
  5
553
 10
-0.983944
 20
0.022464
 30
0.0
 11
-0.984115
 21
0.014988
 31
0.0
  0
LINE
  8
TRMODEL1
  6
CONTINUOUS
 62
     7
  5
554
 10
-0.984115
 20
0.014988
 30
0.0
 11
-0.984218
 21
0.007501
 31
0.0
  0
LINE
  8
TRMODEL1
  6
CONTINUOUS
 62
     7
  5
555
 10
-0.984218
 20
0.007501
 30
0.0
 11
-0.984252
 21
0.0
 31
0.0
  0
LINE
  8
TRMODEL1
  6
CONTINUOUS
 62
     7
  5
556
 10
-0.984252
 20
0.0
 30
0.0
 11
-0.984218
 21
-0.007501
 31
0.0
  0
LINE
  8
TRMODEL1
  6
CONTINUOUS
 62
     7
  5
557
 10
-0.984218
 20
-0.007501
 30
0.0
 11
-0.984115
 21
-0.014988
 31
0.0
  0
LINE
  8
TRMODEL1
  6
CONTINUOUS
 62
     7
  5
558
 10
-0.984115
 20
-0.014988
 30
0.0
 11
-0.983944
 21
-0.022464
 31
0.0
  0
LINE
  8
TRMODEL1
  6
CONTINUOUS
 62
     7
  5
559
 10
-0.983944
 20
-0.022464
 30
0.0
 11
-0.983705
 21
-0.029933
 31
0.0
  0
LINE
  8
TRMODEL1
  6
CONTINUOUS
 62
     7
  5
55A
 10
-0.983705
 20
-0.029933
 30
0.0
 11
-0.983399
 21
-0.037397
 31
0.0
  0
LINE
  8
TRMODEL1
  6
CONTINUOUS
 62
     7
  5
55B
 10
-0.983399
 20
-0.037397
 30
0.0
 11
-0.983025
 21
-0.044859
 31
0.0
  0
LINE
  8
TRMODEL1
  6
CONTINUOUS
 62
     7
  5
55C
 10
-0.983025
 20
-0.044859
 30
0.0
 11
-0.982584
 21
-0.052321
 31
0.0
  0
LINE
  8
TRMODEL1
  6
CONTINUOUS
 62
     7
  5
55D
 10
-0.982584
 20
-0.052321
 30
0.0
 11
-0.982077
 21
-0.059787
 31
0.0
  0
LINE
  8
TRMODEL1
  6
CONTINUOUS
 62
     7
  5
55E
 10
-0.982077
 20
-0.059787
 30
0.0
 11
-0.981502
 21
-0.067259
 31
0.0
  0
LINE
  8
TRMODEL1
  6
CONTINUOUS
 62
     7
  5
55F
 10
-0.981502
 20
-0.067259
 30
0.0
 11
-0.98086
 21
-0.074739
 31
0.0
  0
LINE
  8
TRMODEL1
  6
CONTINUOUS
 62
     7
  5
560
 10
-0.98086
 20
-0.074739
 30
0.0
 11
-0.980151
 21
-0.082231
 31
0.0
  0
LINE
  8
TRMODEL1
  6
CONTINUOUS
 62
     7
  5
561
 10
-0.980151
 20
-0.082231
 30
0.0
 11
-0.979375
 21
-0.089737
 31
0.0
  0
LINE
  8
TRMODEL1
  6
CONTINUOUS
 62
     7
  5
562
 10
-0.979375
 20
-0.089737
 30
0.0
 11
-0.978532
 21
-0.09726
 31
0.0
  0
LINE
  8
TRMODEL1
  6
CONTINUOUS
 62
     7
  5
563
 10
-0.978532
 20
-0.09726
 30
0.0
 11
-0.977621
 21
-0.104802
 31
0.0
  0
LINE
  8
TRMODEL1
  6
CONTINUOUS
 62
     7
  5
564
 10
-0.977621
 20
-0.104802
 30
0.0
 11
-0.976643
 21
-0.112367
 31
0.0
  0
LINE
  8
TRMODEL1
  6
CONTINUOUS
 62
     7
  5
565
 10
-0.976643
 20
-0.112367
 30
0.0
 11
-0.975597
 21
-0.119957
 31
0.0
  0
LINE
  8
TRMODEL1
  6
CONTINUOUS
 62
     7
  5
566
 10
-0.975597
 20
-0.119957
 30
0.0
 11
-0.974482
 21
-0.127575
 31
0.0
  0
LINE
  8
TRMODEL1
  6
CONTINUOUS
 62
     7
  5
567
 10
-0.974482
 20
-0.127575
 30
0.0
 11
-0.973299
 21
-0.135223
 31
0.0
  0
LINE
  8
TRMODEL1
  6
CONTINUOUS
 62
     7
  5
568
 10
-0.973299
 20
-0.135223
 30
0.0
 11
-0.972047
 21
-0.142905
 31
0.0
  0
LINE
  8
TRMODEL1
  6
CONTINUOUS
 62
     7
  5
569
 10
-0.972047
 20
-0.142905
 30
0.0
 11
-0.970725
 21
-0.150622
 31
0.0
  0
LINE
  8
TRMODEL1
  6
CONTINUOUS
 62
     7
  5
56A
 10
-0.970725
 20
-0.150622
 30
0.0
 11
-0.969333
 21
-0.158379
 31
0.0
  0
LINE
  8
TRMODEL1
  6
CONTINUOUS
 62
     7
  5
56B
 10
-0.969333
 20
-0.158379
 30
0.0
 11
-0.96787
 21
-0.166178
 31
0.0
  0
LINE
  8
TRMODEL1
  6
CONTINUOUS
 62
     7
  5
56C
 10
-0.96787
 20
-0.166178
 30
0.0
 11
-0.966336
 21
-0.174021
 31
0.0
  0
LINE
  8
TRMODEL1
  6
CONTINUOUS
 62
     7
  5
56D
 10
-0.966336
 20
-0.174021
 30
0.0
 11
-0.96473
 21
-0.181913
 31
0.0
  0
LINE
  8
TRMODEL1
  6
CONTINUOUS
 62
     7
  5
56E
 10
-0.96473
 20
-0.181913
 30
0.0
 11
-0.963051
 21
-0.189855
 31
0.0
  0
LINE
  8
TRMODEL1
  6
CONTINUOUS
 62
     7
  5
56F
 10
-0.963051
 20
-0.189855
 30
0.0
 11
-0.961299
 21
-0.19785
 31
0.0
  0
LINE
  8
TRMODEL1
  6
CONTINUOUS
 62
     7
  5
570
 10
-0.961299
 20
-0.19785
 30
0.0
 11
-0.959472
 21
-0.205903
 31
0.0
  0
LINE
  8
TRMODEL1
  6
CONTINUOUS
 62
     7
  5
571
 10
-0.959472
 20
-0.205903
 30
0.0
 11
-0.95757
 21
-0.214016
 31
0.0
  0
LINE
  8
TRMODEL1
  6
CONTINUOUS
 62
     7
  5
572
 10
-0.95757
 20
-0.214016
 30
0.0
 11
-0.955592
 21
-0.222192
 31
0.0
  0
LINE
  8
TRMODEL1
  6
CONTINUOUS
 62
     7
  5
573
 10
-0.955592
 20
-0.222192
 30
0.0
 11
-0.953536
 21
-0.230434
 31
0.0
  0
LINE
  8
TRMODEL1
  6
CONTINUOUS
 62
     7
  5
574
 10
-0.953536
 20
-0.230434
 30
0.0
 11
-0.951401
 21
-0.238747
 31
0.0
  0
LINE
  8
TRMODEL1
  6
CONTINUOUS
 62
     7
  5
575
 10
-0.951401
 20
-0.238747
 30
0.0
 11
-0.949188
 21
-0.247132
 31
0.0
  0
LINE
  8
TRMODEL1
  6
CONTINUOUS
 62
     7
  5
576
 10
-0.949188
 20
-0.247132
 30
0.0
 11
-0.946893
 21
-0.255595
 31
0.0
  0
LINE
  8
TRMODEL1
  6
CONTINUOUS
 62
     7
  5
577
 10
-0.946893
 20
-0.255595
 30
0.0
 11
-0.944516
 21
-0.264137
 31
0.0
  0
LINE
  8
TRMODEL1
  6
CONTINUOUS
 62
     7
  5
578
 10
-0.944516
 20
-0.264137
 30
0.0
 11
-0.942055
 21
-0.272764
 31
0.0
  0
LINE
  8
TRMODEL1
  6
CONTINUOUS
 62
     7
  5
579
 10
-0.868968
 20
-0.272764
 30
0.0
 11
-0.942055
 21
-0.272764
 31
0.0
  0
LINE
  8
TRMODEL1
  6
CONTINUOUS
 62
     7
  5
57A
 10
-0.868968
 20
0.545528
 30
0.0
 11
-0.942055
 21
0.545528
 31
0.0
  0
LINE
  8
TRMODEL1
  6
CONTINUOUS
 62
     7
  5
57B
 10
-0.942055
 20
0.545528
 30
0.0
 11
-0.944516
 21
0.541215
 31
0.0
  0
LINE
  8
TRMODEL1
  6
CONTINUOUS
 62
     7
  5
57C
 10
-0.944516
 20
0.541215
 30
0.0
 11
-0.946893
 21
0.536943
 31
0.0
  0
LINE
  8
TRMODEL1
  6
CONTINUOUS
 62
     7
  5
57D
 10
-0.946893
 20
0.536943
 30
0.0
 11
-0.949188
 21
0.532712
 31
0.0
  0
LINE
  8
TRMODEL1
  6
CONTINUOUS
 62
     7
  5
57E
 10
-0.949188
 20
0.532712
 30
0.0
 11
-0.951401
 21
0.528519
 31
0.0
  0
LINE
  8
TRMODEL1
  6
CONTINUOUS
 62
     7
  5
57F
 10
-0.951401
 20
0.528519
 30
0.0
 11
-0.953536
 21
0.524363
 31
0.0
  0
LINE
  8
TRMODEL1
  6
CONTINUOUS
 62
     7
  5
580
 10
-0.953536
 20
0.524363
 30
0.0
 11
-0.955592
 21
0.520242
 31
0.0
  0
LINE
  8
TRMODEL1
  6
CONTINUOUS
 62
     7
  5
581
 10
-0.955592
 20
0.520242
 30
0.0
 11
-0.95757
 21
0.516154
 31
0.0
  0
LINE
  8
TRMODEL1
  6
CONTINUOUS
 62
     7
  5
582
 10
-0.95757
 20
0.516154
 30
0.0
 11
-0.959472
 21
0.512097
 31
0.0
  0
LINE
  8
TRMODEL1
  6
CONTINUOUS
 62
     7
  5
583
 10
-0.959472
 20
0.512097
 30
0.0
 11
-0.961299
 21
0.508071
 31
0.0
  0
LINE
  8
TRMODEL1
  6
CONTINUOUS
 62
     7
  5
584
 10
-0.961299
 20
0.508071
 30
0.0
 11
-0.963051
 21
0.504073
 31
0.0
  0
LINE
  8
TRMODEL1
  6
CONTINUOUS
 62
     7
  5
585
 10
-0.963051
 20
0.504073
 30
0.0
 11
-0.96473
 21
0.500102
 31
0.0
  0
LINE
  8
TRMODEL1
  6
CONTINUOUS
 62
     7
  5
586
 10
-0.96473
 20
0.500102
 30
0.0
 11
-0.966336
 21
0.496157
 31
0.0
  0
LINE
  8
TRMODEL1
  6
CONTINUOUS
 62
     7
  5
587
 10
-0.966336
 20
0.496157
 30
0.0
 11
-0.96787
 21
0.492235
 31
0.0
  0
LINE
  8
TRMODEL1
  6
CONTINUOUS
 62
     7
  5
588
 10
-0.96787
 20
0.492235
 30
0.0
 11
-0.969333
 21
0.488335
 31
0.0
  0
LINE
  8
TRMODEL1
  6
CONTINUOUS
 62
     7
  5
589
 10
-0.969333
 20
0.488335
 30
0.0
 11
-0.970725
 21
0.484457
 31
0.0
  0
LINE
  8
TRMODEL1
  6
CONTINUOUS
 62
     7
  5
58A
 10
-0.970725
 20
0.484457
 30
0.0
 11
-0.972047
 21
0.480598
 31
0.0
  0
LINE
  8
TRMODEL1
  6
CONTINUOUS
 62
     7
  5
58B
 10
-0.972047
 20
0.480598
 30
0.0
 11
-0.973299
 21
0.476757
 31
0.0
  0
LINE
  8
TRMODEL1
  6
CONTINUOUS
 62
     7
  5
58C
 10
-0.973299
 20
0.476757
 30
0.0
 11
-0.974482
 21
0.472933
 31
0.0
  0
LINE
  8
TRMODEL1
  6
CONTINUOUS
 62
     7
  5
58D
 10
-0.974482
 20
0.472933
 30
0.0
 11
-0.975597
 21
0.469124
 31
0.0
  0
LINE
  8
TRMODEL1
  6
CONTINUOUS
 62
     7
  5
58E
 10
-0.975597
 20
0.469124
 30
0.0
 11
-0.976643
 21
0.465329
 31
0.0
  0
LINE
  8
TRMODEL1
  6
CONTINUOUS
 62
     7
  5
58F
 10
-0.976643
 20
0.465329
 30
0.0
 11
-0.977621
 21
0.461547
 31
0.0
  0
LINE
  8
TRMODEL1
  6
CONTINUOUS
 62
     7
  5
590
 10
-0.977621
 20
0.461547
 30
0.0
 11
-0.978532
 21
0.457776
 31
0.0
  0
LINE
  8
TRMODEL1
  6
CONTINUOUS
 62
     7
  5
591
 10
-0.978532
 20
0.457776
 30
0.0
 11
-0.979375
 21
0.454014
 31
0.0
  0
LINE
  8
TRMODEL1
  6
CONTINUOUS
 62
     7
  5
592
 10
-0.979375
 20
0.454014
 30
0.0
 11
-0.980151
 21
0.450261
 31
0.0
  0
LINE
  8
TRMODEL1
  6
CONTINUOUS
 62
     7
  5
593
 10
-0.980151
 20
0.450261
 30
0.0
 11
-0.98086
 21
0.446515
 31
0.0
  0
LINE
  8
TRMODEL1
  6
CONTINUOUS
 62
     7
  5
594
 10
-0.98086
 20
0.446515
 30
0.0
 11
-0.981502
 21
0.442775
 31
0.0
  0
LINE
  8
TRMODEL1
  6
CONTINUOUS
 62
     7
  5
595
 10
-0.981502
 20
0.442775
 30
0.0
 11
-0.982077
 21
0.439039
 31
0.0
  0
LINE
  8
TRMODEL1
  6
CONTINUOUS
 62
     7
  5
596
 10
-0.982077
 20
0.439039
 30
0.0
 11
-0.982584
 21
0.435307
 31
0.0
  0
LINE
  8
TRMODEL1
  6
CONTINUOUS
 62
     7
  5
597
 10
-0.982584
 20
0.435307
 30
0.0
 11
-0.983025
 21
0.431575
 31
0.0
  0
LINE
  8
TRMODEL1
  6
CONTINUOUS
 62
     7
  5
598
 10
-0.983025
 20
0.431575
 30
0.0
 11
-0.983399
 21
0.427845
 31
0.0
  0
LINE
  8
TRMODEL1
  6
CONTINUOUS
 62
     7
  5
599
 10
-0.983399
 20
0.427845
 30
0.0
 11
-0.983705
 21
0.424113
 31
0.0
  0
LINE
  8
TRMODEL1
  6
CONTINUOUS
 62
     7
  5
59A
 10
-0.983705
 20
0.424113
 30
0.0
 11
-0.983944
 21
0.420378
 31
0.0
  0
LINE
  8
TRMODEL1
  6
CONTINUOUS
 62
     7
  5
59B
 10
-0.983944
 20
0.420378
 30
0.0
 11
-0.984115
 21
0.41664
 31
0.0
  0
LINE
  8
TRMODEL1
  6
CONTINUOUS
 62
     7
  5
59C
 10
-0.984115
 20
0.41664
 30
0.0
 11
-0.984218
 21
0.412896
 31
0.0
  0
LINE
  8
TRMODEL1
  6
CONTINUOUS
 62
     7
  5
59D
 10
-0.984218
 20
0.412896
 30
0.0
 11
-0.984252
 21
0.409146
 31
0.0
  0
LINE
  8
TRMODEL1
  6
CONTINUOUS
 62
     7
  5
59E
 10
-0.984252
 20
0.409146
 30
0.0
 11
-0.984218
 21
0.405396
 31
0.0
  0
LINE
  8
TRMODEL1
  6
CONTINUOUS
 62
     7
  5
59F
 10
-0.984218
 20
0.405396
 30
0.0
 11
-0.984115
 21
0.401652
 31
0.0
  0
LINE
  8
TRMODEL1
  6
CONTINUOUS
 62
     7
  5
5A0
 10
-0.984115
 20
0.401652
 30
0.0
 11
-0.983944
 21
0.397914
 31
0.0
  0
LINE
  8
TRMODEL1
  6
CONTINUOUS
 62
     7
  5
5A1
 10
-0.983944
 20
0.397914
 30
0.0
 11
-0.983705
 21
0.394179
 31
0.0
  0
LINE
  8
TRMODEL1
  6
CONTINUOUS
 62
     7
  5
5A2
 10
-0.983705
 20
0.394179
 30
0.0
 11
-0.983399
 21
0.390447
 31
0.0
  0
LINE
  8
TRMODEL1
  6
CONTINUOUS
 62
     7
  5
5A3
 10
-0.983399
 20
0.390447
 30
0.0
 11
-0.983025
 21
0.386716
 31
0.0
  0
LINE
  8
TRMODEL1
  6
CONTINUOUS
 62
     7
  5
5A4
 10
-0.983025
 20
0.386716
 30
0.0
 11
-0.982584
 21
0.382985
 31
0.0
  0
LINE
  8
TRMODEL1
  6
CONTINUOUS
 62
     7
  5
5A5
 10
-0.982584
 20
0.382985
 30
0.0
 11
-0.982077
 21
0.379252
 31
0.0
  0
LINE
  8
TRMODEL1
  6
CONTINUOUS
 62
     7
  5
5A6
 10
-0.982077
 20
0.379252
 30
0.0
 11
-0.981502
 21
0.375516
 31
0.0
  0
LINE
  8
TRMODEL1
  6
CONTINUOUS
 62
     7
  5
5A7
 10
-0.981502
 20
0.375516
 30
0.0
 11
-0.98086
 21
0.371776
 31
0.0
  0
LINE
  8
TRMODEL1
  6
CONTINUOUS
 62
     7
  5
5A8
 10
-0.98086
 20
0.371776
 30
0.0
 11
-0.980151
 21
0.36803
 31
0.0
  0
LINE
  8
TRMODEL1
  6
CONTINUOUS
 62
     7
  5
5A9
 10
-0.980151
 20
0.36803
 30
0.0
 11
-0.979375
 21
0.364277
 31
0.0
  0
LINE
  8
TRMODEL1
  6
CONTINUOUS
 62
     7
  5
5AA
 10
-0.979375
 20
0.364277
 30
0.0
 11
-0.978532
 21
0.360516
 31
0.0
  0
LINE
  8
TRMODEL1
  6
CONTINUOUS
 62
     7
  5
5AB
 10
-0.978532
 20
0.360516
 30
0.0
 11
-0.977621
 21
0.356745
 31
0.0
  0
LINE
  8
TRMODEL1
  6
CONTINUOUS
 62
     7
  5
5AC
 10
-0.977621
 20
0.356745
 30
0.0
 11
-0.976643
 21
0.352962
 31
0.0
  0
LINE
  8
TRMODEL1
  6
CONTINUOUS
 62
     7
  5
5AD
 10
-0.976643
 20
0.352962
 30
0.0
 11
-0.975597
 21
0.349167
 31
0.0
  0
LINE
  8
TRMODEL1
  6
CONTINUOUS
 62
     7
  5
5AE
 10
-0.975597
 20
0.349167
 30
0.0
 11
-0.974482
 21
0.345358
 31
0.0
  0
LINE
  8
TRMODEL1
  6
CONTINUOUS
 62
     7
  5
5AF
 10
-0.974482
 20
0.345358
 30
0.0
 11
-0.973299
 21
0.341534
 31
0.0
  0
LINE
  8
TRMODEL1
  6
CONTINUOUS
 62
     7
  5
5B0
 10
-0.973299
 20
0.341534
 30
0.0
 11
-0.972047
 21
0.337694
 31
0.0
  0
LINE
  8
TRMODEL1
  6
CONTINUOUS
 62
     7
  5
5B1
 10
-0.972047
 20
0.337694
 30
0.0
 11
-0.970725
 21
0.333835
 31
0.0
  0
LINE
  8
TRMODEL1
  6
CONTINUOUS
 62
     7
  5
5B2
 10
-0.970725
 20
0.333835
 30
0.0
 11
-0.969333
 21
0.329956
 31
0.0
  0
LINE
  8
TRMODEL1
  6
CONTINUOUS
 62
     7
  5
5B3
 10
-0.969333
 20
0.329956
 30
0.0
 11
-0.96787
 21
0.326057
 31
0.0
  0
LINE
  8
TRMODEL1
  6
CONTINUOUS
 62
     7
  5
5B4
 10
-0.96787
 20
0.326057
 30
0.0
 11
-0.966336
 21
0.322135
 31
0.0
  0
LINE
  8
TRMODEL1
  6
CONTINUOUS
 62
     7
  5
5B5
 10
-0.966336
 20
0.322135
 30
0.0
 11
-0.96473
 21
0.31819
 31
0.0
  0
LINE
  8
TRMODEL1
  6
CONTINUOUS
 62
     7
  5
5B6
 10
-0.96473
 20
0.31819
 30
0.0
 11
-0.963051
 21
0.314219
 31
0.0
  0
LINE
  8
TRMODEL1
  6
CONTINUOUS
 62
     7
  5
5B7
 10
-0.963051
 20
0.314219
 30
0.0
 11
-0.961299
 21
0.310221
 31
0.0
  0
LINE
  8
TRMODEL1
  6
CONTINUOUS
 62
     7
  5
5B8
 10
-0.961299
 20
0.310221
 30
0.0
 11
-0.959472
 21
0.306194
 31
0.0
  0
LINE
  8
TRMODEL1
  6
CONTINUOUS
 62
     7
  5
5B9
 10
-0.959472
 20
0.306194
 30
0.0
 11
-0.95757
 21
0.302138
 31
0.0
  0
LINE
  8
TRMODEL1
  6
CONTINUOUS
 62
     7
  5
5BA
 10
-0.95757
 20
0.302138
 30
0.0
 11
-0.955592
 21
0.29805
 31
0.0
  0
LINE
  8
TRMODEL1
  6
CONTINUOUS
 62
     7
  5
5BB
 10
-0.955592
 20
0.29805
 30
0.0
 11
-0.953536
 21
0.293929
 31
0.0
  0
LINE
  8
TRMODEL1
  6
CONTINUOUS
 62
     7
  5
5BC
 10
-0.953536
 20
0.293929
 30
0.0
 11
-0.951401
 21
0.289772
 31
0.0
  0
LINE
  8
TRMODEL1
  6
CONTINUOUS
 62
     7
  5
5BD
 10
-0.951401
 20
0.289772
 30
0.0
 11
-0.949188
 21
0.28558
 31
0.0
  0
LINE
  8
TRMODEL1
  6
CONTINUOUS
 62
     7
  5
5BE
 10
-0.949188
 20
0.28558
 30
0.0
 11
-0.946893
 21
0.281349
 31
0.0
  0
LINE
  8
TRMODEL1
  6
CONTINUOUS
 62
     7
  5
5BF
 10
-0.946893
 20
0.281349
 30
0.0
 11
-0.944516
 21
0.277077
 31
0.0
  0
LINE
  8
TRMODEL1
  6
CONTINUOUS
 62
     7
  5
5C0
 10
-0.944516
 20
0.277077
 30
0.0
 11
-0.942055
 21
0.272764
 31
0.0
  0
LINE
  8
TRMODEL1
  6
CONTINUOUS
 62
     7
  5
5C1
 10
-0.984252
 20
-0.409146
 30
0.0
 11
-0.984218
 21
-0.412896
 31
0.0
  0
LINE
  8
TRMODEL1
  6
CONTINUOUS
 62
     7
  5
5C2
 10
-0.984218
 20
-0.412896
 30
0.0
 11
-0.984115
 21
-0.41664
 31
0.0
  0
LINE
  8
TRMODEL1
  6
CONTINUOUS
 62
     7
  5
5C3
 10
-0.984115
 20
-0.41664
 30
0.0
 11
-0.983944
 21
-0.420378
 31
0.0
  0
LINE
  8
TRMODEL1
  6
CONTINUOUS
 62
     7
  5
5C4
 10
-0.983944
 20
-0.420378
 30
0.0
 11
-0.983705
 21
-0.424113
 31
0.0
  0
LINE
  8
TRMODEL1
  6
CONTINUOUS
 62
     7
  5
5C5
 10
-0.983705
 20
-0.424113
 30
0.0
 11
-0.983399
 21
-0.427845
 31
0.0
  0
LINE
  8
TRMODEL1
  6
CONTINUOUS
 62
     7
  5
5C6
 10
-0.983399
 20
-0.427845
 30
0.0
 11
-0.983025
 21
-0.431575
 31
0.0
  0
LINE
  8
TRMODEL1
  6
CONTINUOUS
 62
     7
  5
5C7
 10
-0.983025
 20
-0.431575
 30
0.0
 11
-0.982584
 21
-0.435307
 31
0.0
  0
LINE
  8
TRMODEL1
  6
CONTINUOUS
 62
     7
  5
5C8
 10
-0.982584
 20
-0.435307
 30
0.0
 11
-0.982077
 21
-0.439039
 31
0.0
  0
LINE
  8
TRMODEL1
  6
CONTINUOUS
 62
     7
  5
5C9
 10
-0.982077
 20
-0.439039
 30
0.0
 11
-0.981502
 21
-0.442775
 31
0.0
  0
LINE
  8
TRMODEL1
  6
CONTINUOUS
 62
     7
  5
5CA
 10
-0.981502
 20
-0.442775
 30
0.0
 11
-0.98086
 21
-0.446515
 31
0.0
  0
LINE
  8
TRMODEL1
  6
CONTINUOUS
 62
     7
  5
5CB
 10
-0.98086
 20
-0.446515
 30
0.0
 11
-0.980151
 21
-0.450261
 31
0.0
  0
LINE
  8
TRMODEL1
  6
CONTINUOUS
 62
     7
  5
5CC
 10
-0.980151
 20
-0.450261
 30
0.0
 11
-0.979375
 21
-0.454014
 31
0.0
  0
LINE
  8
TRMODEL1
  6
CONTINUOUS
 62
     7
  5
5CD
 10
-0.979375
 20
-0.454014
 30
0.0
 11
-0.978532
 21
-0.457776
 31
0.0
  0
LINE
  8
TRMODEL1
  6
CONTINUOUS
 62
     7
  5
5CE
 10
-0.978532
 20
-0.457776
 30
0.0
 11
-0.977621
 21
-0.461547
 31
0.0
  0
LINE
  8
TRMODEL1
  6
CONTINUOUS
 62
     7
  5
5CF
 10
-0.977621
 20
-0.461547
 30
0.0
 11
-0.976643
 21
-0.465329
 31
0.0
  0
LINE
  8
TRMODEL1
  6
CONTINUOUS
 62
     7
  5
5D0
 10
-0.976643
 20
-0.465329
 30
0.0
 11
-0.975597
 21
-0.469124
 31
0.0
  0
LINE
  8
TRMODEL1
  6
CONTINUOUS
 62
     7
  5
5D1
 10
-0.975597
 20
-0.469124
 30
0.0
 11
-0.974482
 21
-0.472933
 31
0.0
  0
LINE
  8
TRMODEL1
  6
CONTINUOUS
 62
     7
  5
5D2
 10
-0.974482
 20
-0.472933
 30
0.0
 11
-0.973299
 21
-0.476757
 31
0.0
  0
LINE
  8
TRMODEL1
  6
CONTINUOUS
 62
     7
  5
5D3
 10
-0.973299
 20
-0.476757
 30
0.0
 11
-0.972047
 21
-0.480598
 31
0.0
  0
LINE
  8
TRMODEL1
  6
CONTINUOUS
 62
     7
  5
5D4
 10
-0.972047
 20
-0.480598
 30
0.0
 11
-0.970725
 21
-0.484457
 31
0.0
  0
LINE
  8
TRMODEL1
  6
CONTINUOUS
 62
     7
  5
5D5
 10
-0.970725
 20
-0.484457
 30
0.0
 11
-0.969333
 21
-0.488335
 31
0.0
  0
LINE
  8
TRMODEL1
  6
CONTINUOUS
 62
     7
  5
5D6
 10
-0.969333
 20
-0.488335
 30
0.0
 11
-0.96787
 21
-0.492235
 31
0.0
  0
LINE
  8
TRMODEL1
  6
CONTINUOUS
 62
     7
  5
5D7
 10
-0.96787
 20
-0.492235
 30
0.0
 11
-0.966336
 21
-0.496157
 31
0.0
  0
LINE
  8
TRMODEL1
  6
CONTINUOUS
 62
     7
  5
5D8
 10
-0.966336
 20
-0.496157
 30
0.0
 11
-0.96473
 21
-0.500102
 31
0.0
  0
LINE
  8
TRMODEL1
  6
CONTINUOUS
 62
     7
  5
5D9
 10
-0.96473
 20
-0.500102
 30
0.0
 11
-0.963051
 21
-0.504073
 31
0.0
  0
LINE
  8
TRMODEL1
  6
CONTINUOUS
 62
     7
  5
5DA
 10
-0.963051
 20
-0.504073
 30
0.0
 11
-0.961299
 21
-0.508071
 31
0.0
  0
LINE
  8
TRMODEL1
  6
CONTINUOUS
 62
     7
  5
5DB
 10
-0.961299
 20
-0.508071
 30
0.0
 11
-0.959472
 21
-0.512097
 31
0.0
  0
LINE
  8
TRMODEL1
  6
CONTINUOUS
 62
     7
  5
5DC
 10
-0.959472
 20
-0.512097
 30
0.0
 11
-0.95757
 21
-0.516154
 31
0.0
  0
LINE
  8
TRMODEL1
  6
CONTINUOUS
 62
     7
  5
5DD
 10
-0.95757
 20
-0.516154
 30
0.0
 11
-0.955592
 21
-0.520242
 31
0.0
  0
LINE
  8
TRMODEL1
  6
CONTINUOUS
 62
     7
  5
5DE
 10
-0.955592
 20
-0.520242
 30
0.0
 11
-0.953536
 21
-0.524363
 31
0.0
  0
LINE
  8
TRMODEL1
  6
CONTINUOUS
 62
     7
  5
5DF
 10
-0.953536
 20
-0.524363
 30
0.0
 11
-0.951401
 21
-0.528519
 31
0.0
  0
LINE
  8
TRMODEL1
  6
CONTINUOUS
 62
     7
  5
5E0
 10
-0.951401
 20
-0.528519
 30
0.0
 11
-0.949188
 21
-0.532712
 31
0.0
  0
LINE
  8
TRMODEL1
  6
CONTINUOUS
 62
     7
  5
5E1
 10
-0.949188
 20
-0.532712
 30
0.0
 11
-0.946893
 21
-0.536943
 31
0.0
  0
LINE
  8
TRMODEL1
  6
CONTINUOUS
 62
     7
  5
5E2
 10
-0.946893
 20
-0.536943
 30
0.0
 11
-0.944516
 21
-0.541215
 31
0.0
  0
LINE
  8
TRMODEL1
  6
CONTINUOUS
 62
     7
  5
5E3
 10
-0.944516
 20
-0.541215
 30
0.0
 11
-0.942055
 21
-0.545528
 31
0.0
  0
LINE
  8
TRMODEL1
  6
CONTINUOUS
 62
     7
  5
5E4
 10
-0.942055
 20
-0.272764
 30
0.0
 11
-0.944516
 21
-0.277077
 31
0.0
  0
LINE
  8
TRMODEL1
  6
CONTINUOUS
 62
     7
  5
5E5
 10
-0.944516
 20
-0.277077
 30
0.0
 11
-0.946893
 21
-0.281349
 31
0.0
  0
LINE
  8
TRMODEL1
  6
CONTINUOUS
 62
     7
  5
5E6
 10
-0.946893
 20
-0.281349
 30
0.0
 11
-0.949188
 21
-0.28558
 31
0.0
  0
LINE
  8
TRMODEL1
  6
CONTINUOUS
 62
     7
  5
5E7
 10
-0.949188
 20
-0.28558
 30
0.0
 11
-0.951401
 21
-0.289772
 31
0.0
  0
LINE
  8
TRMODEL1
  6
CONTINUOUS
 62
     7
  5
5E8
 10
-0.951401
 20
-0.289772
 30
0.0
 11
-0.953536
 21
-0.293929
 31
0.0
  0
LINE
  8
TRMODEL1
  6
CONTINUOUS
 62
     7
  5
5E9
 10
-0.953536
 20
-0.293929
 30
0.0
 11
-0.955592
 21
-0.29805
 31
0.0
  0
LINE
  8
TRMODEL1
  6
CONTINUOUS
 62
     7
  5
5EA
 10
-0.955592
 20
-0.29805
 30
0.0
 11
-0.95757
 21
-0.302138
 31
0.0
  0
LINE
  8
TRMODEL1
  6
CONTINUOUS
 62
     7
  5
5EB
 10
-0.95757
 20
-0.302138
 30
0.0
 11
-0.959472
 21
-0.306194
 31
0.0
  0
LINE
  8
TRMODEL1
  6
CONTINUOUS
 62
     7
  5
5EC
 10
-0.959472
 20
-0.306194
 30
0.0
 11
-0.961299
 21
-0.310221
 31
0.0
  0
LINE
  8
TRMODEL1
  6
CONTINUOUS
 62
     7
  5
5ED
 10
-0.961299
 20
-0.310221
 30
0.0
 11
-0.963051
 21
-0.314219
 31
0.0
  0
LINE
  8
TRMODEL1
  6
CONTINUOUS
 62
     7
  5
5EE
 10
-0.963051
 20
-0.314219
 30
0.0
 11
-0.96473
 21
-0.31819
 31
0.0
  0
LINE
  8
TRMODEL1
  6
CONTINUOUS
 62
     7
  5
5EF
 10
-0.96473
 20
-0.31819
 30
0.0
 11
-0.966336
 21
-0.322135
 31
0.0
  0
LINE
  8
TRMODEL1
  6
CONTINUOUS
 62
     7
  5
5F0
 10
-0.966336
 20
-0.322135
 30
0.0
 11
-0.96787
 21
-0.326057
 31
0.0
  0
LINE
  8
TRMODEL1
  6
CONTINUOUS
 62
     7
  5
5F1
 10
-0.96787
 20
-0.326057
 30
0.0
 11
-0.969333
 21
-0.329956
 31
0.0
  0
LINE
  8
TRMODEL1
  6
CONTINUOUS
 62
     7
  5
5F2
 10
-0.969333
 20
-0.329956
 30
0.0
 11
-0.970725
 21
-0.333835
 31
0.0
  0
LINE
  8
TRMODEL1
  6
CONTINUOUS
 62
     7
  5
5F3
 10
-0.970725
 20
-0.333835
 30
0.0
 11
-0.972047
 21
-0.337694
 31
0.0
  0
LINE
  8
TRMODEL1
  6
CONTINUOUS
 62
     7
  5
5F4
 10
-0.972047
 20
-0.337694
 30
0.0
 11
-0.973299
 21
-0.341534
 31
0.0
  0
LINE
  8
TRMODEL1
  6
CONTINUOUS
 62
     7
  5
5F5
 10
-0.973299
 20
-0.341534
 30
0.0
 11
-0.974482
 21
-0.345358
 31
0.0
  0
LINE
  8
TRMODEL1
  6
CONTINUOUS
 62
     7
  5
5F6
 10
-0.974482
 20
-0.345358
 30
0.0
 11
-0.975597
 21
-0.349167
 31
0.0
  0
LINE
  8
TRMODEL1
  6
CONTINUOUS
 62
     7
  5
5F7
 10
-0.975597
 20
-0.349167
 30
0.0
 11
-0.976643
 21
-0.352962
 31
0.0
  0
LINE
  8
TRMODEL1
  6
CONTINUOUS
 62
     7
  5
5F8
 10
-0.976643
 20
-0.352962
 30
0.0
 11
-0.977621
 21
-0.356745
 31
0.0
  0
LINE
  8
TRMODEL1
  6
CONTINUOUS
 62
     7
  5
5F9
 10
-0.977621
 20
-0.356745
 30
0.0
 11
-0.978532
 21
-0.360516
 31
0.0
  0
LINE
  8
TRMODEL1
  6
CONTINUOUS
 62
     7
  5
5FA
 10
-0.978532
 20
-0.360516
 30
0.0
 11
-0.979375
 21
-0.364277
 31
0.0
  0
LINE
  8
TRMODEL1
  6
CONTINUOUS
 62
     7
  5
5FB
 10
-0.979375
 20
-0.364277
 30
0.0
 11
-0.980151
 21
-0.36803
 31
0.0
  0
LINE
  8
TRMODEL1
  6
CONTINUOUS
 62
     7
  5
5FC
 10
-0.980151
 20
-0.36803
 30
0.0
 11
-0.98086
 21
-0.371776
 31
0.0
  0
LINE
  8
TRMODEL1
  6
CONTINUOUS
 62
     7
  5
5FD
 10
-0.98086
 20
-0.371776
 30
0.0
 11
-0.981502
 21
-0.375516
 31
0.0
  0
LINE
  8
TRMODEL1
  6
CONTINUOUS
 62
     7
  5
5FE
 10
-0.981502
 20
-0.375516
 30
0.0
 11
-0.982077
 21
-0.379252
 31
0.0
  0
LINE
  8
TRMODEL1
  6
CONTINUOUS
 62
     7
  5
5FF
 10
-0.982077
 20
-0.379252
 30
0.0
 11
-0.982584
 21
-0.382985
 31
0.0
  0
LINE
  8
TRMODEL1
  6
CONTINUOUS
 62
     7
  5
600
 10
-0.982584
 20
-0.382985
 30
0.0
 11
-0.983025
 21
-0.386716
 31
0.0
  0
LINE
  8
TRMODEL1
  6
CONTINUOUS
 62
     7
  5
601
 10
-0.983025
 20
-0.386716
 30
0.0
 11
-0.983399
 21
-0.390447
 31
0.0
  0
LINE
  8
TRMODEL1
  6
CONTINUOUS
 62
     7
  5
602
 10
-0.983399
 20
-0.390447
 30
0.0
 11
-0.983705
 21
-0.394179
 31
0.0
  0
LINE
  8
TRMODEL1
  6
CONTINUOUS
 62
     7
  5
603
 10
-0.983705
 20
-0.394179
 30
0.0
 11
-0.983944
 21
-0.397914
 31
0.0
  0
LINE
  8
TRMODEL1
  6
CONTINUOUS
 62
     7
  5
604
 10
-0.983944
 20
-0.397914
 30
0.0
 11
-0.984115
 21
-0.401652
 31
0.0
  0
LINE
  8
TRMODEL1
  6
CONTINUOUS
 62
     7
  5
605
 10
-0.984115
 20
-0.401652
 30
0.0
 11
-0.984218
 21
-0.405396
 31
0.0
  0
LINE
  8
TRMODEL1
  6
CONTINUOUS
 62
     7
  5
606
 10
-0.984218
 20
-0.405396
 30
0.0
 11
-0.984252
 21
-0.409146
 31
0.0
  0
LINE
  8
TRMODEL1
  6
CONTINUOUS
 62
     7
  5
607
 10
-0.868968
 20
-0.545528
 30
0.0
 11
-0.942055
 21
-0.545528
 31
0.0
  0
LINE
  8
TRMODEL1
  6
CONTINUOUS
 62
     7
  5
608
 10
-0.511811
 20
0.409146
 30
0.0
 11
-0.511845
 21
0.412896
 31
0.0
  0
LINE
  8
TRMODEL1
  6
CONTINUOUS
 62
     7
  5
609
 10
-0.511845
 20
0.412896
 30
0.0
 11
-0.511948
 21
0.41664
 31
0.0
  0
LINE
  8
TRMODEL1
  6
CONTINUOUS
 62
     7
  5
60A
 10
-0.511948
 20
0.41664
 30
0.0
 11
-0.512119
 21
0.420378
 31
0.0
  0
LINE
  8
TRMODEL1
  6
CONTINUOUS
 62
     7
  5
60B
 10
-0.512119
 20
0.420378
 30
0.0
 11
-0.512358
 21
0.424113
 31
0.0
  0
LINE
  8
TRMODEL1
  6
CONTINUOUS
 62
     7
  5
60C
 10
-0.512358
 20
0.424113
 30
0.0
 11
-0.512664
 21
0.427845
 31
0.0
  0
LINE
  8
TRMODEL1
  6
CONTINUOUS
 62
     7
  5
60D
 10
-0.512664
 20
0.427845
 30
0.0
 11
-0.513038
 21
0.431575
 31
0.0
  0
LINE
  8
TRMODEL1
  6
CONTINUOUS
 62
     7
  5
60E
 10
-0.513038
 20
0.431575
 30
0.0
 11
-0.513479
 21
0.435307
 31
0.0
  0
LINE
  8
TRMODEL1
  6
CONTINUOUS
 62
     7
  5
60F
 10
-0.513479
 20
0.435307
 30
0.0
 11
-0.513986
 21
0.439039
 31
0.0
  0
LINE
  8
TRMODEL1
  6
CONTINUOUS
 62
     7
  5
610
 10
-0.513986
 20
0.439039
 30
0.0
 11
-0.514561
 21
0.442775
 31
0.0
  0
LINE
  8
TRMODEL1
  6
CONTINUOUS
 62
     7
  5
611
 10
-0.514561
 20
0.442775
 30
0.0
 11
-0.515203
 21
0.446515
 31
0.0
  0
LINE
  8
TRMODEL1
  6
CONTINUOUS
 62
     7
  5
612
 10
-0.515203
 20
0.446515
 30
0.0
 11
-0.515912
 21
0.450261
 31
0.0
  0
LINE
  8
TRMODEL1
  6
CONTINUOUS
 62
     7
  5
613
 10
-0.515912
 20
0.450261
 30
0.0
 11
-0.516688
 21
0.454014
 31
0.0
  0
LINE
  8
TRMODEL1
  6
CONTINUOUS
 62
     7
  5
614
 10
-0.516688
 20
0.454014
 30
0.0
 11
-0.517531
 21
0.457776
 31
0.0
  0
LINE
  8
TRMODEL1
  6
CONTINUOUS
 62
     7
  5
615
 10
-0.517531
 20
0.457776
 30
0.0
 11
-0.518442
 21
0.461547
 31
0.0
  0
LINE
  8
TRMODEL1
  6
CONTINUOUS
 62
     7
  5
616
 10
-0.518442
 20
0.461547
 30
0.0
 11
-0.51942
 21
0.465329
 31
0.0
  0
LINE
  8
TRMODEL1
  6
CONTINUOUS
 62
     7
  5
617
 10
-0.51942
 20
0.465329
 30
0.0
 11
-0.520466
 21
0.469124
 31
0.0
  0
LINE
  8
TRMODEL1
  6
CONTINUOUS
 62
     7
  5
618
 10
-0.520466
 20
0.469124
 30
0.0
 11
-0.521581
 21
0.472933
 31
0.0
  0
LINE
  8
TRMODEL1
  6
CONTINUOUS
 62
     7
  5
619
 10
-0.521581
 20
0.472933
 30
0.0
 11
-0.522764
 21
0.476757
 31
0.0
  0
LINE
  8
TRMODEL1
  6
CONTINUOUS
 62
     7
  5
61A
 10
-0.522764
 20
0.476757
 30
0.0
 11
-0.524016
 21
0.480598
 31
0.0
  0
LINE
  8
TRMODEL1
  6
CONTINUOUS
 62
     7
  5
61B
 10
-0.524016
 20
0.480598
 30
0.0
 11
-0.525338
 21
0.484457
 31
0.0
  0
LINE
  8
TRMODEL1
  6
CONTINUOUS
 62
     7
  5
61C
 10
-0.525338
 20
0.484457
 30
0.0
 11
-0.52673
 21
0.488335
 31
0.0
  0
LINE
  8
TRMODEL1
  6
CONTINUOUS
 62
     7
  5
61D
 10
-0.52673
 20
0.488335
 30
0.0
 11
-0.528193
 21
0.492235
 31
0.0
  0
LINE
  8
TRMODEL1
  6
CONTINUOUS
 62
     7
  5
61E
 10
-0.528193
 20
0.492235
 30
0.0
 11
-0.529727
 21
0.496157
 31
0.0
  0
LINE
  8
TRMODEL1
  6
CONTINUOUS
 62
     7
  5
61F
 10
-0.529727
 20
0.496157
 30
0.0
 11
-0.531333
 21
0.500102
 31
0.0
  0
LINE
  8
TRMODEL1
  6
CONTINUOUS
 62
     7
  5
620
 10
-0.531333
 20
0.500102
 30
0.0
 11
-0.533012
 21
0.504073
 31
0.0
  0
LINE
  8
TRMODEL1
  6
CONTINUOUS
 62
     7
  5
621
 10
-0.533012
 20
0.504073
 30
0.0
 11
-0.534764
 21
0.508071
 31
0.0
  0
LINE
  8
TRMODEL1
  6
CONTINUOUS
 62
     7
  5
622
 10
-0.534764
 20
0.508071
 30
0.0
 11
-0.536591
 21
0.512097
 31
0.0
  0
LINE
  8
TRMODEL1
  6
CONTINUOUS
 62
     7
  5
623
 10
-0.536591
 20
0.512097
 30
0.0
 11
-0.538493
 21
0.516154
 31
0.0
  0
LINE
  8
TRMODEL1
  6
CONTINUOUS
 62
     7
  5
624
 10
-0.538493
 20
0.516154
 30
0.0
 11
-0.540471
 21
0.520242
 31
0.0
  0
LINE
  8
TRMODEL1
  6
CONTINUOUS
 62
     7
  5
625
 10
-0.540471
 20
0.520242
 30
0.0
 11
-0.542527
 21
0.524363
 31
0.0
  0
LINE
  8
TRMODEL1
  6
CONTINUOUS
 62
     7
  5
626
 10
-0.542527
 20
0.524363
 30
0.0
 11
-0.544662
 21
0.528519
 31
0.0
  0
LINE
  8
TRMODEL1
  6
CONTINUOUS
 62
     7
  5
627
 10
-0.544662
 20
0.528519
 30
0.0
 11
-0.546875
 21
0.532712
 31
0.0
  0
LINE
  8
TRMODEL1
  6
CONTINUOUS
 62
     7
  5
628
 10
-0.546875
 20
0.532712
 30
0.0
 11
-0.54917
 21
0.536943
 31
0.0
  0
LINE
  8
TRMODEL1
  6
CONTINUOUS
 62
     7
  5
629
 10
-0.54917
 20
0.536943
 30
0.0
 11
-0.551547
 21
0.541215
 31
0.0
  0
LINE
  8
TRMODEL1
  6
CONTINUOUS
 62
     7
  5
62A
 10
-0.551547
 20
0.541215
 30
0.0
 11
-0.554008
 21
0.545528
 31
0.0
  0
LINE
  8
TRMODEL1
  6
CONTINUOUS
 62
     7
  5
62B
 10
-0.511811
 20
0.472441
 30
0.0
 11
-0.511811
 21
0.409146
 31
0.0
  0
LINE
  8
TRMODEL1
  6
CONTINUOUS
 62
     7
  5
62C
 10
-0.554008
 20
-0.545528
 30
0.0
 11
-0.551547
 21
-0.541215
 31
0.0
  0
LINE
  8
TRMODEL1
  6
CONTINUOUS
 62
     7
  5
62D
 10
-0.551547
 20
-0.541215
 30
0.0
 11
-0.54917
 21
-0.536943
 31
0.0
  0
LINE
  8
TRMODEL1
  6
CONTINUOUS
 62
     7
  5
62E
 10
-0.54917
 20
-0.536943
 30
0.0
 11
-0.546875
 21
-0.532712
 31
0.0
  0
LINE
  8
TRMODEL1
  6
CONTINUOUS
 62
     7
  5
62F
 10
-0.546875
 20
-0.532712
 30
0.0
 11
-0.544662
 21
-0.528519
 31
0.0
  0
LINE
  8
TRMODEL1
  6
CONTINUOUS
 62
     7
  5
630
 10
-0.544662
 20
-0.528519
 30
0.0
 11
-0.542527
 21
-0.524363
 31
0.0
  0
LINE
  8
TRMODEL1
  6
CONTINUOUS
 62
     7
  5
631
 10
-0.542527
 20
-0.524363
 30
0.0
 11
-0.540471
 21
-0.520242
 31
0.0
  0
LINE
  8
TRMODEL1
  6
CONTINUOUS
 62
     7
  5
632
 10
-0.540471
 20
-0.520242
 30
0.0
 11
-0.538493
 21
-0.516154
 31
0.0
  0
LINE
  8
TRMODEL1
  6
CONTINUOUS
 62
     7
  5
633
 10
-0.538493
 20
-0.516154
 30
0.0
 11
-0.536591
 21
-0.512097
 31
0.0
  0
LINE
  8
TRMODEL1
  6
CONTINUOUS
 62
     7
  5
634
 10
-0.536591
 20
-0.512097
 30
0.0
 11
-0.534764
 21
-0.508071
 31
0.0
  0
LINE
  8
TRMODEL1
  6
CONTINUOUS
 62
     7
  5
635
 10
-0.534764
 20
-0.508071
 30
0.0
 11
-0.533012
 21
-0.504073
 31
0.0
  0
LINE
  8
TRMODEL1
  6
CONTINUOUS
 62
     7
  5
636
 10
-0.533012
 20
-0.504073
 30
0.0
 11
-0.531333
 21
-0.500102
 31
0.0
  0
LINE
  8
TRMODEL1
  6
CONTINUOUS
 62
     7
  5
637
 10
-0.531333
 20
-0.500102
 30
0.0
 11
-0.529727
 21
-0.496157
 31
0.0
  0
LINE
  8
TRMODEL1
  6
CONTINUOUS
 62
     7
  5
638
 10
-0.529727
 20
-0.496157
 30
0.0
 11
-0.528193
 21
-0.492235
 31
0.0
  0
LINE
  8
TRMODEL1
  6
CONTINUOUS
 62
     7
  5
639
 10
-0.528193
 20
-0.492235
 30
0.0
 11
-0.52673
 21
-0.488335
 31
0.0
  0
LINE
  8
TRMODEL1
  6
CONTINUOUS
 62
     7
  5
63A
 10
-0.52673
 20
-0.488335
 30
0.0
 11
-0.525338
 21
-0.484457
 31
0.0
  0
LINE
  8
TRMODEL1
  6
CONTINUOUS
 62
     7
  5
63B
 10
-0.525338
 20
-0.484457
 30
0.0
 11
-0.524016
 21
-0.480598
 31
0.0
  0
LINE
  8
TRMODEL1
  6
CONTINUOUS
 62
     7
  5
63C
 10
-0.524016
 20
-0.480598
 30
0.0
 11
-0.522764
 21
-0.476757
 31
0.0
  0
LINE
  8
TRMODEL1
  6
CONTINUOUS
 62
     7
  5
63D
 10
-0.522764
 20
-0.476757
 30
0.0
 11
-0.521581
 21
-0.472933
 31
0.0
  0
LINE
  8
TRMODEL1
  6
CONTINUOUS
 62
     7
  5
63E
 10
-0.521581
 20
-0.472933
 30
0.0
 11
-0.520466
 21
-0.469124
 31
0.0
  0
LINE
  8
TRMODEL1
  6
CONTINUOUS
 62
     7
  5
63F
 10
-0.520466
 20
-0.469124
 30
0.0
 11
-0.51942
 21
-0.465329
 31
0.0
  0
LINE
  8
TRMODEL1
  6
CONTINUOUS
 62
     7
  5
640
 10
-0.51942
 20
-0.465329
 30
0.0
 11
-0.518442
 21
-0.461547
 31
0.0
  0
LINE
  8
TRMODEL1
  6
CONTINUOUS
 62
     7
  5
641
 10
-0.518442
 20
-0.461547
 30
0.0
 11
-0.517531
 21
-0.457776
 31
0.0
  0
LINE
  8
TRMODEL1
  6
CONTINUOUS
 62
     7
  5
642
 10
-0.517531
 20
-0.457776
 30
0.0
 11
-0.516688
 21
-0.454014
 31
0.0
  0
LINE
  8
TRMODEL1
  6
CONTINUOUS
 62
     7
  5
643
 10
-0.516688
 20
-0.454014
 30
0.0
 11
-0.515912
 21
-0.450261
 31
0.0
  0
LINE
  8
TRMODEL1
  6
CONTINUOUS
 62
     7
  5
644
 10
-0.515912
 20
-0.450261
 30
0.0
 11
-0.515203
 21
-0.446515
 31
0.0
  0
LINE
  8
TRMODEL1
  6
CONTINUOUS
 62
     7
  5
645
 10
-0.515203
 20
-0.446515
 30
0.0
 11
-0.514561
 21
-0.442775
 31
0.0
  0
LINE
  8
TRMODEL1
  6
CONTINUOUS
 62
     7
  5
646
 10
-0.514561
 20
-0.442775
 30
0.0
 11
-0.513986
 21
-0.439039
 31
0.0
  0
LINE
  8
TRMODEL1
  6
CONTINUOUS
 62
     7
  5
647
 10
-0.513986
 20
-0.439039
 30
0.0
 11
-0.513479
 21
-0.435307
 31
0.0
  0
LINE
  8
TRMODEL1
  6
CONTINUOUS
 62
     7
  5
648
 10
-0.513479
 20
-0.435307
 30
0.0
 11
-0.513038
 21
-0.431575
 31
0.0
  0
LINE
  8
TRMODEL1
  6
CONTINUOUS
 62
     7
  5
649
 10
-0.513038
 20
-0.431575
 30
0.0
 11
-0.512664
 21
-0.427845
 31
0.0
  0
LINE
  8
TRMODEL1
  6
CONTINUOUS
 62
     7
  5
64A
 10
-0.512664
 20
-0.427845
 30
0.0
 11
-0.512358
 21
-0.424113
 31
0.0
  0
LINE
  8
TRMODEL1
  6
CONTINUOUS
 62
     7
  5
64B
 10
-0.512358
 20
-0.424113
 30
0.0
 11
-0.512119
 21
-0.420378
 31
0.0
  0
LINE
  8
TRMODEL1
  6
CONTINUOUS
 62
     7
  5
64C
 10
-0.512119
 20
-0.420378
 30
0.0
 11
-0.511948
 21
-0.41664
 31
0.0
  0
LINE
  8
TRMODEL1
  6
CONTINUOUS
 62
     7
  5
64D
 10
-0.511948
 20
-0.41664
 30
0.0
 11
-0.511845
 21
-0.412896
 31
0.0
  0
LINE
  8
TRMODEL1
  6
CONTINUOUS
 62
     7
  5
64E
 10
-0.511845
 20
-0.412896
 30
0.0
 11
-0.511811
 21
-0.409146
 31
0.0
  0
LINE
  8
TRMODEL1
  6
CONTINUOUS
 62
     7
  5
64F
 10
-0.511811
 20
-0.409146
 30
0.0
 11
-0.511811
 21
-0.472441
 31
0.0
  0
LINE
  8
TRMODEL1
  6
CONTINUOUS
 62
     7
  5
650
 10
-0.511811
 20
0.0
 30
0.0
 11
-0.511845
 21
0.007501
 31
0.0
  0
LINE
  8
TRMODEL1
  6
CONTINUOUS
 62
     7
  5
651
 10
-0.511845
 20
0.007501
 30
0.0
 11
-0.511948
 21
0.014988
 31
0.0
  0
LINE
  8
TRMODEL1
  6
CONTINUOUS
 62
     7
  5
652
 10
-0.511948
 20
0.014988
 30
0.0
 11
-0.512119
 21
0.022464
 31
0.0
  0
LINE
  8
TRMODEL1
  6
CONTINUOUS
 62
     7
  5
653
 10
-0.512119
 20
0.022464
 30
0.0
 11
-0.512358
 21
0.029933
 31
0.0
  0
LINE
  8
TRMODEL1
  6
CONTINUOUS
 62
     7
  5
654
 10
-0.512358
 20
0.029933
 30
0.0
 11
-0.512664
 21
0.037397
 31
0.0
  0
LINE
  8
TRMODEL1
  6
CONTINUOUS
 62
     7
  5
655
 10
-0.512664
 20
0.037397
 30
0.0
 11
-0.513038
 21
0.044859
 31
0.0
  0
LINE
  8
TRMODEL1
  6
CONTINUOUS
 62
     7
  5
656
 10
-0.513038
 20
0.044859
 30
0.0
 11
-0.513479
 21
0.052321
 31
0.0
  0
LINE
  8
TRMODEL1
  6
CONTINUOUS
 62
     7
  5
657
 10
-0.513479
 20
0.052321
 30
0.0
 11
-0.513986
 21
0.059787
 31
0.0
  0
LINE
  8
TRMODEL1
  6
CONTINUOUS
 62
     7
  5
658
 10
-0.513986
 20
0.059787
 30
0.0
 11
-0.514561
 21
0.067259
 31
0.0
  0
LINE
  8
TRMODEL1
  6
CONTINUOUS
 62
     7
  5
659
 10
-0.514561
 20
0.067259
 30
0.0
 11
-0.515203
 21
0.074739
 31
0.0
  0
LINE
  8
TRMODEL1
  6
CONTINUOUS
 62
     7
  5
65A
 10
-0.515203
 20
0.074739
 30
0.0
 11
-0.515912
 21
0.082231
 31
0.0
  0
LINE
  8
TRMODEL1
  6
CONTINUOUS
 62
     7
  5
65B
 10
-0.515912
 20
0.082231
 30
0.0
 11
-0.516688
 21
0.089737
 31
0.0
  0
LINE
  8
TRMODEL1
  6
CONTINUOUS
 62
     7
  5
65C
 10
-0.516688
 20
0.089737
 30
0.0
 11
-0.517531
 21
0.09726
 31
0.0
  0
LINE
  8
TRMODEL1
  6
CONTINUOUS
 62
     7
  5
65D
 10
-0.517531
 20
0.09726
 30
0.0
 11
-0.518442
 21
0.104802
 31
0.0
  0
LINE
  8
TRMODEL1
  6
CONTINUOUS
 62
     7
  5
65E
 10
-0.518442
 20
0.104802
 30
0.0
 11
-0.51942
 21
0.112367
 31
0.0
  0
LINE
  8
TRMODEL1
  6
CONTINUOUS
 62
     7
  5
65F
 10
-0.51942
 20
0.112367
 30
0.0
 11
-0.520466
 21
0.119957
 31
0.0
  0
LINE
  8
TRMODEL1
  6
CONTINUOUS
 62
     7
  5
660
 10
-0.520466
 20
0.119957
 30
0.0
 11
-0.521581
 21
0.127575
 31
0.0
  0
LINE
  8
TRMODEL1
  6
CONTINUOUS
 62
     7
  5
661
 10
-0.521581
 20
0.127575
 30
0.0
 11
-0.522764
 21
0.135223
 31
0.0
  0
LINE
  8
TRMODEL1
  6
CONTINUOUS
 62
     7
  5
662
 10
-0.522764
 20
0.135223
 30
0.0
 11
-0.524016
 21
0.142905
 31
0.0
  0
LINE
  8
TRMODEL1
  6
CONTINUOUS
 62
     7
  5
663
 10
-0.524016
 20
0.142905
 30
0.0
 11
-0.525338
 21
0.150622
 31
0.0
  0
LINE
  8
TRMODEL1
  6
CONTINUOUS
 62
     7
  5
664
 10
-0.525338
 20
0.150622
 30
0.0
 11
-0.52673
 21
0.158379
 31
0.0
  0
LINE
  8
TRMODEL1
  6
CONTINUOUS
 62
     7
  5
665
 10
-0.52673
 20
0.158379
 30
0.0
 11
-0.528193
 21
0.166178
 31
0.0
  0
LINE
  8
TRMODEL1
  6
CONTINUOUS
 62
     7
  5
666
 10
-0.528193
 20
0.166178
 30
0.0
 11
-0.529727
 21
0.174021
 31
0.0
  0
LINE
  8
TRMODEL1
  6
CONTINUOUS
 62
     7
  5
667
 10
-0.529727
 20
0.174021
 30
0.0
 11
-0.531333
 21
0.181913
 31
0.0
  0
LINE
  8
TRMODEL1
  6
CONTINUOUS
 62
     7
  5
668
 10
-0.531333
 20
0.181913
 30
0.0
 11
-0.533012
 21
0.189855
 31
0.0
  0
LINE
  8
TRMODEL1
  6
CONTINUOUS
 62
     7
  5
669
 10
-0.533012
 20
0.189855
 30
0.0
 11
-0.534764
 21
0.19785
 31
0.0
  0
LINE
  8
TRMODEL1
  6
CONTINUOUS
 62
     7
  5
66A
 10
-0.534764
 20
0.19785
 30
0.0
 11
-0.536591
 21
0.205903
 31
0.0
  0
LINE
  8
TRMODEL1
  6
CONTINUOUS
 62
     7
  5
66B
 10
-0.536591
 20
0.205903
 30
0.0
 11
-0.538493
 21
0.214016
 31
0.0
  0
LINE
  8
TRMODEL1
  6
CONTINUOUS
 62
     7
  5
66C
 10
-0.538493
 20
0.214016
 30
0.0
 11
-0.540471
 21
0.222192
 31
0.0
  0
LINE
  8
TRMODEL1
  6
CONTINUOUS
 62
     7
  5
66D
 10
-0.540471
 20
0.222192
 30
0.0
 11
-0.542527
 21
0.230434
 31
0.0
  0
LINE
  8
TRMODEL1
  6
CONTINUOUS
 62
     7
  5
66E
 10
-0.542527
 20
0.230434
 30
0.0
 11
-0.544662
 21
0.238747
 31
0.0
  0
LINE
  8
TRMODEL1
  6
CONTINUOUS
 62
     7
  5
66F
 10
-0.544662
 20
0.238747
 30
0.0
 11
-0.546875
 21
0.247132
 31
0.0
  0
LINE
  8
TRMODEL1
  6
CONTINUOUS
 62
     7
  5
670
 10
-0.546875
 20
0.247132
 30
0.0
 11
-0.54917
 21
0.255595
 31
0.0
  0
LINE
  8
TRMODEL1
  6
CONTINUOUS
 62
     7
  5
671
 10
-0.54917
 20
0.255595
 30
0.0
 11
-0.551547
 21
0.264137
 31
0.0
  0
LINE
  8
TRMODEL1
  6
CONTINUOUS
 62
     7
  5
672
 10
-0.551547
 20
0.264137
 30
0.0
 11
-0.554008
 21
0.272764
 31
0.0
  0
LINE
  8
TRMODEL1
  6
CONTINUOUS
 62
     7
  5
673
 10
-0.511811
 20
0.409146
 30
0.0
 11
-0.511811
 21
0.0
 31
0.0
  0
LINE
  8
TRMODEL1
  6
CONTINUOUS
 62
     7
  5
674
 10
-0.554008
 20
0.272764
 30
0.0
 11
-0.551547
 21
0.277077
 31
0.0
  0
LINE
  8
TRMODEL1
  6
CONTINUOUS
 62
     7
  5
675
 10
-0.551547
 20
0.277077
 30
0.0
 11
-0.54917
 21
0.281349
 31
0.0
  0
LINE
  8
TRMODEL1
  6
CONTINUOUS
 62
     7
  5
676
 10
-0.54917
 20
0.281349
 30
0.0
 11
-0.546875
 21
0.28558
 31
0.0
  0
LINE
  8
TRMODEL1
  6
CONTINUOUS
 62
     7
  5
677
 10
-0.546875
 20
0.28558
 30
0.0
 11
-0.544662
 21
0.289772
 31
0.0
  0
LINE
  8
TRMODEL1
  6
CONTINUOUS
 62
     7
  5
678
 10
-0.544662
 20
0.289772
 30
0.0
 11
-0.542527
 21
0.293929
 31
0.0
  0
LINE
  8
TRMODEL1
  6
CONTINUOUS
 62
     7
  5
679
 10
-0.542527
 20
0.293929
 30
0.0
 11
-0.540471
 21
0.29805
 31
0.0
  0
LINE
  8
TRMODEL1
  6
CONTINUOUS
 62
     7
  5
67A
 10
-0.540471
 20
0.29805
 30
0.0
 11
-0.538493
 21
0.302138
 31
0.0
  0
LINE
  8
TRMODEL1
  6
CONTINUOUS
 62
     7
  5
67B
 10
-0.538493
 20
0.302138
 30
0.0
 11
-0.536591
 21
0.306194
 31
0.0
  0
LINE
  8
TRMODEL1
  6
CONTINUOUS
 62
     7
  5
67C
 10
-0.536591
 20
0.306194
 30
0.0
 11
-0.534764
 21
0.310221
 31
0.0
  0
LINE
  8
TRMODEL1
  6
CONTINUOUS
 62
     7
  5
67D
 10
-0.534764
 20
0.310221
 30
0.0
 11
-0.533012
 21
0.314219
 31
0.0
  0
LINE
  8
TRMODEL1
  6
CONTINUOUS
 62
     7
  5
67E
 10
-0.533012
 20
0.314219
 30
0.0
 11
-0.531333
 21
0.31819
 31
0.0
  0
LINE
  8
TRMODEL1
  6
CONTINUOUS
 62
     7
  5
67F
 10
-0.531333
 20
0.31819
 30
0.0
 11
-0.529727
 21
0.322135
 31
0.0
  0
LINE
  8
TRMODEL1
  6
CONTINUOUS
 62
     7
  5
680
 10
-0.529727
 20
0.322135
 30
0.0
 11
-0.528193
 21
0.326057
 31
0.0
  0
LINE
  8
TRMODEL1
  6
CONTINUOUS
 62
     7
  5
681
 10
-0.528193
 20
0.326057
 30
0.0
 11
-0.52673
 21
0.329956
 31
0.0
  0
LINE
  8
TRMODEL1
  6
CONTINUOUS
 62
     7
  5
682
 10
-0.52673
 20
0.329956
 30
0.0
 11
-0.525338
 21
0.333835
 31
0.0
  0
LINE
  8
TRMODEL1
  6
CONTINUOUS
 62
     7
  5
683
 10
-0.525338
 20
0.333835
 30
0.0
 11
-0.524016
 21
0.337694
 31
0.0
  0
LINE
  8
TRMODEL1
  6
CONTINUOUS
 62
     7
  5
684
 10
-0.524016
 20
0.337694
 30
0.0
 11
-0.522764
 21
0.341534
 31
0.0
  0
LINE
  8
TRMODEL1
  6
CONTINUOUS
 62
     7
  5
685
 10
-0.522764
 20
0.341534
 30
0.0
 11
-0.521581
 21
0.345358
 31
0.0
  0
LINE
  8
TRMODEL1
  6
CONTINUOUS
 62
     7
  5
686
 10
-0.521581
 20
0.345358
 30
0.0
 11
-0.520466
 21
0.349167
 31
0.0
  0
LINE
  8
TRMODEL1
  6
CONTINUOUS
 62
     7
  5
687
 10
-0.520466
 20
0.349167
 30
0.0
 11
-0.51942
 21
0.352962
 31
0.0
  0
LINE
  8
TRMODEL1
  6
CONTINUOUS
 62
     7
  5
688
 10
-0.51942
 20
0.352962
 30
0.0
 11
-0.518442
 21
0.356745
 31
0.0
  0
LINE
  8
TRMODEL1
  6
CONTINUOUS
 62
     7
  5
689
 10
-0.518442
 20
0.356745
 30
0.0
 11
-0.517531
 21
0.360516
 31
0.0
  0
LINE
  8
TRMODEL1
  6
CONTINUOUS
 62
     7
  5
68A
 10
-0.517531
 20
0.360516
 30
0.0
 11
-0.516688
 21
0.364277
 31
0.0
  0
LINE
  8
TRMODEL1
  6
CONTINUOUS
 62
     7
  5
68B
 10
-0.516688
 20
0.364277
 30
0.0
 11
-0.515912
 21
0.36803
 31
0.0
  0
LINE
  8
TRMODEL1
  6
CONTINUOUS
 62
     7
  5
68C
 10
-0.515912
 20
0.36803
 30
0.0
 11
-0.515203
 21
0.371776
 31
0.0
  0
LINE
  8
TRMODEL1
  6
CONTINUOUS
 62
     7
  5
68D
 10
-0.515203
 20
0.371776
 30
0.0
 11
-0.514561
 21
0.375516
 31
0.0
  0
LINE
  8
TRMODEL1
  6
CONTINUOUS
 62
     7
  5
68E
 10
-0.514561
 20
0.375516
 30
0.0
 11
-0.513986
 21
0.379252
 31
0.0
  0
LINE
  8
TRMODEL1
  6
CONTINUOUS
 62
     7
  5
68F
 10
-0.513986
 20
0.379252
 30
0.0
 11
-0.513479
 21
0.382985
 31
0.0
  0
LINE
  8
TRMODEL1
  6
CONTINUOUS
 62
     7
  5
690
 10
-0.513479
 20
0.382985
 30
0.0
 11
-0.513038
 21
0.386716
 31
0.0
  0
LINE
  8
TRMODEL1
  6
CONTINUOUS
 62
     7
  5
691
 10
-0.513038
 20
0.386716
 30
0.0
 11
-0.512664
 21
0.390447
 31
0.0
  0
LINE
  8
TRMODEL1
  6
CONTINUOUS
 62
     7
  5
692
 10
-0.512664
 20
0.390447
 30
0.0
 11
-0.512358
 21
0.394179
 31
0.0
  0
LINE
  8
TRMODEL1
  6
CONTINUOUS
 62
     7
  5
693
 10
-0.512358
 20
0.394179
 30
0.0
 11
-0.512119
 21
0.397914
 31
0.0
  0
LINE
  8
TRMODEL1
  6
CONTINUOUS
 62
     7
  5
694
 10
-0.512119
 20
0.397914
 30
0.0
 11
-0.511948
 21
0.401652
 31
0.0
  0
LINE
  8
TRMODEL1
  6
CONTINUOUS
 62
     7
  5
695
 10
-0.511948
 20
0.401652
 30
0.0
 11
-0.511845
 21
0.405396
 31
0.0
  0
LINE
  8
TRMODEL1
  6
CONTINUOUS
 62
     7
  5
696
 10
-0.511845
 20
0.405396
 30
0.0
 11
-0.511811
 21
0.409146
 31
0.0
  0
LINE
  8
TRMODEL1
  6
CONTINUOUS
 62
     7
  5
697
 10
-0.554008
 20
-0.272764
 30
0.0
 11
-0.551547
 21
-0.264137
 31
0.0
  0
LINE
  8
TRMODEL1
  6
CONTINUOUS
 62
     7
  5
698
 10
-0.551547
 20
-0.264137
 30
0.0
 11
-0.54917
 21
-0.255595
 31
0.0
  0
LINE
  8
TRMODEL1
  6
CONTINUOUS
 62
     7
  5
699
 10
-0.54917
 20
-0.255595
 30
0.0
 11
-0.546875
 21
-0.247132
 31
0.0
  0
LINE
  8
TRMODEL1
  6
CONTINUOUS
 62
     7
  5
69A
 10
-0.546875
 20
-0.247132
 30
0.0
 11
-0.544662
 21
-0.238747
 31
0.0
  0
LINE
  8
TRMODEL1
  6
CONTINUOUS
 62
     7
  5
69B
 10
-0.544662
 20
-0.238747
 30
0.0
 11
-0.542527
 21
-0.230434
 31
0.0
  0
LINE
  8
TRMODEL1
  6
CONTINUOUS
 62
     7
  5
69C
 10
-0.542527
 20
-0.230434
 30
0.0
 11
-0.540471
 21
-0.222192
 31
0.0
  0
LINE
  8
TRMODEL1
  6
CONTINUOUS
 62
     7
  5
69D
 10
-0.540471
 20
-0.222192
 30
0.0
 11
-0.538493
 21
-0.214016
 31
0.0
  0
LINE
  8
TRMODEL1
  6
CONTINUOUS
 62
     7
  5
69E
 10
-0.538493
 20
-0.214016
 30
0.0
 11
-0.536591
 21
-0.205903
 31
0.0
  0
LINE
  8
TRMODEL1
  6
CONTINUOUS
 62
     7
  5
69F
 10
-0.536591
 20
-0.205903
 30
0.0
 11
-0.534764
 21
-0.19785
 31
0.0
  0
LINE
  8
TRMODEL1
  6
CONTINUOUS
 62
     7
  5
6A0
 10
-0.534764
 20
-0.19785
 30
0.0
 11
-0.533012
 21
-0.189855
 31
0.0
  0
LINE
  8
TRMODEL1
  6
CONTINUOUS
 62
     7
  5
6A1
 10
-0.533012
 20
-0.189855
 30
0.0
 11
-0.531333
 21
-0.181913
 31
0.0
  0
LINE
  8
TRMODEL1
  6
CONTINUOUS
 62
     7
  5
6A2
 10
-0.531333
 20
-0.181913
 30
0.0
 11
-0.529727
 21
-0.174021
 31
0.0
  0
LINE
  8
TRMODEL1
  6
CONTINUOUS
 62
     7
  5
6A3
 10
-0.529727
 20
-0.174021
 30
0.0
 11
-0.528193
 21
-0.166178
 31
0.0
  0
LINE
  8
TRMODEL1
  6
CONTINUOUS
 62
     7
  5
6A4
 10
-0.528193
 20
-0.166178
 30
0.0
 11
-0.52673
 21
-0.158379
 31
0.0
  0
LINE
  8
TRMODEL1
  6
CONTINUOUS
 62
     7
  5
6A5
 10
-0.52673
 20
-0.158379
 30
0.0
 11
-0.525338
 21
-0.150622
 31
0.0
  0
LINE
  8
TRMODEL1
  6
CONTINUOUS
 62
     7
  5
6A6
 10
-0.525338
 20
-0.150622
 30
0.0
 11
-0.524016
 21
-0.142905
 31
0.0
  0
LINE
  8
TRMODEL1
  6
CONTINUOUS
 62
     7
  5
6A7
 10
-0.524016
 20
-0.142905
 30
0.0
 11
-0.522764
 21
-0.135223
 31
0.0
  0
LINE
  8
TRMODEL1
  6
CONTINUOUS
 62
     7
  5
6A8
 10
-0.522764
 20
-0.135223
 30
0.0
 11
-0.521581
 21
-0.127575
 31
0.0
  0
LINE
  8
TRMODEL1
  6
CONTINUOUS
 62
     7
  5
6A9
 10
-0.521581
 20
-0.127575
 30
0.0
 11
-0.520466
 21
-0.119957
 31
0.0
  0
LINE
  8
TRMODEL1
  6
CONTINUOUS
 62
     7
  5
6AA
 10
-0.520466
 20
-0.119957
 30
0.0
 11
-0.51942
 21
-0.112367
 31
0.0
  0
LINE
  8
TRMODEL1
  6
CONTINUOUS
 62
     7
  5
6AB
 10
-0.51942
 20
-0.112367
 30
0.0
 11
-0.518442
 21
-0.104802
 31
0.0
  0
LINE
  8
TRMODEL1
  6
CONTINUOUS
 62
     7
  5
6AC
 10
-0.518442
 20
-0.104802
 30
0.0
 11
-0.517531
 21
-0.09726
 31
0.0
  0
LINE
  8
TRMODEL1
  6
CONTINUOUS
 62
     7
  5
6AD
 10
-0.517531
 20
-0.09726
 30
0.0
 11
-0.516688
 21
-0.089737
 31
0.0
  0
LINE
  8
TRMODEL1
  6
CONTINUOUS
 62
     7
  5
6AE
 10
-0.516688
 20
-0.089737
 30
0.0
 11
-0.515912
 21
-0.082231
 31
0.0
  0
LINE
  8
TRMODEL1
  6
CONTINUOUS
 62
     7
  5
6AF
 10
-0.515912
 20
-0.082231
 30
0.0
 11
-0.515203
 21
-0.074739
 31
0.0
  0
LINE
  8
TRMODEL1
  6
CONTINUOUS
 62
     7
  5
6B0
 10
-0.515203
 20
-0.074739
 30
0.0
 11
-0.514561
 21
-0.067259
 31
0.0
  0
LINE
  8
TRMODEL1
  6
CONTINUOUS
 62
     7
  5
6B1
 10
-0.514561
 20
-0.067259
 30
0.0
 11
-0.513986
 21
-0.059787
 31
0.0
  0
LINE
  8
TRMODEL1
  6
CONTINUOUS
 62
     7
  5
6B2
 10
-0.513986
 20
-0.059787
 30
0.0
 11
-0.513479
 21
-0.052321
 31
0.0
  0
LINE
  8
TRMODEL1
  6
CONTINUOUS
 62
     7
  5
6B3
 10
-0.513479
 20
-0.052321
 30
0.0
 11
-0.513038
 21
-0.044859
 31
0.0
  0
LINE
  8
TRMODEL1
  6
CONTINUOUS
 62
     7
  5
6B4
 10
-0.513038
 20
-0.044859
 30
0.0
 11
-0.512664
 21
-0.037397
 31
0.0
  0
LINE
  8
TRMODEL1
  6
CONTINUOUS
 62
     7
  5
6B5
 10
-0.512664
 20
-0.037397
 30
0.0
 11
-0.512358
 21
-0.029933
 31
0.0
  0
LINE
  8
TRMODEL1
  6
CONTINUOUS
 62
     7
  5
6B6
 10
-0.512358
 20
-0.029933
 30
0.0
 11
-0.512119
 21
-0.022464
 31
0.0
  0
LINE
  8
TRMODEL1
  6
CONTINUOUS
 62
     7
  5
6B7
 10
-0.512119
 20
-0.022464
 30
0.0
 11
-0.511948
 21
-0.014988
 31
0.0
  0
LINE
  8
TRMODEL1
  6
CONTINUOUS
 62
     7
  5
6B8
 10
-0.511948
 20
-0.014988
 30
0.0
 11
-0.511845
 21
-0.007501
 31
0.0
  0
LINE
  8
TRMODEL1
  6
CONTINUOUS
 62
     7
  5
6B9
 10
-0.511845
 20
-0.007501
 30
0.0
 11
-0.511811
 21
0.0
 31
0.0
  0
LINE
  8
TRMODEL1
  6
CONTINUOUS
 62
     7
  5
6BA
 10
-0.511811
 20
-0.409146
 30
0.0
 11
-0.511845
 21
-0.405396
 31
0.0
  0
LINE
  8
TRMODEL1
  6
CONTINUOUS
 62
     7
  5
6BB
 10
-0.511845
 20
-0.405396
 30
0.0
 11
-0.511948
 21
-0.401652
 31
0.0
  0
LINE
  8
TRMODEL1
  6
CONTINUOUS
 62
     7
  5
6BC
 10
-0.511948
 20
-0.401652
 30
0.0
 11
-0.512119
 21
-0.397914
 31
0.0
  0
LINE
  8
TRMODEL1
  6
CONTINUOUS
 62
     7
  5
6BD
 10
-0.512119
 20
-0.397914
 30
0.0
 11
-0.512358
 21
-0.394179
 31
0.0
  0
LINE
  8
TRMODEL1
  6
CONTINUOUS
 62
     7
  5
6BE
 10
-0.512358
 20
-0.394179
 30
0.0
 11
-0.512664
 21
-0.390447
 31
0.0
  0
LINE
  8
TRMODEL1
  6
CONTINUOUS
 62
     7
  5
6BF
 10
-0.512664
 20
-0.390447
 30
0.0
 11
-0.513038
 21
-0.386716
 31
0.0
  0
LINE
  8
TRMODEL1
  6
CONTINUOUS
 62
     7
  5
6C0
 10
-0.513038
 20
-0.386716
 30
0.0
 11
-0.513479
 21
-0.382985
 31
0.0
  0
LINE
  8
TRMODEL1
  6
CONTINUOUS
 62
     7
  5
6C1
 10
-0.513479
 20
-0.382985
 30
0.0
 11
-0.513986
 21
-0.379252
 31
0.0
  0
LINE
  8
TRMODEL1
  6
CONTINUOUS
 62
     7
  5
6C2
 10
-0.513986
 20
-0.379252
 30
0.0
 11
-0.514561
 21
-0.375516
 31
0.0
  0
LINE
  8
TRMODEL1
  6
CONTINUOUS
 62
     7
  5
6C3
 10
-0.514561
 20
-0.375516
 30
0.0
 11
-0.515203
 21
-0.371776
 31
0.0
  0
LINE
  8
TRMODEL1
  6
CONTINUOUS
 62
     7
  5
6C4
 10
-0.515203
 20
-0.371776
 30
0.0
 11
-0.515912
 21
-0.36803
 31
0.0
  0
LINE
  8
TRMODEL1
  6
CONTINUOUS
 62
     7
  5
6C5
 10
-0.515912
 20
-0.36803
 30
0.0
 11
-0.516688
 21
-0.364277
 31
0.0
  0
LINE
  8
TRMODEL1
  6
CONTINUOUS
 62
     7
  5
6C6
 10
-0.516688
 20
-0.364277
 30
0.0
 11
-0.517531
 21
-0.360516
 31
0.0
  0
LINE
  8
TRMODEL1
  6
CONTINUOUS
 62
     7
  5
6C7
 10
-0.517531
 20
-0.360516
 30
0.0
 11
-0.518442
 21
-0.356745
 31
0.0
  0
LINE
  8
TRMODEL1
  6
CONTINUOUS
 62
     7
  5
6C8
 10
-0.518442
 20
-0.356745
 30
0.0
 11
-0.51942
 21
-0.352962
 31
0.0
  0
LINE
  8
TRMODEL1
  6
CONTINUOUS
 62
     7
  5
6C9
 10
-0.51942
 20
-0.352962
 30
0.0
 11
-0.520466
 21
-0.349167
 31
0.0
  0
LINE
  8
TRMODEL1
  6
CONTINUOUS
 62
     7
  5
6CA
 10
-0.520466
 20
-0.349167
 30
0.0
 11
-0.521581
 21
-0.345358
 31
0.0
  0
LINE
  8
TRMODEL1
  6
CONTINUOUS
 62
     7
  5
6CB
 10
-0.521581
 20
-0.345358
 30
0.0
 11
-0.522764
 21
-0.341534
 31
0.0
  0
LINE
  8
TRMODEL1
  6
CONTINUOUS
 62
     7
  5
6CC
 10
-0.522764
 20
-0.341534
 30
0.0
 11
-0.524016
 21
-0.337694
 31
0.0
  0
LINE
  8
TRMODEL1
  6
CONTINUOUS
 62
     7
  5
6CD
 10
-0.524016
 20
-0.337694
 30
0.0
 11
-0.525338
 21
-0.333835
 31
0.0
  0
LINE
  8
TRMODEL1
  6
CONTINUOUS
 62
     7
  5
6CE
 10
-0.525338
 20
-0.333835
 30
0.0
 11
-0.52673
 21
-0.329956
 31
0.0
  0
LINE
  8
TRMODEL1
  6
CONTINUOUS
 62
     7
  5
6CF
 10
-0.52673
 20
-0.329956
 30
0.0
 11
-0.528193
 21
-0.326057
 31
0.0
  0
LINE
  8
TRMODEL1
  6
CONTINUOUS
 62
     7
  5
6D0
 10
-0.528193
 20
-0.326057
 30
0.0
 11
-0.529727
 21
-0.322135
 31
0.0
  0
LINE
  8
TRMODEL1
  6
CONTINUOUS
 62
     7
  5
6D1
 10
-0.529727
 20
-0.322135
 30
0.0
 11
-0.531333
 21
-0.31819
 31
0.0
  0
LINE
  8
TRMODEL1
  6
CONTINUOUS
 62
     7
  5
6D2
 10
-0.531333
 20
-0.31819
 30
0.0
 11
-0.533012
 21
-0.314219
 31
0.0
  0
LINE
  8
TRMODEL1
  6
CONTINUOUS
 62
     7
  5
6D3
 10
-0.533012
 20
-0.314219
 30
0.0
 11
-0.534764
 21
-0.310221
 31
0.0
  0
LINE
  8
TRMODEL1
  6
CONTINUOUS
 62
     7
  5
6D4
 10
-0.534764
 20
-0.310221
 30
0.0
 11
-0.536591
 21
-0.306194
 31
0.0
  0
LINE
  8
TRMODEL1
  6
CONTINUOUS
 62
     7
  5
6D5
 10
-0.536591
 20
-0.306194
 30
0.0
 11
-0.538493
 21
-0.302138
 31
0.0
  0
LINE
  8
TRMODEL1
  6
CONTINUOUS
 62
     7
  5
6D6
 10
-0.538493
 20
-0.302138
 30
0.0
 11
-0.540471
 21
-0.29805
 31
0.0
  0
LINE
  8
TRMODEL1
  6
CONTINUOUS
 62
     7
  5
6D7
 10
-0.540471
 20
-0.29805
 30
0.0
 11
-0.542527
 21
-0.293929
 31
0.0
  0
LINE
  8
TRMODEL1
  6
CONTINUOUS
 62
     7
  5
6D8
 10
-0.542527
 20
-0.293929
 30
0.0
 11
-0.544662
 21
-0.289772
 31
0.0
  0
LINE
  8
TRMODEL1
  6
CONTINUOUS
 62
     7
  5
6D9
 10
-0.544662
 20
-0.289772
 30
0.0
 11
-0.546875
 21
-0.28558
 31
0.0
  0
LINE
  8
TRMODEL1
  6
CONTINUOUS
 62
     7
  5
6DA
 10
-0.546875
 20
-0.28558
 30
0.0
 11
-0.54917
 21
-0.281349
 31
0.0
  0
LINE
  8
TRMODEL1
  6
CONTINUOUS
 62
     7
  5
6DB
 10
-0.54917
 20
-0.281349
 30
0.0
 11
-0.551547
 21
-0.277077
 31
0.0
  0
LINE
  8
TRMODEL1
  6
CONTINUOUS
 62
     7
  5
6DC
 10
-0.551547
 20
-0.277077
 30
0.0
 11
-0.554008
 21
-0.272764
 31
0.0
  0
LINE
  8
TRMODEL1
  6
CONTINUOUS
 62
     7
  5
6DD
 10
-0.511811
 20
0.0
 30
0.0
 11
-0.511811
 21
-0.409146
 31
0.0
  0
LINE
  8
TRMODEL1
  6
CONTINUOUS
 62
     7
  5
6DE
 10
-0.554008
 20
0.272764
 30
0.0
 11
-0.627095
 21
0.272764
 31
0.0
  0
LINE
  8
TRMODEL1
  6
CONTINUOUS
 62
     7
  5
6DF
 10
-0.627095
 20
0.272764
 30
0.0
 11
-0.629555
 21
0.264137
 31
0.0
  0
LINE
  8
TRMODEL1
  6
CONTINUOUS
 62
     7
  5
6E0
 10
-0.629555
 20
0.264137
 30
0.0
 11
-0.631932
 21
0.255595
 31
0.0
  0
LINE
  8
TRMODEL1
  6
CONTINUOUS
 62
     7
  5
6E1
 10
-0.631932
 20
0.255595
 30
0.0
 11
-0.634227
 21
0.247132
 31
0.0
  0
LINE
  8
TRMODEL1
  6
CONTINUOUS
 62
     7
  5
6E2
 10
-0.634227
 20
0.247132
 30
0.0
 11
-0.636441
 21
0.238747
 31
0.0
  0
LINE
  8
TRMODEL1
  6
CONTINUOUS
 62
     7
  5
6E3
 10
-0.636441
 20
0.238747
 30
0.0
 11
-0.638575
 21
0.230434
 31
0.0
  0
LINE
  8
TRMODEL1
  6
CONTINUOUS
 62
     7
  5
6E4
 10
-0.638575
 20
0.230434
 30
0.0
 11
-0.640631
 21
0.222192
 31
0.0
  0
LINE
  8
TRMODEL1
  6
CONTINUOUS
 62
     7
  5
6E5
 10
-0.640631
 20
0.222192
 30
0.0
 11
-0.64261
 21
0.214016
 31
0.0
  0
LINE
  8
TRMODEL1
  6
CONTINUOUS
 62
     7
  5
6E6
 10
-0.64261
 20
0.214016
 30
0.0
 11
-0.644512
 21
0.205903
 31
0.0
  0
LINE
  8
TRMODEL1
  6
CONTINUOUS
 62
     7
  5
6E7
 10
-0.644512
 20
0.205903
 30
0.0
 11
-0.646338
 21
0.19785
 31
0.0
  0
LINE
  8
TRMODEL1
  6
CONTINUOUS
 62
     7
  5
6E8
 10
-0.646338
 20
0.19785
 30
0.0
 11
-0.648091
 21
0.189855
 31
0.0
  0
LINE
  8
TRMODEL1
  6
CONTINUOUS
 62
     7
  5
6E9
 10
-0.648091
 20
0.189855
 30
0.0
 11
-0.64977
 21
0.181913
 31
0.0
  0
LINE
  8
TRMODEL1
  6
CONTINUOUS
 62
     7
  5
6EA
 10
-0.64977
 20
0.181913
 30
0.0
 11
-0.651376
 21
0.174021
 31
0.0
  0
LINE
  8
TRMODEL1
  6
CONTINUOUS
 62
     7
  5
6EB
 10
-0.651376
 20
0.174021
 30
0.0
 11
-0.65291
 21
0.166178
 31
0.0
  0
LINE
  8
TRMODEL1
  6
CONTINUOUS
 62
     7
  5
6EC
 10
-0.65291
 20
0.166178
 30
0.0
 11
-0.654372
 21
0.158379
 31
0.0
  0
LINE
  8
TRMODEL1
  6
CONTINUOUS
 62
     7
  5
6ED
 10
-0.654372
 20
0.158379
 30
0.0
 11
-0.655764
 21
0.150622
 31
0.0
  0
LINE
  8
TRMODEL1
  6
CONTINUOUS
 62
     7
  5
6EE
 10
-0.655764
 20
0.150622
 30
0.0
 11
-0.657086
 21
0.142905
 31
0.0
  0
LINE
  8
TRMODEL1
  6
CONTINUOUS
 62
     7
  5
6EF
 10
-0.657086
 20
0.142905
 30
0.0
 11
-0.658338
 21
0.135223
 31
0.0
  0
LINE
  8
TRMODEL1
  6
CONTINUOUS
 62
     7
  5
6F0
 10
-0.658338
 20
0.135223
 30
0.0
 11
-0.659522
 21
0.127575
 31
0.0
  0
LINE
  8
TRMODEL1
  6
CONTINUOUS
 62
     7
  5
6F1
 10
-0.659522
 20
0.127575
 30
0.0
 11
-0.660636
 21
0.119957
 31
0.0
  0
LINE
  8
TRMODEL1
  6
CONTINUOUS
 62
     7
  5
6F2
 10
-0.660636
 20
0.119957
 30
0.0
 11
-0.661682
 21
0.112367
 31
0.0
  0
LINE
  8
TRMODEL1
  6
CONTINUOUS
 62
     7
  5
6F3
 10
-0.661682
 20
0.112367
 30
0.0
 11
-0.662661
 21
0.104802
 31
0.0
  0
LINE
  8
TRMODEL1
  6
CONTINUOUS
 62
     7
  5
6F4
 10
-0.662661
 20
0.104802
 30
0.0
 11
-0.663571
 21
0.09726
 31
0.0
  0
LINE
  8
TRMODEL1
  6
CONTINUOUS
 62
     7
  5
6F5
 10
-0.663571
 20
0.09726
 30
0.0
 11
-0.664414
 21
0.089737
 31
0.0
  0
LINE
  8
TRMODEL1
  6
CONTINUOUS
 62
     7
  5
6F6
 10
-0.664414
 20
0.089737
 30
0.0
 11
-0.66519
 21
0.082231
 31
0.0
  0
LINE
  8
TRMODEL1
  6
CONTINUOUS
 62
     7
  5
6F7
 10
-0.66519
 20
0.082231
 30
0.0
 11
-0.665899
 21
0.074739
 31
0.0
  0
LINE
  8
TRMODEL1
  6
CONTINUOUS
 62
     7
  5
6F8
 10
-0.665899
 20
0.074739
 30
0.0
 11
-0.666541
 21
0.067259
 31
0.0
  0
LINE
  8
TRMODEL1
  6
CONTINUOUS
 62
     7
  5
6F9
 10
-0.666541
 20
0.067259
 30
0.0
 11
-0.667116
 21
0.059787
 31
0.0
  0
LINE
  8
TRMODEL1
  6
CONTINUOUS
 62
     7
  5
6FA
 10
-0.667116
 20
0.059787
 30
0.0
 11
-0.667624
 21
0.052321
 31
0.0
  0
LINE
  8
TRMODEL1
  6
CONTINUOUS
 62
     7
  5
6FB
 10
-0.667624
 20
0.052321
 30
0.0
 11
-0.668064
 21
0.044859
 31
0.0
  0
LINE
  8
TRMODEL1
  6
CONTINUOUS
 62
     7
  5
6FC
 10
-0.668064
 20
0.044859
 30
0.0
 11
-0.668438
 21
0.037397
 31
0.0
  0
LINE
  8
TRMODEL1
  6
CONTINUOUS
 62
     7
  5
6FD
 10
-0.668438
 20
0.037397
 30
0.0
 11
-0.668744
 21
0.029933
 31
0.0
  0
LINE
  8
TRMODEL1
  6
CONTINUOUS
 62
     7
  5
6FE
 10
-0.668744
 20
0.029933
 30
0.0
 11
-0.668983
 21
0.022464
 31
0.0
  0
LINE
  8
TRMODEL1
  6
CONTINUOUS
 62
     7
  5
6FF
 10
-0.668983
 20
0.022464
 30
0.0
 11
-0.669154
 21
0.014988
 31
0.0
  0
LINE
  8
TRMODEL1
  6
CONTINUOUS
 62
     7
  5
700
 10
-0.669154
 20
0.014988
 30
0.0
 11
-0.669257
 21
0.007501
 31
0.0
  0
LINE
  8
TRMODEL1
  6
CONTINUOUS
 62
     7
  5
701
 10
-0.669257
 20
0.007501
 30
0.0
 11
-0.669291
 21
0.0
 31
0.0
  0
LINE
  8
TRMODEL1
  6
CONTINUOUS
 62
     7
  5
702
 10
-0.669291
 20
0.0
 30
0.0
 11
-0.669257
 21
-0.007501
 31
0.0
  0
LINE
  8
TRMODEL1
  6
CONTINUOUS
 62
     7
  5
703
 10
-0.669257
 20
-0.007501
 30
0.0
 11
-0.669154
 21
-0.014988
 31
0.0
  0
LINE
  8
TRMODEL1
  6
CONTINUOUS
 62
     7
  5
704
 10
-0.669154
 20
-0.014988
 30
0.0
 11
-0.668983
 21
-0.022464
 31
0.0
  0
LINE
  8
TRMODEL1
  6
CONTINUOUS
 62
     7
  5
705
 10
-0.668983
 20
-0.022464
 30
0.0
 11
-0.668744
 21
-0.029933
 31
0.0
  0
LINE
  8
TRMODEL1
  6
CONTINUOUS
 62
     7
  5
706
 10
-0.668744
 20
-0.029933
 30
0.0
 11
-0.668438
 21
-0.037397
 31
0.0
  0
LINE
  8
TRMODEL1
  6
CONTINUOUS
 62
     7
  5
707
 10
-0.668438
 20
-0.037397
 30
0.0
 11
-0.668064
 21
-0.044859
 31
0.0
  0
LINE
  8
TRMODEL1
  6
CONTINUOUS
 62
     7
  5
708
 10
-0.668064
 20
-0.044859
 30
0.0
 11
-0.667624
 21
-0.052321
 31
0.0
  0
LINE
  8
TRMODEL1
  6
CONTINUOUS
 62
     7
  5
709
 10
-0.667624
 20
-0.052321
 30
0.0
 11
-0.667116
 21
-0.059787
 31
0.0
  0
LINE
  8
TRMODEL1
  6
CONTINUOUS
 62
     7
  5
70A
 10
-0.667116
 20
-0.059787
 30
0.0
 11
-0.666541
 21
-0.067259
 31
0.0
  0
LINE
  8
TRMODEL1
  6
CONTINUOUS
 62
     7
  5
70B
 10
-0.666541
 20
-0.067259
 30
0.0
 11
-0.665899
 21
-0.074739
 31
0.0
  0
LINE
  8
TRMODEL1
  6
CONTINUOUS
 62
     7
  5
70C
 10
-0.665899
 20
-0.074739
 30
0.0
 11
-0.66519
 21
-0.082231
 31
0.0
  0
LINE
  8
TRMODEL1
  6
CONTINUOUS
 62
     7
  5
70D
 10
-0.66519
 20
-0.082231
 30
0.0
 11
-0.664414
 21
-0.089737
 31
0.0
  0
LINE
  8
TRMODEL1
  6
CONTINUOUS
 62
     7
  5
70E
 10
-0.664414
 20
-0.089737
 30
0.0
 11
-0.663571
 21
-0.09726
 31
0.0
  0
LINE
  8
TRMODEL1
  6
CONTINUOUS
 62
     7
  5
70F
 10
-0.663571
 20
-0.09726
 30
0.0
 11
-0.662661
 21
-0.104802
 31
0.0
  0
LINE
  8
TRMODEL1
  6
CONTINUOUS
 62
     7
  5
710
 10
-0.662661
 20
-0.104802
 30
0.0
 11
-0.661682
 21
-0.112367
 31
0.0
  0
LINE
  8
TRMODEL1
  6
CONTINUOUS
 62
     7
  5
711
 10
-0.661682
 20
-0.112367
 30
0.0
 11
-0.660636
 21
-0.119957
 31
0.0
  0
LINE
  8
TRMODEL1
  6
CONTINUOUS
 62
     7
  5
712
 10
-0.660636
 20
-0.119957
 30
0.0
 11
-0.659522
 21
-0.127575
 31
0.0
  0
LINE
  8
TRMODEL1
  6
CONTINUOUS
 62
     7
  5
713
 10
-0.659522
 20
-0.127575
 30
0.0
 11
-0.658338
 21
-0.135223
 31
0.0
  0
LINE
  8
TRMODEL1
  6
CONTINUOUS
 62
     7
  5
714
 10
-0.658338
 20
-0.135223
 30
0.0
 11
-0.657086
 21
-0.142905
 31
0.0
  0
LINE
  8
TRMODEL1
  6
CONTINUOUS
 62
     7
  5
715
 10
-0.657086
 20
-0.142905
 30
0.0
 11
-0.655764
 21
-0.150622
 31
0.0
  0
LINE
  8
TRMODEL1
  6
CONTINUOUS
 62
     7
  5
716
 10
-0.655764
 20
-0.150622
 30
0.0
 11
-0.654372
 21
-0.158379
 31
0.0
  0
LINE
  8
TRMODEL1
  6
CONTINUOUS
 62
     7
  5
717
 10
-0.654372
 20
-0.158379
 30
0.0
 11
-0.65291
 21
-0.166178
 31
0.0
  0
LINE
  8
TRMODEL1
  6
CONTINUOUS
 62
     7
  5
718
 10
-0.65291
 20
-0.166178
 30
0.0
 11
-0.651376
 21
-0.174021
 31
0.0
  0
LINE
  8
TRMODEL1
  6
CONTINUOUS
 62
     7
  5
719
 10
-0.651376
 20
-0.174021
 30
0.0
 11
-0.64977
 21
-0.181913
 31
0.0
  0
LINE
  8
TRMODEL1
  6
CONTINUOUS
 62
     7
  5
71A
 10
-0.64977
 20
-0.181913
 30
0.0
 11
-0.648091
 21
-0.189855
 31
0.0
  0
LINE
  8
TRMODEL1
  6
CONTINUOUS
 62
     7
  5
71B
 10
-0.648091
 20
-0.189855
 30
0.0
 11
-0.646338
 21
-0.19785
 31
0.0
  0
LINE
  8
TRMODEL1
  6
CONTINUOUS
 62
     7
  5
71C
 10
-0.646338
 20
-0.19785
 30
0.0
 11
-0.644512
 21
-0.205903
 31
0.0
  0
LINE
  8
TRMODEL1
  6
CONTINUOUS
 62
     7
  5
71D
 10
-0.644512
 20
-0.205903
 30
0.0
 11
-0.64261
 21
-0.214016
 31
0.0
  0
LINE
  8
TRMODEL1
  6
CONTINUOUS
 62
     7
  5
71E
 10
-0.64261
 20
-0.214016
 30
0.0
 11
-0.640631
 21
-0.222192
 31
0.0
  0
LINE
  8
TRMODEL1
  6
CONTINUOUS
 62
     7
  5
71F
 10
-0.640631
 20
-0.222192
 30
0.0
 11
-0.638575
 21
-0.230434
 31
0.0
  0
LINE
  8
TRMODEL1
  6
CONTINUOUS
 62
     7
  5
720
 10
-0.638575
 20
-0.230434
 30
0.0
 11
-0.636441
 21
-0.238747
 31
0.0
  0
LINE
  8
TRMODEL1
  6
CONTINUOUS
 62
     7
  5
721
 10
-0.636441
 20
-0.238747
 30
0.0
 11
-0.634227
 21
-0.247132
 31
0.0
  0
LINE
  8
TRMODEL1
  6
CONTINUOUS
 62
     7
  5
722
 10
-0.634227
 20
-0.247132
 30
0.0
 11
-0.631932
 21
-0.255595
 31
0.0
  0
LINE
  8
TRMODEL1
  6
CONTINUOUS
 62
     7
  5
723
 10
-0.631932
 20
-0.255595
 30
0.0
 11
-0.629555
 21
-0.264137
 31
0.0
  0
LINE
  8
TRMODEL1
  6
CONTINUOUS
 62
     7
  5
724
 10
-0.629555
 20
-0.264137
 30
0.0
 11
-0.627095
 21
-0.272764
 31
0.0
  0
LINE
  8
TRMODEL1
  6
CONTINUOUS
 62
     7
  5
725
 10
-0.554008
 20
-0.272764
 30
0.0
 11
-0.627095
 21
-0.272764
 31
0.0
  0
LINE
  8
TRMODEL1
  6
CONTINUOUS
 62
     7
  5
726
 10
-0.554008
 20
0.545528
 30
0.0
 11
-0.627095
 21
0.545528
 31
0.0
  0
LINE
  8
TRMODEL1
  6
CONTINUOUS
 62
     7
  5
727
 10
-0.627095
 20
0.545528
 30
0.0
 11
-0.629555
 21
0.541215
 31
0.0
  0
LINE
  8
TRMODEL1
  6
CONTINUOUS
 62
     7
  5
728
 10
-0.629555
 20
0.541215
 30
0.0
 11
-0.631932
 21
0.536943
 31
0.0
  0
LINE
  8
TRMODEL1
  6
CONTINUOUS
 62
     7
  5
729
 10
-0.631932
 20
0.536943
 30
0.0
 11
-0.634227
 21
0.532712
 31
0.0
  0
LINE
  8
TRMODEL1
  6
CONTINUOUS
 62
     7
  5
72A
 10
-0.634227
 20
0.532712
 30
0.0
 11
-0.636441
 21
0.528519
 31
0.0
  0
LINE
  8
TRMODEL1
  6
CONTINUOUS
 62
     7
  5
72B
 10
-0.636441
 20
0.528519
 30
0.0
 11
-0.638575
 21
0.524363
 31
0.0
  0
LINE
  8
TRMODEL1
  6
CONTINUOUS
 62
     7
  5
72C
 10
-0.638575
 20
0.524363
 30
0.0
 11
-0.640631
 21
0.520242
 31
0.0
  0
LINE
  8
TRMODEL1
  6
CONTINUOUS
 62
     7
  5
72D
 10
-0.640631
 20
0.520242
 30
0.0
 11
-0.64261
 21
0.516154
 31
0.0
  0
LINE
  8
TRMODEL1
  6
CONTINUOUS
 62
     7
  5
72E
 10
-0.64261
 20
0.516154
 30
0.0
 11
-0.644512
 21
0.512097
 31
0.0
  0
LINE
  8
TRMODEL1
  6
CONTINUOUS
 62
     7
  5
72F
 10
-0.644512
 20
0.512097
 30
0.0
 11
-0.646338
 21
0.508071
 31
0.0
  0
LINE
  8
TRMODEL1
  6
CONTINUOUS
 62
     7
  5
730
 10
-0.646338
 20
0.508071
 30
0.0
 11
-0.648091
 21
0.504073
 31
0.0
  0
LINE
  8
TRMODEL1
  6
CONTINUOUS
 62
     7
  5
731
 10
-0.648091
 20
0.504073
 30
0.0
 11
-0.64977
 21
0.500102
 31
0.0
  0
LINE
  8
TRMODEL1
  6
CONTINUOUS
 62
     7
  5
732
 10
-0.64977
 20
0.500102
 30
0.0
 11
-0.651376
 21
0.496157
 31
0.0
  0
LINE
  8
TRMODEL1
  6
CONTINUOUS
 62
     7
  5
733
 10
-0.651376
 20
0.496157
 30
0.0
 11
-0.65291
 21
0.492235
 31
0.0
  0
LINE
  8
TRMODEL1
  6
CONTINUOUS
 62
     7
  5
734
 10
-0.65291
 20
0.492235
 30
0.0
 11
-0.654372
 21
0.488335
 31
0.0
  0
LINE
  8
TRMODEL1
  6
CONTINUOUS
 62
     7
  5
735
 10
-0.654372
 20
0.488335
 30
0.0
 11
-0.655764
 21
0.484457
 31
0.0
  0
LINE
  8
TRMODEL1
  6
CONTINUOUS
 62
     7
  5
736
 10
-0.655764
 20
0.484457
 30
0.0
 11
-0.657086
 21
0.480598
 31
0.0
  0
LINE
  8
TRMODEL1
  6
CONTINUOUS
 62
     7
  5
737
 10
-0.657086
 20
0.480598
 30
0.0
 11
-0.658338
 21
0.476757
 31
0.0
  0
LINE
  8
TRMODEL1
  6
CONTINUOUS
 62
     7
  5
738
 10
-0.658338
 20
0.476757
 30
0.0
 11
-0.659522
 21
0.472933
 31
0.0
  0
LINE
  8
TRMODEL1
  6
CONTINUOUS
 62
     7
  5
739
 10
-0.659522
 20
0.472933
 30
0.0
 11
-0.660636
 21
0.469124
 31
0.0
  0
LINE
  8
TRMODEL1
  6
CONTINUOUS
 62
     7
  5
73A
 10
-0.660636
 20
0.469124
 30
0.0
 11
-0.661682
 21
0.465329
 31
0.0
  0
LINE
  8
TRMODEL1
  6
CONTINUOUS
 62
     7
  5
73B
 10
-0.661682
 20
0.465329
 30
0.0
 11
-0.662661
 21
0.461547
 31
0.0
  0
LINE
  8
TRMODEL1
  6
CONTINUOUS
 62
     7
  5
73C
 10
-0.662661
 20
0.461547
 30
0.0
 11
-0.663571
 21
0.457776
 31
0.0
  0
LINE
  8
TRMODEL1
  6
CONTINUOUS
 62
     7
  5
73D
 10
-0.663571
 20
0.457776
 30
0.0
 11
-0.664414
 21
0.454014
 31
0.0
  0
LINE
  8
TRMODEL1
  6
CONTINUOUS
 62
     7
  5
73E
 10
-0.664414
 20
0.454014
 30
0.0
 11
-0.66519
 21
0.450261
 31
0.0
  0
LINE
  8
TRMODEL1
  6
CONTINUOUS
 62
     7
  5
73F
 10
-0.66519
 20
0.450261
 30
0.0
 11
-0.665899
 21
0.446515
 31
0.0
  0
LINE
  8
TRMODEL1
  6
CONTINUOUS
 62
     7
  5
740
 10
-0.665899
 20
0.446515
 30
0.0
 11
-0.666541
 21
0.442775
 31
0.0
  0
LINE
  8
TRMODEL1
  6
CONTINUOUS
 62
     7
  5
741
 10
-0.666541
 20
0.442775
 30
0.0
 11
-0.667116
 21
0.439039
 31
0.0
  0
LINE
  8
TRMODEL1
  6
CONTINUOUS
 62
     7
  5
742
 10
-0.667116
 20
0.439039
 30
0.0
 11
-0.667624
 21
0.435307
 31
0.0
  0
LINE
  8
TRMODEL1
  6
CONTINUOUS
 62
     7
  5
743
 10
-0.667624
 20
0.435307
 30
0.0
 11
-0.668064
 21
0.431575
 31
0.0
  0
LINE
  8
TRMODEL1
  6
CONTINUOUS
 62
     7
  5
744
 10
-0.668064
 20
0.431575
 30
0.0
 11
-0.668438
 21
0.427845
 31
0.0
  0
LINE
  8
TRMODEL1
  6
CONTINUOUS
 62
     7
  5
745
 10
-0.668438
 20
0.427845
 30
0.0
 11
-0.668744
 21
0.424113
 31
0.0
  0
LINE
  8
TRMODEL1
  6
CONTINUOUS
 62
     7
  5
746
 10
-0.668744
 20
0.424113
 30
0.0
 11
-0.668983
 21
0.420378
 31
0.0
  0
LINE
  8
TRMODEL1
  6
CONTINUOUS
 62
     7
  5
747
 10
-0.668983
 20
0.420378
 30
0.0
 11
-0.669154
 21
0.41664
 31
0.0
  0
LINE
  8
TRMODEL1
  6
CONTINUOUS
 62
     7
  5
748
 10
-0.669154
 20
0.41664
 30
0.0
 11
-0.669257
 21
0.412896
 31
0.0
  0
LINE
  8
TRMODEL1
  6
CONTINUOUS
 62
     7
  5
749
 10
-0.669257
 20
0.412896
 30
0.0
 11
-0.669291
 21
0.409146
 31
0.0
  0
LINE
  8
TRMODEL1
  6
CONTINUOUS
 62
     7
  5
74A
 10
-0.669291
 20
0.409146
 30
0.0
 11
-0.669257
 21
0.405396
 31
0.0
  0
LINE
  8
TRMODEL1
  6
CONTINUOUS
 62
     7
  5
74B
 10
-0.669257
 20
0.405396
 30
0.0
 11
-0.669154
 21
0.401652
 31
0.0
  0
LINE
  8
TRMODEL1
  6
CONTINUOUS
 62
     7
  5
74C
 10
-0.669154
 20
0.401652
 30
0.0
 11
-0.668983
 21
0.397914
 31
0.0
  0
LINE
  8
TRMODEL1
  6
CONTINUOUS
 62
     7
  5
74D
 10
-0.668983
 20
0.397914
 30
0.0
 11
-0.668744
 21
0.394179
 31
0.0
  0
LINE
  8
TRMODEL1
  6
CONTINUOUS
 62
     7
  5
74E
 10
-0.668744
 20
0.394179
 30
0.0
 11
-0.668438
 21
0.390447
 31
0.0
  0
LINE
  8
TRMODEL1
  6
CONTINUOUS
 62
     7
  5
74F
 10
-0.668438
 20
0.390447
 30
0.0
 11
-0.668064
 21
0.386716
 31
0.0
  0
LINE
  8
TRMODEL1
  6
CONTINUOUS
 62
     7
  5
750
 10
-0.668064
 20
0.386716
 30
0.0
 11
-0.667624
 21
0.382985
 31
0.0
  0
LINE
  8
TRMODEL1
  6
CONTINUOUS
 62
     7
  5
751
 10
-0.667624
 20
0.382985
 30
0.0
 11
-0.667116
 21
0.379252
 31
0.0
  0
LINE
  8
TRMODEL1
  6
CONTINUOUS
 62
     7
  5
752
 10
-0.667116
 20
0.379252
 30
0.0
 11
-0.666541
 21
0.375516
 31
0.0
  0
LINE
  8
TRMODEL1
  6
CONTINUOUS
 62
     7
  5
753
 10
-0.666541
 20
0.375516
 30
0.0
 11
-0.665899
 21
0.371776
 31
0.0
  0
LINE
  8
TRMODEL1
  6
CONTINUOUS
 62
     7
  5
754
 10
-0.665899
 20
0.371776
 30
0.0
 11
-0.66519
 21
0.36803
 31
0.0
  0
LINE
  8
TRMODEL1
  6
CONTINUOUS
 62
     7
  5
755
 10
-0.66519
 20
0.36803
 30
0.0
 11
-0.664414
 21
0.364277
 31
0.0
  0
LINE
  8
TRMODEL1
  6
CONTINUOUS
 62
     7
  5
756
 10
-0.664414
 20
0.364277
 30
0.0
 11
-0.663571
 21
0.360516
 31
0.0
  0
LINE
  8
TRMODEL1
  6
CONTINUOUS
 62
     7
  5
757
 10
-0.663571
 20
0.360516
 30
0.0
 11
-0.662661
 21
0.356745
 31
0.0
  0
LINE
  8
TRMODEL1
  6
CONTINUOUS
 62
     7
  5
758
 10
-0.662661
 20
0.356745
 30
0.0
 11
-0.661682
 21
0.352962
 31
0.0
  0
LINE
  8
TRMODEL1
  6
CONTINUOUS
 62
     7
  5
759
 10
-0.661682
 20
0.352962
 30
0.0
 11
-0.660636
 21
0.349167
 31
0.0
  0
LINE
  8
TRMODEL1
  6
CONTINUOUS
 62
     7
  5
75A
 10
-0.660636
 20
0.349167
 30
0.0
 11
-0.659522
 21
0.345358
 31
0.0
  0
LINE
  8
TRMODEL1
  6
CONTINUOUS
 62
     7
  5
75B
 10
-0.659522
 20
0.345358
 30
0.0
 11
-0.658338
 21
0.341534
 31
0.0
  0
LINE
  8
TRMODEL1
  6
CONTINUOUS
 62
     7
  5
75C
 10
-0.658338
 20
0.341534
 30
0.0
 11
-0.657086
 21
0.337694
 31
0.0
  0
LINE
  8
TRMODEL1
  6
CONTINUOUS
 62
     7
  5
75D
 10
-0.657086
 20
0.337694
 30
0.0
 11
-0.655764
 21
0.333835
 31
0.0
  0
LINE
  8
TRMODEL1
  6
CONTINUOUS
 62
     7
  5
75E
 10
-0.655764
 20
0.333835
 30
0.0
 11
-0.654372
 21
0.329956
 31
0.0
  0
LINE
  8
TRMODEL1
  6
CONTINUOUS
 62
     7
  5
75F
 10
-0.654372
 20
0.329956
 30
0.0
 11
-0.65291
 21
0.326057
 31
0.0
  0
LINE
  8
TRMODEL1
  6
CONTINUOUS
 62
     7
  5
760
 10
-0.65291
 20
0.326057
 30
0.0
 11
-0.651376
 21
0.322135
 31
0.0
  0
LINE
  8
TRMODEL1
  6
CONTINUOUS
 62
     7
  5
761
 10
-0.651376
 20
0.322135
 30
0.0
 11
-0.64977
 21
0.31819
 31
0.0
  0
LINE
  8
TRMODEL1
  6
CONTINUOUS
 62
     7
  5
762
 10
-0.64977
 20
0.31819
 30
0.0
 11
-0.648091
 21
0.314219
 31
0.0
  0
LINE
  8
TRMODEL1
  6
CONTINUOUS
 62
     7
  5
763
 10
-0.648091
 20
0.314219
 30
0.0
 11
-0.646338
 21
0.310221
 31
0.0
  0
LINE
  8
TRMODEL1
  6
CONTINUOUS
 62
     7
  5
764
 10
-0.646338
 20
0.310221
 30
0.0
 11
-0.644512
 21
0.306194
 31
0.0
  0
LINE
  8
TRMODEL1
  6
CONTINUOUS
 62
     7
  5
765
 10
-0.644512
 20
0.306194
 30
0.0
 11
-0.64261
 21
0.302138
 31
0.0
  0
LINE
  8
TRMODEL1
  6
CONTINUOUS
 62
     7
  5
766
 10
-0.64261
 20
0.302138
 30
0.0
 11
-0.640631
 21
0.29805
 31
0.0
  0
LINE
  8
TRMODEL1
  6
CONTINUOUS
 62
     7
  5
767
 10
-0.640631
 20
0.29805
 30
0.0
 11
-0.638575
 21
0.293929
 31
0.0
  0
LINE
  8
TRMODEL1
  6
CONTINUOUS
 62
     7
  5
768
 10
-0.638575
 20
0.293929
 30
0.0
 11
-0.636441
 21
0.289772
 31
0.0
  0
LINE
  8
TRMODEL1
  6
CONTINUOUS
 62
     7
  5
769
 10
-0.636441
 20
0.289772
 30
0.0
 11
-0.634227
 21
0.28558
 31
0.0
  0
LINE
  8
TRMODEL1
  6
CONTINUOUS
 62
     7
  5
76A
 10
-0.634227
 20
0.28558
 30
0.0
 11
-0.631932
 21
0.281349
 31
0.0
  0
LINE
  8
TRMODEL1
  6
CONTINUOUS
 62
     7
  5
76B
 10
-0.631932
 20
0.281349
 30
0.0
 11
-0.629555
 21
0.277077
 31
0.0
  0
LINE
  8
TRMODEL1
  6
CONTINUOUS
 62
     7
  5
76C
 10
-0.629555
 20
0.277077
 30
0.0
 11
-0.627095
 21
0.272764
 31
0.0
  0
LINE
  8
TRMODEL1
  6
CONTINUOUS
 62
     7
  5
76D
 10
-0.669291
 20
0.409146
 30
0.0
 11
-0.669291
 21
0.472441
 31
0.0
  0
LINE
  8
TRMODEL1
  6
CONTINUOUS
 62
     7
  5
76E
 10
-0.669291
 20
0.0
 30
0.0
 11
-0.669291
 21
0.409146
 31
0.0
  0
LINE
  8
TRMODEL1
  6
CONTINUOUS
 62
     7
  5
76F
 10
-0.669291
 20
-0.409146
 30
0.0
 11
-0.669257
 21
-0.412896
 31
0.0
  0
LINE
  8
TRMODEL1
  6
CONTINUOUS
 62
     7
  5
770
 10
-0.669257
 20
-0.412896
 30
0.0
 11
-0.669154
 21
-0.41664
 31
0.0
  0
LINE
  8
TRMODEL1
  6
CONTINUOUS
 62
     7
  5
771
 10
-0.669154
 20
-0.41664
 30
0.0
 11
-0.668983
 21
-0.420378
 31
0.0
  0
LINE
  8
TRMODEL1
  6
CONTINUOUS
 62
     7
  5
772
 10
-0.668983
 20
-0.420378
 30
0.0
 11
-0.668744
 21
-0.424113
 31
0.0
  0
LINE
  8
TRMODEL1
  6
CONTINUOUS
 62
     7
  5
773
 10
-0.668744
 20
-0.424113
 30
0.0
 11
-0.668438
 21
-0.427845
 31
0.0
  0
LINE
  8
TRMODEL1
  6
CONTINUOUS
 62
     7
  5
774
 10
-0.668438
 20
-0.427845
 30
0.0
 11
-0.668064
 21
-0.431575
 31
0.0
  0
LINE
  8
TRMODEL1
  6
CONTINUOUS
 62
     7
  5
775
 10
-0.668064
 20
-0.431575
 30
0.0
 11
-0.667624
 21
-0.435307
 31
0.0
  0
LINE
  8
TRMODEL1
  6
CONTINUOUS
 62
     7
  5
776
 10
-0.667624
 20
-0.435307
 30
0.0
 11
-0.667116
 21
-0.439039
 31
0.0
  0
LINE
  8
TRMODEL1
  6
CONTINUOUS
 62
     7
  5
777
 10
-0.667116
 20
-0.439039
 30
0.0
 11
-0.666541
 21
-0.442775
 31
0.0
  0
LINE
  8
TRMODEL1
  6
CONTINUOUS
 62
     7
  5
778
 10
-0.666541
 20
-0.442775
 30
0.0
 11
-0.665899
 21
-0.446515
 31
0.0
  0
LINE
  8
TRMODEL1
  6
CONTINUOUS
 62
     7
  5
779
 10
-0.665899
 20
-0.446515
 30
0.0
 11
-0.66519
 21
-0.450261
 31
0.0
  0
LINE
  8
TRMODEL1
  6
CONTINUOUS
 62
     7
  5
77A
 10
-0.66519
 20
-0.450261
 30
0.0
 11
-0.664414
 21
-0.454014
 31
0.0
  0
LINE
  8
TRMODEL1
  6
CONTINUOUS
 62
     7
  5
77B
 10
-0.664414
 20
-0.454014
 30
0.0
 11
-0.663571
 21
-0.457776
 31
0.0
  0
LINE
  8
TRMODEL1
  6
CONTINUOUS
 62
     7
  5
77C
 10
-0.663571
 20
-0.457776
 30
0.0
 11
-0.662661
 21
-0.461547
 31
0.0
  0
LINE
  8
TRMODEL1
  6
CONTINUOUS
 62
     7
  5
77D
 10
-0.662661
 20
-0.461547
 30
0.0
 11
-0.661682
 21
-0.465329
 31
0.0
  0
LINE
  8
TRMODEL1
  6
CONTINUOUS
 62
     7
  5
77E
 10
-0.661682
 20
-0.465329
 30
0.0
 11
-0.660636
 21
-0.469124
 31
0.0
  0
LINE
  8
TRMODEL1
  6
CONTINUOUS
 62
     7
  5
77F
 10
-0.660636
 20
-0.469124
 30
0.0
 11
-0.659522
 21
-0.472933
 31
0.0
  0
LINE
  8
TRMODEL1
  6
CONTINUOUS
 62
     7
  5
780
 10
-0.659522
 20
-0.472933
 30
0.0
 11
-0.658338
 21
-0.476757
 31
0.0
  0
LINE
  8
TRMODEL1
  6
CONTINUOUS
 62
     7
  5
781
 10
-0.658338
 20
-0.476757
 30
0.0
 11
-0.657086
 21
-0.480598
 31
0.0
  0
LINE
  8
TRMODEL1
  6
CONTINUOUS
 62
     7
  5
782
 10
-0.657086
 20
-0.480598
 30
0.0
 11
-0.655764
 21
-0.484457
 31
0.0
  0
LINE
  8
TRMODEL1
  6
CONTINUOUS
 62
     7
  5
783
 10
-0.655764
 20
-0.484457
 30
0.0
 11
-0.654372
 21
-0.488335
 31
0.0
  0
LINE
  8
TRMODEL1
  6
CONTINUOUS
 62
     7
  5
784
 10
-0.654372
 20
-0.488335
 30
0.0
 11
-0.65291
 21
-0.492235
 31
0.0
  0
LINE
  8
TRMODEL1
  6
CONTINUOUS
 62
     7
  5
785
 10
-0.65291
 20
-0.492235
 30
0.0
 11
-0.651376
 21
-0.496157
 31
0.0
  0
LINE
  8
TRMODEL1
  6
CONTINUOUS
 62
     7
  5
786
 10
-0.651376
 20
-0.496157
 30
0.0
 11
-0.64977
 21
-0.500102
 31
0.0
  0
LINE
  8
TRMODEL1
  6
CONTINUOUS
 62
     7
  5
787
 10
-0.64977
 20
-0.500102
 30
0.0
 11
-0.648091
 21
-0.504073
 31
0.0
  0
LINE
  8
TRMODEL1
  6
CONTINUOUS
 62
     7
  5
788
 10
-0.648091
 20
-0.504073
 30
0.0
 11
-0.646338
 21
-0.508071
 31
0.0
  0
LINE
  8
TRMODEL1
  6
CONTINUOUS
 62
     7
  5
789
 10
-0.646338
 20
-0.508071
 30
0.0
 11
-0.644512
 21
-0.512097
 31
0.0
  0
LINE
  8
TRMODEL1
  6
CONTINUOUS
 62
     7
  5
78A
 10
-0.644512
 20
-0.512097
 30
0.0
 11
-0.64261
 21
-0.516154
 31
0.0
  0
LINE
  8
TRMODEL1
  6
CONTINUOUS
 62
     7
  5
78B
 10
-0.64261
 20
-0.516154
 30
0.0
 11
-0.640631
 21
-0.520242
 31
0.0
  0
LINE
  8
TRMODEL1
  6
CONTINUOUS
 62
     7
  5
78C
 10
-0.640631
 20
-0.520242
 30
0.0
 11
-0.638575
 21
-0.524363
 31
0.0
  0
LINE
  8
TRMODEL1
  6
CONTINUOUS
 62
     7
  5
78D
 10
-0.638575
 20
-0.524363
 30
0.0
 11
-0.636441
 21
-0.528519
 31
0.0
  0
LINE
  8
TRMODEL1
  6
CONTINUOUS
 62
     7
  5
78E
 10
-0.636441
 20
-0.528519
 30
0.0
 11
-0.634227
 21
-0.532712
 31
0.0
  0
LINE
  8
TRMODEL1
  6
CONTINUOUS
 62
     7
  5
78F
 10
-0.634227
 20
-0.532712
 30
0.0
 11
-0.631932
 21
-0.536943
 31
0.0
  0
LINE
  8
TRMODEL1
  6
CONTINUOUS
 62
     7
  5
790
 10
-0.631932
 20
-0.536943
 30
0.0
 11
-0.629555
 21
-0.541215
 31
0.0
  0
LINE
  8
TRMODEL1
  6
CONTINUOUS
 62
     7
  5
791
 10
-0.629555
 20
-0.541215
 30
0.0
 11
-0.627095
 21
-0.545528
 31
0.0
  0
LINE
  8
TRMODEL1
  6
CONTINUOUS
 62
     7
  5
792
 10
-0.669291
 20
-0.472441
 30
0.0
 11
-0.669291
 21
-0.409146
 31
0.0
  0
LINE
  8
TRMODEL1
  6
CONTINUOUS
 62
     7
  5
793
 10
-0.627095
 20
-0.272764
 30
0.0
 11
-0.629555
 21
-0.277077
 31
0.0
  0
LINE
  8
TRMODEL1
  6
CONTINUOUS
 62
     7
  5
794
 10
-0.629555
 20
-0.277077
 30
0.0
 11
-0.631932
 21
-0.281349
 31
0.0
  0
LINE
  8
TRMODEL1
  6
CONTINUOUS
 62
     7
  5
795
 10
-0.631932
 20
-0.281349
 30
0.0
 11
-0.634227
 21
-0.28558
 31
0.0
  0
LINE
  8
TRMODEL1
  6
CONTINUOUS
 62
     7
  5
796
 10
-0.634227
 20
-0.28558
 30
0.0
 11
-0.636441
 21
-0.289772
 31
0.0
  0
LINE
  8
TRMODEL1
  6
CONTINUOUS
 62
     7
  5
797
 10
-0.636441
 20
-0.289772
 30
0.0
 11
-0.638575
 21
-0.293929
 31
0.0
  0
LINE
  8
TRMODEL1
  6
CONTINUOUS
 62
     7
  5
798
 10
-0.638575
 20
-0.293929
 30
0.0
 11
-0.640631
 21
-0.29805
 31
0.0
  0
LINE
  8
TRMODEL1
  6
CONTINUOUS
 62
     7
  5
799
 10
-0.640631
 20
-0.29805
 30
0.0
 11
-0.64261
 21
-0.302138
 31
0.0
  0
LINE
  8
TRMODEL1
  6
CONTINUOUS
 62
     7
  5
79A
 10
-0.64261
 20
-0.302138
 30
0.0
 11
-0.644512
 21
-0.306194
 31
0.0
  0
LINE
  8
TRMODEL1
  6
CONTINUOUS
 62
     7
  5
79B
 10
-0.644512
 20
-0.306194
 30
0.0
 11
-0.646338
 21
-0.310221
 31
0.0
  0
LINE
  8
TRMODEL1
  6
CONTINUOUS
 62
     7
  5
79C
 10
-0.646338
 20
-0.310221
 30
0.0
 11
-0.648091
 21
-0.314219
 31
0.0
  0
LINE
  8
TRMODEL1
  6
CONTINUOUS
 62
     7
  5
79D
 10
-0.648091
 20
-0.314219
 30
0.0
 11
-0.64977
 21
-0.31819
 31
0.0
  0
LINE
  8
TRMODEL1
  6
CONTINUOUS
 62
     7
  5
79E
 10
-0.64977
 20
-0.31819
 30
0.0
 11
-0.651376
 21
-0.322135
 31
0.0
  0
LINE
  8
TRMODEL1
  6
CONTINUOUS
 62
     7
  5
79F
 10
-0.651376
 20
-0.322135
 30
0.0
 11
-0.65291
 21
-0.326057
 31
0.0
  0
LINE
  8
TRMODEL1
  6
CONTINUOUS
 62
     7
  5
7A0
 10
-0.65291
 20
-0.326057
 30
0.0
 11
-0.654372
 21
-0.329956
 31
0.0
  0
LINE
  8
TRMODEL1
  6
CONTINUOUS
 62
     7
  5
7A1
 10
-0.654372
 20
-0.329956
 30
0.0
 11
-0.655764
 21
-0.333835
 31
0.0
  0
LINE
  8
TRMODEL1
  6
CONTINUOUS
 62
     7
  5
7A2
 10
-0.655764
 20
-0.333835
 30
0.0
 11
-0.657086
 21
-0.337694
 31
0.0
  0
LINE
  8
TRMODEL1
  6
CONTINUOUS
 62
     7
  5
7A3
 10
-0.657086
 20
-0.337694
 30
0.0
 11
-0.658338
 21
-0.341534
 31
0.0
  0
LINE
  8
TRMODEL1
  6
CONTINUOUS
 62
     7
  5
7A4
 10
-0.658338
 20
-0.341534
 30
0.0
 11
-0.659522
 21
-0.345358
 31
0.0
  0
LINE
  8
TRMODEL1
  6
CONTINUOUS
 62
     7
  5
7A5
 10
-0.659522
 20
-0.345358
 30
0.0
 11
-0.660636
 21
-0.349167
 31
0.0
  0
LINE
  8
TRMODEL1
  6
CONTINUOUS
 62
     7
  5
7A6
 10
-0.660636
 20
-0.349167
 30
0.0
 11
-0.661682
 21
-0.352962
 31
0.0
  0
LINE
  8
TRMODEL1
  6
CONTINUOUS
 62
     7
  5
7A7
 10
-0.661682
 20
-0.352962
 30
0.0
 11
-0.662661
 21
-0.356745
 31
0.0
  0
LINE
  8
TRMODEL1
  6
CONTINUOUS
 62
     7
  5
7A8
 10
-0.662661
 20
-0.356745
 30
0.0
 11
-0.663571
 21
-0.360516
 31
0.0
  0
LINE
  8
TRMODEL1
  6
CONTINUOUS
 62
     7
  5
7A9
 10
-0.663571
 20
-0.360516
 30
0.0
 11
-0.664414
 21
-0.364277
 31
0.0
  0
LINE
  8
TRMODEL1
  6
CONTINUOUS
 62
     7
  5
7AA
 10
-0.664414
 20
-0.364277
 30
0.0
 11
-0.66519
 21
-0.36803
 31
0.0
  0
LINE
  8
TRMODEL1
  6
CONTINUOUS
 62
     7
  5
7AB
 10
-0.66519
 20
-0.36803
 30
0.0
 11
-0.665899
 21
-0.371776
 31
0.0
  0
LINE
  8
TRMODEL1
  6
CONTINUOUS
 62
     7
  5
7AC
 10
-0.665899
 20
-0.371776
 30
0.0
 11
-0.666541
 21
-0.375516
 31
0.0
  0
LINE
  8
TRMODEL1
  6
CONTINUOUS
 62
     7
  5
7AD
 10
-0.666541
 20
-0.375516
 30
0.0
 11
-0.667116
 21
-0.379252
 31
0.0
  0
LINE
  8
TRMODEL1
  6
CONTINUOUS
 62
     7
  5
7AE
 10
-0.667116
 20
-0.379252
 30
0.0
 11
-0.667624
 21
-0.382985
 31
0.0
  0
LINE
  8
TRMODEL1
  6
CONTINUOUS
 62
     7
  5
7AF
 10
-0.667624
 20
-0.382985
 30
0.0
 11
-0.668064
 21
-0.386716
 31
0.0
  0
LINE
  8
TRMODEL1
  6
CONTINUOUS
 62
     7
  5
7B0
 10
-0.668064
 20
-0.386716
 30
0.0
 11
-0.668438
 21
-0.390447
 31
0.0
  0
LINE
  8
TRMODEL1
  6
CONTINUOUS
 62
     7
  5
7B1
 10
-0.668438
 20
-0.390447
 30
0.0
 11
-0.668744
 21
-0.394179
 31
0.0
  0
LINE
  8
TRMODEL1
  6
CONTINUOUS
 62
     7
  5
7B2
 10
-0.668744
 20
-0.394179
 30
0.0
 11
-0.668983
 21
-0.397914
 31
0.0
  0
LINE
  8
TRMODEL1
  6
CONTINUOUS
 62
     7
  5
7B3
 10
-0.668983
 20
-0.397914
 30
0.0
 11
-0.669154
 21
-0.401652
 31
0.0
  0
LINE
  8
TRMODEL1
  6
CONTINUOUS
 62
     7
  5
7B4
 10
-0.669154
 20
-0.401652
 30
0.0
 11
-0.669257
 21
-0.405396
 31
0.0
  0
LINE
  8
TRMODEL1
  6
CONTINUOUS
 62
     7
  5
7B5
 10
-0.669257
 20
-0.405396
 30
0.0
 11
-0.669291
 21
-0.409146
 31
0.0
  0
LINE
  8
TRMODEL1
  6
CONTINUOUS
 62
     7
  5
7B6
 10
-0.669291
 20
-0.409146
 30
0.0
 11
-0.669291
 21
0.0
 31
0.0
  0
LINE
  8
TRMODEL1
  6
CONTINUOUS
 62
     7
  5
7B7
 10
-0.554008
 20
-0.545528
 30
0.0
 11
-0.627095
 21
-0.545528
 31
0.0
  0
LINE
  8
TRMODEL1
  6
CONTINUOUS
 62
     7
  5
7B8
 10
-0.826772
 20
-0.354331
 30
0.0
 11
-0.669291
 21
-0.354331
 31
0.0
  0
LINE
  8
TRMODEL1
  6
CONTINUOUS
 62
     7
  5
7B9
 10
-0.669291
 20
0.354331
 30
0.0
 11
-0.826772
 21
0.354331
 31
0.0
  0
LINE
  8
TRMODEL1
  6
CONTINUOUS
 62
     7
  5
7BA
 10
-0.511811
 20
-0.354331
 30
0.0
 11
-0.024154
 21
-0.354331
 31
0.0
  0
LINE
  8
TRMODEL1
  6
CONTINUOUS
 62
     7
  5
7BB
 10
-0.024154
 20
0.354331
 30
0.0
 11
-0.511811
 21
0.354331
 31
0.0
  0
LINE
  8
TRMODEL1
  6
CONTINUOUS
 62
     7
  5
7BC
 10
-2.220858
 20
-0.65
 30
0.0
 11
-2.220858
 21
-0.713957
 31
0.0
  0
LINE
  8
TRMODEL1
  6
CONTINUOUS
 62
     7
  5
7BD
 10
-1.677551
 20
-0.713957
 30
0.0
 11
-1.677551
 21
-0.65
 31
0.0
  0
LINE
  8
TRMODEL1
  6
CONTINUOUS
 62
     7
  5
7BE
 10
-2.185425
 20
-1.052224
 30
0.0
 11
-2.161272
 21
-1.076378
 31
0.0
  0
LINE
  8
TRMODEL1
  6
CONTINUOUS
 62
     7
  5
7BF
 10
-1.737138
 20
-1.076378
 30
0.0
 11
-1.712984
 21
-1.052224
 31
0.0
  0
LINE
  8
TRMODEL1
  6
CONTINUOUS
 62
     7
  5
7C0
 10
-2.185425
 20
-0.713957
 30
0.0
 11
-2.185425
 21
-1.052224
 31
0.0
  0
LINE
  8
TRMODEL1
  6
CONTINUOUS
 62
     7
  5
7C1
 10
-1.712984
 20
-1.052224
 30
0.0
 11
-1.712984
 21
-0.713957
 31
0.0
  0
LINE
  8
TRMODEL1
  6
CONTINUOUS
 62
     7
  5
7C2
 10
-0.024154
 20
-0.354331
 30
0.0
 11
0.0
 21
-0.330177
 31
0.0
  0
LINE
  8
TRMODEL1
  6
CONTINUOUS
 62
     7
  5
7C3
 10
0.0
 20
0.330177
 30
0.0
 11
-0.024154
 21
0.354331
 31
0.0
  0
LINE
  8
TRMODEL1
  6
CONTINUOUS
 62
     7
  5
7C4
 10
-0.826772
 20
0.472441
 30
0.0
 11
-0.868968
 21
0.545528
 31
0.0
  0
LINE
  8
TRMODEL1
  6
CONTINUOUS
 62
     7
  5
7C5
 10
-0.868968
 20
-0.545528
 30
0.0
 11
-0.826772
 21
-0.472441
 31
0.0
  0
LINE
  8
TRMODEL1
  6
CONTINUOUS
 62
     7
  5
7C6
 10
-0.942055
 20
0.545528
 30
0.0
 11
-0.984252
 21
0.472441
 31
0.0
  0
LINE
  8
TRMODEL1
  6
CONTINUOUS
 62
     7
  5
7C7
 10
-0.984252
 20
-0.472441
 30
0.0
 11
-0.942055
 21
-0.545528
 31
0.0
  0
LINE
  8
TRMODEL1
  6
CONTINUOUS
 62
     7
  5
7C8
 10
-0.511811
 20
0.472441
 30
0.0
 11
-0.554008
 21
0.545528
 31
0.0
  0
LINE
  8
TRMODEL1
  6
CONTINUOUS
 62
     7
  5
7C9
 10
-0.554008
 20
-0.545528
 30
0.0
 11
-0.511811
 21
-0.472441
 31
0.0
  0
LINE
  8
TRMODEL1
  6
CONTINUOUS
 62
     7
  5
7CA
 10
-0.627095
 20
0.545528
 30
0.0
 11
-0.669291
 21
0.472441
 31
0.0
  0
LINE
  8
TRMODEL1
  6
CONTINUOUS
 62
     7
  5
7CB
 10
-0.669291
 20
-0.472441
 30
0.0
 11
-0.627095
 21
-0.545528
 31
0.0
  0
LINE
  8
TRDETAIL3
  6
CENTER2
 62
     4
  5
7CC
 10
-1.082677
 20
0.0
 30
0.0
 11
0.098425
 21
0.0
 31
0.0
  0
LINE
  8
TRDETAIL3
  6
CENTER2
 62
     4
  5
7CD
 10
-1.949205
 20
-1.119016
 30
0.0
 11
-1.949205
 21
-0.607362
 31
0.0
  0
LINE
  8
TRDETAIL3
  6
CENTER2
 62
     4
  5
7CE
 10
-1.208071
 20
0.475
 30
0.0
 11
-1.066339
 21
0.475
 31
0.0
  0
LINE
  8
TRDETAIL3
  6
CENTER2
 62
     4
  5
7CF
 10
-1.137205
 20
0.404134
 30
0.0
 11
-1.137205
 21
0.545866
 31
0.0
  0
LINE
  8
TRDETAIL3
  6
CENTER2
 62
     4
  5
7D0
 10
-1.208071
 20
-0.475
 30
0.0
 11
-1.066339
 21
-0.475
 31
0.0
  0
LINE
  8
TRDETAIL3
  6
CENTER2
 62
     4
  5
7D1
 10
-1.137205
 20
-0.545866
 30
0.0
 11
-1.137205
 21
-0.404134
 31
0.0
  0
LINE
  8
TRMODEL3
  6
CONTINUOUS
 62
     1
  5
7D2
 10
-1.737138
 20
-0.713957
 30
0.0
 11
-1.737138
 21
-1.076378
 31
0.0
  0
LINE
  8
TRMODEL3
  6
CONTINUOUS
 62
     1
  5
7D3
 10
-2.161272
 20
-1.076378
 30
0.0
 11
-2.161272
 21
-0.713957
 31
0.0
  0
LINE
  8
TRMODEL3
  6
CONTINUOUS
 62
     1
  5
7D4
 10
0.0
 20
-0.330177
 30
0.0
 11
-0.511811
 21
-0.330177
 31
0.0
  0
LINE
  8
TRMODEL3
  6
CONTINUOUS
 62
     1
  5
7D5
 10
-0.669291
 20
-0.330177
 30
0.0
 11
-0.826772
 21
-0.330177
 31
0.0
  0
LINE
  8
TRMODEL3
  6
CONTINUOUS
 62
     1
  5
7D6
 10
-0.826772
 20
0.330177
 30
0.0
 11
-0.669291
 21
0.330177
 31
0.0
  0
LINE
  8
TRMODEL3
  6
CONTINUOUS
 62
     1
  5
7D7
 10
-0.511811
 20
0.330177
 30
0.0
 11
0.0
 21
0.330177
 31
0.0
  0
ENDSEC
  0
EOF
